  0
SECTION
  2
HEADER
  9
$ACADVER
  1
AC1009
  9
$INSBASE
 10
0.0
 20
0.0
 30
0.0
  9
$EXTMIN
 10
0.0
 20
-2.960436562073669
 30
0.0
  9
$EXTMAX
 10
249.19999999999999
 20
209.19999999999999
 30
0.0
  9
$LIMMIN
 10
0.0
 20
0.0
  9
$LIMMAX
 10
385.0
 20
270.0
  9
$ORTHOMODE
 70
     0
  9
$REGENMODE
 70
     1
  9
$FILLMODE
 70
     1
  9
$QTEXTMODE
 70
     0
  9
$MIRRTEXT
 70
     0
  9
$DRAGMODE
 70
     2
  9
$LTSCALE
 40
10.0
  9
$OSMODE
 70
  3071
  9
$ATTMODE
 70
     1
  9
$TEXTSIZE
 40
0.2
  9
$TRACEWID
 40
0.05
  9
$TEXTSTYLE
  7
STANDARD
  9
$CLAYER
  8
0
  9
$CELTYPE
  6
BYLAYER
  9
$CECOLOR
 62
   256
  9
$DIMSCALE
 40
1.0
  9
$DIMASZ
 40
3.0
  9
$DIMEXO
 40
1.0
  9
$DIMDLI
 40
6.0
  9
$DIMRND
 40
0.0
  9
$DIMDLE
 40
0.0
  9
$DIMEXE
 40
1.0
  9
$DIMTP
 40
495.0
  9
$DIMTM
 40
0.0
  9
$DIMTXT
 40
3.0
  9
$DIMCEN
 40
0.0
  9
$DIMTSZ
 40
0.0
  9
$DIMTOL
 70
     0
  9
$DIMLIM
 70
     0
  9
$DIMTIH
 70
     0
  9
$DIMTOH
 70
     0
  9
$DIMSE1
 70
     0
  9
$DIMSE2
 70
     0
  9
$DIMTAD
 70
     1
  9
$DIMZIN
 70
     0
  9
$DIMBLK
  1

  9
$DIMASO
 70
     0
  9
$DIMSHO
 70
     0
  9
$DIMPOST
  1

  9
$DIMAPOST
  1

  9
$DIMALT
 70
     0
  9
$DIMALTD
 70
     2
  9
$DIMALTF
 40
25.399999999999999
  9
$DIMLFAC
 40
1.0
  9
$DIMTOFL
 70
     1
  9
$DIMTVP
 40
0.0
  9
$DIMTIX
 70
     1
  9
$DIMSOXD
 70
     0
  9
$DIMSAH
 70
     0
  9
$DIMBLK1
  1

  9
$DIMBLK2
  1

  9
$DIMSTYLE
  2
STANDARD
  9
$DIMCLRD
 70
     0
  9
$DIMCLRE
 70
     0
  9
$DIMCLRT
 70
     4
  9
$DIMTFAC
 40
1.0
  9
$DIMGAP
 40
1.0
  9
$LUNITS
 70
     2
  9
$LUPREC
 70
     4
  9
$SKETCHINC
 40
0.1
  9
$FILLETRAD
 40
0.0
  9
$AUNITS
 70
     0
  9
$AUPREC
 70
     0
  9
$MENU
  1
E:\r13\win\SUPPORT\ACAD
  9
$ELEVATION
 40
0.0
  9
$PELEVATION
 40
0.0
  9
$THICKNESS
 40
0.0
  9
$LIMCHECK
 70
     0
  9
$BLIPMODE
 70
     0
  9
$CHAMFERA
 40
0.0
  9
$CHAMFERB
 40
0.0
  9
$SKPOLY
 70
     0
  9
$TDCREATE
 40
2450569.7088687499
  9
$TDUPDATE
 40
2456597.3558143629
  9
$TDINDWG
 40
0.0348012731
  9
$TDUSRTIMER
 40
0.0348012731
  9
$USRTIMER
 70
     1
  9
$ANGBASE
 50
0.0
  9
$ANGDIR
 70
     0
  9
$PDMODE
 70
     0
  9
$PDSIZE
 40
0.0
  9
$PLINEWID
 40
0.0
  9
$COORDS
 70
     1
  9
$SPLFRAME
 70
     0
  9
$SPLINETYPE
 70
     6
  9
$SPLINESEGS
 70
     8
  9
$ATTDIA
 70
     0
  9
$ATTREQ
 70
     1
  9
$HANDLING
 70
     1
  9
$HANDSEED
  5
2FDD
  9
$SURFTAB1
 70
     6
  9
$SURFTAB2
 70
     6
  9
$SURFTYPE
 70
     6
  9
$SURFU
 70
     6
  9
$SURFV
 70
     6
  9
$UCSNAME
  2

  9
$UCSORG
 10
0.0
 20
0.0
 30
0.0
  9
$UCSXDIR
 10
1.0
 20
0.0
 30
0.0
  9
$UCSYDIR
 10
0.0
 20
1.0
 30
0.0
  9
$PUCSNAME
  2

  9
$PUCSORG
 10
0.0
 20
0.0
 30
0.0
  9
$PUCSXDIR
 10
1.0
 20
0.0
 30
0.0
  9
$PUCSYDIR
 10
0.0
 20
1.0
 30
0.0
  9
$USERI1
 70
     3
  9
$USERI2
 70
     1
  9
$USERI3
 70
     0
  9
$USERI4
 70
     0
  9
$USERI5
 70
     0
  9
$USERR1
 40
1.0
  9
$USERR2
 40
3.0
  9
$USERR3
 40
3.0
  9
$USERR4
 40
3.0
  9
$USERR5
 40
10.0
  9
$WORLDVIEW
 70
     1
  9
$SHADEDGE
 70
     3
  9
$SHADEDIF
 70
    70
  9
$TILEMODE
 70
     1
  9
$MAXACTVP
 70
    16
  9
$PLIMCHECK
 70
     0
  9
$PEXTMIN
 10
1.0000000000000000E+020
 20
1.0000000000000000E+020
 30
1.0000000000000000E+020
  9
$PEXTMAX
 10
-1.0000000000000000E+020
 20
-1.0000000000000000E+020
 30
-1.0000000000000000E+020
  9
$PLIMMIN
 10
0.0
 20
0.0
  9
$PLIMMAX
 10
12.0
 20
9.0
  9
$UNITMODE
 70
     0
  9
$VISRETAIN
 70
     0
  9
$PLINEGEN
 70
     0
  9
$PSLTSCALE
 70
     0
  0
ENDSEC
  0
SECTION
  2
TABLES
  0
TABLE
  2
VPORT
 70
     1
  0
VPORT
  2
*ACTIVE
 70
     0
 10
0.0
 20
0.0
 11
1.0
 21
1.0
 12
192.49119011110221
 22
191.8411735746825
 13
0.0
 23
0.0
 14
5.0
 24
5.0
 15
10.0
 25
10.0
 16
0.0
 26
0.0
 36
1.0
 17
0.0
 27
0.0
 37
0.0
 40
393.16966538972372
 41
1.831871345029239
 42
50.0
 43
0.0
 44
0.0
 50
0.0
 51
0.0
 71
     0
 72
   100
 73
     1
 74
     0
 75
     0
 76
     0
 77
     0
 78
     0
  0
ENDTAB
  0
TABLE
  2
LTYPE
 70
     3
  0
LTYPE
  2
CONTINUOUS
 70
     0
  3
Solid Line
 72
    65
 73
     0
 40
0.0
  0
LTYPE
  2
CENTER
 70
     0
  3
____ _ ____ _ ____ _ ____ _ ____ _ ____ _ ____
 72
    65
 73
     4
 40
2.0
 49
1.25
 49
-0.25
 49
0.25
 49
-0.25
  0
LTYPE
  2
PHANTOM2
 70
     0
  3
___ _ _ ___ _ _ ___ _ _ ___ _ _
 72
    65
 73
     6
 40
1.25
 49
0.625
 49
-0.125
 49
0.125
 49
-0.125
 49
0.125
 49
-0.125
  0
ENDTAB
  0
TABLE
  2
LAYER
 70
     2
  0
LAYER
  2
0
 70
     0
 62
     7
  6
CONTINUOUS
  0
LAYER
  2
1
 70
     0
 62
     1
  6
CENTER
  0
ENDTAB
  0
TABLE
  2
STYLE
 70
     3
  0
STYLE
  2
STANDARD
 70
     0
 40
0.0
 41
1.0
 50
0.0
 71
     0
 42
0.2
  3
simplex
  4
bigfont
  0
STYLE
  2
ISO8
 70
     0
 40
0.0
 41
1.0
 50
0.0
 71
     0
 42
7.0
  3
TXT.SHX
  4

  0
STYLE
  2
STANDARD1
 70
     0
 40
0.0
 41
1.0
 50
0.0
 71
     0
 42
3.0
  3
txt
  4

  0
ENDTAB
  0
TABLE
  2
VIEW
 70
     0
  0
ENDTAB
  0
TABLE
  2
UCS
 70
     0
  0
ENDTAB
  0
TABLE
  2
APPID
 70
     3
  0
APPID
  2
ACAD
 70
     0
  0
APPID
  2
ACAD_MLEADERVER
 70
     0
  0
APPID
  2
ACAD_NAV_VCDISPLAY
 70
     0
  0
ENDTAB
  0
TABLE
  2
DIMSTYLE
 70
     1
  0
DIMSTYLE
  2
STANDARD
 70
     0
  3

  4

  5

  6

  7

 40
1.0
 41
0.18
 42
0.0625
 43
0.38
 44
0.18
 45
0.0
 46
0.0
 47
0.0
 48
0.0
140
0.18
141
0.09
142
0.0
143
25.399999999999999
144
1.0
145
0.0
146
1.0
147
0.09
 71
     0
 72
     0
 73
     1
 74
     1
 75
     0
 76
     0
 77
     0
 78
     0
170
     0
171
     2
172
     0
173
     0
174
     0
175
     0
176
     0
177
     0
178
     0
  0
ENDTAB
  0
ENDSEC
  0
SECTION
  2
BLOCKS
  0
BLOCK
  8
0
  2
$MODEL_SPACE
 70
     0
 10
0.0
 20
0.0
 30
0.0
  3
$MODEL_SPACE
  1

  0
ENDBLK
  5
2DA0
  8
0
  0
BLOCK
 67
     1
  8
0
  2
$PAPER_SPACE
 70
     0
 10
0.0
 20
0.0
 30
0.0
  3
$PAPER_SPACE
  1

  0
ENDBLK
  5
2D9E
 67
     1
  8
0
  0
BLOCK
  8
0
  2
STDGX5
 70
     0
 10
0.0
 20
0.0
 30
0.0
  3
STDGX5
  1

  0
ENDBLK
  5
4F
  8
0
  0
ENDSEC
  0
SECTION
  2
ENTITIES
  0
INSERT
  5
DE
  8
0
  6
CONTINUOUS
 62
     7
  2
STDGX5
 10
0.0
 20
0.0
 30
0.0
  0
INSERT
  5
DF
  8
0
  6
CONTINUOUS
 62
     7
  2
STDGX5
 10
0.0
 20
0.0
 30
0.0
  0
INSERT
  5
15C
  8
0
  6
CONTINUOUS
 62
     7
  2
STDGX5
 10
275.0
 20
0.0
 30
0.0
  0
INSERT
  5
15D
  8
0
  6
CONTINUOUS
 62
     7
  2
STDGX5
 10
275.0
 20
0.0
 30
0.0
  0
INSERT
  5
25F
  8
0
  6
CONTINUOUS
 62
     7
  2
STDGX5
 10
45.499302106388193
 20
44.35714295772538
 30
0.0
  0
INSERT
  5
260
  8
0
  6
CONTINUOUS
 62
     7
  2
STDGX5
 10
45.499302106388193
 20
44.35714295772538
 30
0.0
  0
INSERT
  5
261
  8
0
  6
CONTINUOUS
 62
     7
  2
STDGX5
 10
320.4993021063882
 20
44.35714295772538
 30
0.0
  0
INSERT
  5
262
  8
0
  6
CONTINUOUS
 62
     7
  2
STDGX5
 10
320.4993021063882
 20
44.35714295772538
 30
0.0
  0
INSERT
  5
1166
  8
0
  6
CONTINUOUS
 62
     7
  2
STDGX5
 10
76.93518408898592
 20
52.071428596574037
 30
0.0
  0
INSERT
  5
1167
  8
0
  6
CONTINUOUS
 62
     7
  2
STDGX5
 10
76.93518408898592
 20
52.071428596574037
 30
0.0
  0
INSERT
  5
1168
  8
0
  6
CONTINUOUS
 62
     7
  2
STDGX5
 10
351.93518408898592
 20
52.071428596574037
 30
0.0
  0
INSERT
  5
1169
  8
0
  6
CONTINUOUS
 62
     7
  2
STDGX5
 10
351.93518408898592
 20
52.071428596574037
 30
0.0
  0
INSERT
  5
181C
  8
0
  6
CONTINUOUS
 62
     7
  2
STDGX5
 10
54.874915817415292
 20
49.867346805862212
 30
0.0
  0
INSERT
  5
181D
  8
0
  6
CONTINUOUS
 62
     7
  2
STDGX5
 10
54.874915817415292
 20
49.867346805862212
 30
0.0
  0
INSERT
  5
181E
  8
0
  6
CONTINUOUS
 62
     7
  2
STDGX5
 10
329.87491581741529
 20
49.867346805862212
 30
0.0
  0
INSERT
  5
181F
  8
0
  6
CONTINUOUS
 62
     7
  2
STDGX5
 10
329.87491581741529
 20
49.867346805862212
 30
0.0
  0
INSERT
  5
2728
  8
0
  6
CONTINUOUS
 62
     7
  2
STDGX5
 10
51.565876074773087
 20
48.765305910506299
 30
0.0
  0
INSERT
  5
2729
  8
0
  6
CONTINUOUS
 62
     7
  2
STDGX5
 10
51.565876074773087
 20
48.765305910506299
 30
0.0
  0
INSERT
  5
272A
  8
0
  6
CONTINUOUS
 62
     7
  2
STDGX5
 10
326.56587607477309
 20
48.765305910506299
 30
0.0
  0
INSERT
  5
272B
  8
0
  6
CONTINUOUS
 62
     7
  2
STDGX5
 10
326.56587607477309
 20
48.765305910506299
 30
0.0
  0
TEXT
  5
272C
  8
0
 10
232.00900298242851
 20
151.7266831012106
 30
0.0
 40
3.6578912935603829
  1
R
 50
281.39577663450859
  7
ISO8
 72
     1
 11
232.24991790004231
 21
150.5314235414057
 31
0.0
  0
TEXT
  5
272D
  8
0
 10
232.51212621937071
 20
149.2156436402112
 30
0.0
 40
3.6578912935603829
  1
O
 50
278.64333232456642
  7
ISO8
 72
     1
 11
232.69536595350721
 21
148.01019409225509
 31
0.0
  0
TEXT
  5
272E
  8
0
 10
232.8940870479347
 20
146.68334071763451
 30
0.0
 40
3.6578912935603829
  1
L
 50
275.89088801462418
  7
ISO8
 72
     1
 11
233.0192288054393
 21
145.47048254234659
 31
0.0
  0
TEXT
  5
272F
  8
0
 10
233.15400416132101
 20
144.13561717289559
 30
0.0
 40
3.6578912935603829
  1
L
 50
273.138443704682
  7
ISO8
 72
     1
 11
233.22075919980571
 21
142.91814882518759
 31
0.0
  0
TEXT
  5
2730
  8
0
 10
233.2912778469356
 20
141.5783514257576
 30
0.0
 40
3.6578912935603829
  1
-
 50
270.38599939473983
  7
ISO8
 72
     1
 11
233.29949214100051
 21
140.35908199769551
 31
0.0
  0
TEXT
  5
2731
  8
0
 10
233.30559137012011
 20
139.01744391292121
 30
0.0
 40
3.6578912935603829
  1
R
 50
267.63355508479759
  7
ISO8
 72
     1
 11
233.25524596674009
 21
137.79918665224409
 31
0.0
  0
TEXT
  5
2732
  8
0
 10
233.14251723608851
 20
135.8515863833405
 30
0.0
 40
3.6578912935603829
  1
I
 50
264.88111077485547
  7
ISO8
 72
     1
 11
233.08812276721611
 21
135.2443692928658
 31
0.0
  0
TEXT
  5
2733
  8
0
 10
232.96548961049089
 20
133.9083337169981
 30
0.0
 40
3.6578912935603829
  1
N
 50
262.12866646491329
  7
ISO8
 72
     1
 11
232.79850814954079
 21
132.7005247070413
 31
0.0
  0
TEXT
  5
2734
  8
0
 10
232.61185905210661
 20
131.37191939862959
 30
0.0
 40
3.6578912935603829
  1
G
 50
259.376222154971
  7
ISO8
 72
     1
 11
232.38707034802709
 21
130.17352236452439
 31
0.0
  0
POLYLINE
  5
2735
  8
0
 66
     1
 10
0.0
 20
0.0
 30
0.0
  0
VERTEX
  5
2736
  8
0
 10
118.2393874434638
 20
132.50090393836371
 30
0.0
 42
0.2230591094557833
  0
VERTEX
  5
2737
  8
0
 10
118.9186393756077
 20
131.41690981817061
 30
0.0
  0
VERTEX
  5
2738
  8
0
 10
121.7134497148493
 20
129.6172303490994
 30
0.0
 42
-0.0138643006725583
  0
VERTEX
  5
2739
  8
0
 10
121.2275780201151
 20
132.86373596442681
 30
0.0
  0
SEQEND
  5
273A
  8
0
  0
POLYLINE
  5
273B
  8
0
 66
     1
 10
0.0
 20
0.0
 30
0.0
  0
VERTEX
  5
273C
  8
0
 10
120.7959135720594
 20
139.99999999999989
 30
0.0
 42
-0.2770100220963358
  0
VERTEX
  5
273D
  8
0
 10
117.4413755715197
 20
134.40971664975061
 30
0.0
 42
0.1940442857277115
  0
VERTEX
  5
273E
  8
0
 10
116.8842777633545
 20
132.33636383352109
 30
0.0
 42
0.1940442857277115
  0
SEQEND
  5
273F
  8
0
  0
POLYLINE
  5
2740
  8
0
 66
     1
 10
0.0
 20
0.0
 30
0.0
  0
VERTEX
  5
2741
  8
0
 10
122.5246735152196
 20
125.79751094931019
 30
0.0
 42
0.2770100220963358
  0
VERTEX
  5
2742
  8
0
 10
117.9270330264994
 20
130.4198366701589
 30
0.0
 42
-0.1940442857277115
  0
VERTEX
  5
2743
  8
0
 10
116.88882514613999
 20
132.29900517393631
 30
0.0
 42
-0.1940442857277115
  0
SEQEND
  5
2744
  8
0
  0
POLYLINE
  5
2745
  8
0
 66
     1
 10
0.0
 20
0.0
 30
0.0
  0
VERTEX
  5
2746
  8
0
 10
118.2438371928512
 20
132.4643473781519
 30
0.0
 42
-0.2230591094557833
  0
VERTEX
  5
2747
  8
0
 10
118.64321523191801
 20
133.67963484284729
 30
0.0
  0
VERTEX
  5
2748
  8
0
 10
120.9246913411917
 20
136.0972116847577
 30
0.0
 42
0.0138643006725583
  0
VERTEX
  5
2749
  8
0
 10
121.23181247534281
 20
132.82894813616599
 30
0.0
  0
SEQEND
  5
274A
  8
0
  0
POLYLINE
  5
274B
  8
0
 66
     1
 10
0.0
 20
0.0
 30
0.0
  0
VERTEX
  5
274C
  8
0
 10
121.8417587598056
 20
117.90410262180809
 30
0.0
 42
-0.2230591094557833
  0
VERTEX
  5
274D
  8
0
 10
121.93869427198329
 20
119.1796534621956
 30
0.0
  0
VERTEX
  5
274E
  8
0
 10
123.57531082404761
 20
122.07297288549429
 30
0.0
 42
0.0138643006725583
  0
VERTEX
  5
274F
  8
0
 10
124.6556542384083
 20
118.9731780340334
 30
0.0
  0
SEQEND
  5
2750
  8
0
  0
POLYLINE
  5
2751
  8
0
 66
     1
 10
0.0
 20
0.0
 30
0.0
  0
VERTEX
  5
2752
  8
0
 10
127.5936801474142
 20
112.4554635313001
 30
0.0
 42
0.2770100220963358
  0
VERTEX
  5
2753
  8
0
 10
122.0234437849862
 20
115.84318547972271
 30
0.0
 42
-0.1940442857277115
  0
VERTEX
  5
2754
  8
0
 10
120.5656898799742
 20
117.4192893534733
 30
0.0
 42
-0.1940442857277115
  0
SEQEND
  5
2755
  8
0
  0
POLYLINE
  5
2756
  8
0
 66
     1
 10
0.0
 20
0.0
 30
0.0
  0
VERTEX
  5
2757
  8
0
 10
122.5162767246062
 20
125.83153472795939
 30
0.0
 42
-0.2770100220963358
  0
VERTEX
  5
2758
  8
0
 10
120.5970578752581
 20
119.6009013619646
 30
0.0
 42
0.1940442857277115
  0
VERTEX
  5
2759
  8
0
 10
120.5523341234325
 20
117.45447417837509
 30
0.0
 42
0.1940442857277115
  0
SEQEND
  5
275A
  8
0
  0
POLYLINE
  5
275B
  8
0
 66
     1
 10
0.0
 20
0.0
 30
0.0
  0
VERTEX
  5
275C
  8
0
 10
121.8286897545571
 20
117.9385320200883
 30
0.0
 42
0.2230591094557833
  0
VERTEX
  5
275D
  8
0
 10
122.74762063300091
 20
117.0485924263085
 30
0.0
  0
VERTEX
  5
275E
  8
0
 10
125.8919103507907
 20
115.9700502647175
 30
0.0
 42
-0.0138643006725583
  0
VERTEX
  5
275F
  8
0
 10
124.64321755652431
 20
119.0059416197636
 30
0.0
  0
SEQEND
  5
2760
  8
0
  0
POLYLINE
  5
2761
  8
0
 66
     1
 10
0.0
 20
0.0
 30
0.0
  0
VERTEX
  5
2762
  8
0
 10
128.81962591103471
 20
104.6279911057656
 30
0.0
 42
-0.2230591094557833
  0
VERTEX
  5
2763
  8
0
 10
128.60848535670169
 20
105.8896749434407
 30
0.0
  0
VERTEX
  5
2764
  8
0
 10
129.5051281464097
 20
109.0905877400337
 30
0.0
 42
0.0138643006725583
  0
VERTEX
  5
2765
  8
0
 10
131.2959082086258
 20
106.3394103951747
 30
0.0
  0
SEQEND
  5
2766
  8
0
  0
POLYLINE
  5
2767
  8
0
 66
     1
 10
0.0
 20
0.0
 30
0.0
  0
VERTEX
  5
2768
  8
0
 10
135.70835160021909
 20
100.7142044525346
 30
0.0
 42
0.2770100220963358
  0
VERTEX
  5
2769
  8
0
 10
129.48924125448229
 20
102.67044054275701
 30
0.0
 42
-0.1940442857277115
  0
VERTEX
  5
276A
  8
0
 10
127.6966606830573
 20
103.8518823582429
 30
0.0
 42
-0.1940442857277115
  0
SEQEND
  5
276B
  8
0
  0
POLYLINE
  5
276C
  8
0
 66
     1
 10
0.0
 20
0.0
 30
0.0
  0
VERTEX
  5
276D
  8
0
 10
127.57738492908661
 20
112.4864891572539
 30
0.0
 42
-0.2770100220963358
  0
VERTEX
  5
276E
  8
0
 10
127.20502325437729
 20
105.9776075393147
 30
0.0
 42
0.1940442857277115
  0
VERTEX
  5
276F
  8
0
 10
127.6752727407833
 20
103.88284853432999
 30
0.0
 42
0.1940442857277115
  0
SEQEND
  5
2770
  8
0
  0
POLYLINE
  5
2771
  8
0
 66
     1
 10
0.0
 20
0.0
 30
0.0
  0
VERTEX
  5
2772
  8
0
 10
128.79869717300619
 20
104.6582924306322
 30
0.0
 42
0.2230591094557833
  0
VERTEX
  5
2773
  8
0
 10
129.90390207527261
 20
104.01412741765731
 30
0.0
  0
VERTEX
  5
2774
  8
0
 10
133.21493648224069
 20
103.71940351363691
 30
0.0
 42
-0.0138643006725583
  0
VERTEX
  5
2775
  8
0
 10
131.27599207483121
 20
106.3682456378624
 30
0.0
  0
SEQEND
  5
2776
  8
0
  0
POLYLINE
  5
2777
  8
0
 66
     1
 10
0.0
 20
0.0
 30
0.0
  0
VERTEX
  5
2778
  8
0
 10
138.7719103712239
 20
93.407572174635206
 30
0.0
 42
-0.2230591094557833
  0
VERTEX
  5
2779
  8
0
 10
138.26496447193341
 20
94.582064530986244
 30
0.0
  0
VERTEX
  5
277A
  8
0
 10
138.36952387951121
 20
97.904545283980156
 30
0.0
 42
0.0138643006725583
  0
VERTEX
  5
277B
  8
0
 10
140.7666669615875
 20
95.661873872883646
 30
0.0
  0
SEQEND
  5
277C
  8
0
  0
POLYLINE
  5
277D
  8
0
 66
     1
 10
0.0
 20
0.0
 30
0.0
  0
VERTEX
  5
277E
  8
0
 10
146.3970926644279
 20
91.256093012931132
 30
0.0
 42
0.2770100220963358
  0
VERTEX
  5
277F
  8
0
 10
139.8905404231302
 20
91.667153914018513
 30
0.0
 42
-0.1940442857277115
  0
VERTEX
  5
2780
  8
0
 10
137.86731145233799
 20
92.385272567290016
 30
0.0
 42
-0.1940442857277115
  0
SEQEND
  5
2781
  8
0
  0
POLYLINE
  5
2782
  8
0
 66
     1
 10
0.0
 20
0.0
 30
0.0
  0
VERTEX
  5
2783
  8
0
 10
135.68510497303561
 20
100.7404288291861
 30
0.0
 42
-0.2770100220963358
  0
VERTEX
  5
2784
  8
0
 10
136.88124078001991
 20
94.331571500114961
 30
0.0
 42
0.1940442857277115
  0
VERTEX
  5
2785
  8
0
 10
137.8391343137948
 20
92.41022045296576
 30
0.0
 42
0.1940442857277115
  0
SEQEND
  5
2786
  8
0
  0
POLYLINE
  5
2787
  8
0
 66
     1
 10
0.0
 20
0.0
 30
0.0
  0
VERTEX
  5
2788
  8
0
 10
138.74433820259691
 20
93.431984423227547
 30
0.0
 42
0.2230591094557833
  0
VERTEX
  5
2789
  8
0
 10
139.97158663702251
 20
93.071030520167213
 30
0.0
  0
VERTEX
  5
278A
  8
0
 10
143.25694044855629
 20
93.577253155741317
 30
0.0
 42
-0.0138643006725583
  0
VERTEX
  5
278B
  8
0
 10
140.74042882918619
 20
95.685104973035607
 30
0.0
  0
SEQEND
  5
278C
  8
0
  0
POLYLINE
  5
278D
  8
0
 66
     1
 10
0.0
 20
0.0
 30
0.0
  0
VERTEX
  5
278E
  8
0
 10
151.1202215426292
 20
84.894935792130596
 30
0.0
 42
-0.2230591094557833
  0
VERTEX
  5
278F
  8
0
 10
150.34693215137469
 20
85.913979440512549
 30
0.0
  0
VERTEX
  5
2790
  8
0
 10
149.6533315641118
 20
89.164937645269518
 30
0.0
 42
0.0138643006725583
  0
VERTEX
  5
2791
  8
0
 10
152.5175244233786
 20
87.561108078569447
 30
0.0
  0
SEQEND
  5
2792
  8
0
  0
POLYLINE
  5
2793
  8
0
 66
     1
 10
0.0
 20
0.0
 30
0.0
  0
VERTEX
  5
2794
  8
0
 10
159.03871256138169
 20
84.630800270523224
 30
0.0
 42
0.2770100220963358
  0
VERTEX
  5
2795
  8
0
 10
152.62285559043221
 20
83.472796617049909
 30
0.0
 42
-0.1940442857277115
  0
VERTEX
  5
2796
  8
0
 10
150.4865609339173
 20
83.685857662233957
 30
0.0
 42
-0.1940442857277115
  0
SEQEND
  5
2797
  8
0
  0
POLYLINE
  5
2798
  8
0
 66
     1
 10
0.0
 20
0.0
 30
0.0
  0
VERTEX
  5
2799
  8
0
 10
146.36824563786249
 20
91.275992074831237
 30
0.0
 42
-0.2770100220963358
  0
VERTEX
  5
279A
  8
0
 10
149.06336386121501
 20
85.339618527345081
 30
0.0
 42
0.1940442857277115
  0
VERTEX
  5
279B
  8
0
 10
150.4532321519772
 20
83.703337377064713
 30
0.0
 42
0.1940442857277115
  0
SEQEND
  5
279C
  8
0
  0
POLYLINE
  5
279D
  8
0
 66
     1
 10
0.0
 20
0.0
 30
0.0
  0
VERTEX
  5
279E
  8
0
 10
151.08760833762361
 20
84.912040213295484
 30
0.0
 42
0.2230591094557833
  0
VERTEX
  5
279F
  8
0
 10
152.36557708606611
 20
84.855274748981486
 30
0.0
  0
VERTEX
  5
27A0
  8
0
 10
155.43431748041451
 20
86.133024104614904
 30
0.0
 42
-0.0138643006725583
  0
VERTEX
  5
27A1
  8
0
 10
152.486489157254
 20
87.57738492908652
 30
0.0
  0
SEQEND
  5
27A2
  8
0
  0
POLYLINE
  5
27A3
  8
0
 66
     1
 10
0.0
 20
0.0
 30
0.0
  0
VERTEX
  5
27A4
  8
0
 10
165.1469204642533
 20
79.584805442628834
 30
0.0
 42
-0.2230591094557833
  0
VERTEX
  5
27A5
  8
0
 10
164.1522283496619
 20
80.389177270270665
 30
0.0
  0
VERTEX
  5
27A6
  8
0
 10
162.70077731255469
 20
83.379679052682505
 30
0.0
 42
0.0138643006725583
  0
VERTEX
  5
27A7
  8
0
 10
165.8655634709487
 20
82.507900075112175
 30
0.0
  0
SEQEND
  5
27A8
  8
0
  0
POLYLINE
  5
27A9
  8
0
 66
     1
 10
0.0
 20
0.0
 30
0.0
  0
VERTEX
  5
27AA
  8
0
 10
172.89852629308831
 20
81.223364157540431
 30
0.0
 42
0.2770100220963358
  0
VERTEX
  5
27AB
  8
0
 10
166.94623087894729
 20
78.56359491267429
 30
0.0
 42
-0.1940442857277115
  0
VERTEX
  5
27AC
  8
0
 10
164.82102421703109
 20
78.259216016270145
 30
0.0
 42
-0.1940442857277115
  0
SEQEND
  5
27AD
  8
0
  0
POLYLINE
  5
27AE
  8
0
 66
     1
 10
0.0
 20
0.0
 30
0.0
  0
VERTEX
  5
27AF
  8
0
 10
159.0059416197636
 20
84.643217556524405
 30
0.0
 42
-0.2770100220963358
  0
VERTEX
  5
27B0
  8
0
 10
163.04341178469929
 20
79.524328243363371
 30
0.0
 42
0.1940442857277115
  0
VERTEX
  5
27B1
  8
0
 10
164.78448073935539
 20
78.268211702766109
 30
0.0
 42
0.1940442857277115
  0
SEQEND
  5
27B2
  8
0
  0
POLYLINE
  5
27B3
  8
0
 66
     1
 10
0.0
 20
0.0
 30
0.0
  0
VERTEX
  5
27B4
  8
0
 10
165.1111615837998
 20
79.593607989580207
 30
0.0
 42
0.2230591094557833
  0
VERTEX
  5
27B5
  8
0
 10
166.3655797478271
 20
79.844329966464414
 30
0.0
  0
VERTEX
  5
27B6
  8
0
 10
169.0393626876882
 20
81.819347894037676
 30
0.0
 42
-0.0138643006725583
  0
VERTEX
  5
27B7
  8
0
 10
165.83153472795939
 20
82.516276724606257
 30
0.0
  0
SEQEND
  5
27B8
  8
0
  0
POLYLINE
  5
27B9
  8
0
 66
     1
 10
0.0
 20
0.0
 30
0.0
  0
VERTEX
  5
27BA
  8
0
 10
180.03682637974779
 20
77.785786600504366
 30
0.0
 42
-0.2230591094557833
  0
VERTEX
  5
27BB
  8
0
 10
178.87853943196069
 20
78.328739440556177
 30
0.0
  0
VERTEX
  5
27BC
  8
0
 10
176.75359100347589
 20
80.884987707060787
 30
0.0
 42
0.0138643006725583
  0
VERTEX
  5
27BD
  8
0
 10
180.03504459300089
 20
80.79592394400899
 30
0.0
  0
SEQEND
  5
27BE
  8
0
  0
POLYLINE
  5
27BF
  8
0
 66
     1
 10
0.0
 20
0.0
 30
0.0
  0
VERTEX
  5
27C0
  8
0
 10
187.1710518638339
 20
81.231812475342849
 30
0.0
 42
0.2770100220963358
  0
VERTEX
  5
27C1
  8
0
 10
182.0282437802579
 20
77.224853759727665
 30
0.0
 42
-0.1940442857277115
  0
VERTEX
  5
27C2
  8
0
 10
180.0376343993191
 20
76.420724316822074
 30
0.0
 42
-0.1940442857277115
  0
SEQEND
  5
27C3
  8
0
  0
POLYLINE
  5
27C4
  8
0
 66
     1
 10
0.0
 20
0.0
 30
0.0
  0
VERTEX
  5
27C5
  8
0
 10
172.86373596442681
 20
81.227578020115175
 30
0.0
 42
-0.2770100220963358
  0
VERTEX
  5
27C6
  8
0
 10
178.00891498056649
 20
77.2236641817546
 30
0.0
 42
0.1940442857277115
  0
VERTEX
  5
27C7
  8
0
 10
180.0
 20
76.42071317838213
 30
0.0
 42
0.1940442857277115
  0
SEQEND
  5
27C8
  8
0
  0
POLYLINE
  5
27C9
  8
0
 66
     1
 10
0.0
 20
0.0
 30
0.0
  0
VERTEX
  5
27CA
  8
0
 10
180.0
 20
77.785775701209388
 30
0.0
 42
0.2230591094557833
  0
VERTEX
  5
27CB
  8
0
 10
181.15796535554341
 20
78.329414069332543
 30
0.0
  0
VERTEX
  5
27CC
  8
0
 10
183.2814002952579
 20
80.886919705793176
 30
0.0
 42
-0.0138643006725583
  0
VERTEX
  5
27CD
  8
0
 10
180.0
 20
80.795913572059334
 30
0.0
  0
SEQEND
  5
27CE
  8
0
  0
POLYLINE
  5
27CF
  8
0
 66
     1
 10
0.0
 20
0.0
 30
0.0
  0
VERTEX
  5
27D0
  8
0
 10
194.9245920799097
 20
79.60243170169403
 30
0.0
 42
-0.2230591094557833
  0
VERTEX
  5
27D1
  8
0
 10
193.6700257261306
 20
79.852411108645299
 30
0.0
  0
VERTEX
  5
27D2
  8
0
 10
190.9950741850584
 20
81.825846001577844
 30
0.0
 42
0.0138643006725583
  0
VERTEX
  5
27D3
  8
0
 10
194.20248905068979
 20
82.524673515219519
 30
0.0
  0
SEQEND
  5
27D4
  8
0
  0
POLYLINE
  5
27D5
  8
0
 66
     1
 10
0.0
 20
0.0
 30
0.0
  0
VERTEX
  5
27D6
  8
0
 10
201.02682196596649
 20
84.655654238408204
 30
0.0
 42
0.2770100220963358
  0
VERTEX
  5
27D7
  8
0
 10
196.992382525426
 20
79.534375927893223
 30
0.0
 42
-0.1940442857277115
  0
VERTEX
  5
27D8
  8
0
 10
195.25205740711411
 20
78.277229018816243
 30
0.0
 42
-0.1940442857277115
  0
SEQEND
  5
27D9
  8
0
  0
POLYLINE
  5
27DA
  8
0
 66
     1
 10
0.0
 20
0.0
 30
0.0
  0
VERTEX
  5
27DB
  8
0
 10
187.13626403557319
 20
81.227578020115104
 30
0.0
 42
-0.2770100220963358
  0
VERTEX
  5
27DC
  8
0
 10
193.09013280046369
 20
78.571332575205844
 30
0.0
 42
0.1940442857277115
  0
VERTEX
  5
27DD
  8
0
 10
195.21551926064461
 20
78.268211702766052
 30
0.0
 42
0.1940442857277115
  0
SEQEND
  5
27DE
  8
0
  0
POLYLINE
  5
27DF
  8
0
 66
     1
 10
0.0
 20
0.0
 30
0.0
  0
VERTEX
  5
27E0
  8
0
 10
194.88883841620009
 20
79.593607989580107
 30
0.0
 42
0.2230591094557833
  0
VERTEX
  5
27E1
  8
0
 10
195.88305422582829
 20
80.398568463032007
 30
0.0
  0
VERTEX
  5
27E2
  8
0
 10
197.33273484507191
 20
83.389928876943628
 30
0.0
 42
-0.0138643006725583
  0
VERTEX
  5
27E3
  8
0
 10
194.16846527204061
 20
82.516276724606172
 30
0.0
  0
SEQEND
  5
27E4
  8
0
  0
POLYLINE
  5
27E5
  8
0
 66
     1
 10
0.0
 20
0.0
 30
0.0
  0
VERTEX
  5
27E6
  8
0
 10
208.94499473707231
 20
84.929163936153216
 30
0.0
 42
-0.2230591094557833
  0
VERTEX
  5
27E7
  8
0
 10
207.6670598136196
 20
84.871642015510062
 30
0.0
  0
VERTEX
  5
27E8
  8
0
 10
204.59756362047409
 20
86.147574672037265
 30
0.0
 42
0.0138643006725583
  0
VERTEX
  5
27E9
  8
0
 10
207.5445364686999
 20
87.593680147414247
 30
0.0
  0
SEQEND
  5
27EA
  8
0
  0
POLYLINE
  5
27EB
  8
0
 66
     1
 10
0.0
 20
0.0
 30
0.0
  0
VERTEX
  5
27EC
  8
0
 10
213.66058960482519
 20
91.295908208625804
 30
0.0
 42
0.2770100220963358
  0
VERTEX
  5
27ED
  8
0
 10
210.9689857630139
 20
85.357940383528884
 30
0.0
 42
-0.1940442857277115
  0
VERTEX
  5
27EE
  8
0
 10
209.58008627738059
 20
83.720836817093016
 30
0.0
 42
-0.1940442857277115
  0
SEQEND
  5
27EF
  8
0
  0
POLYLINE
  5
27F0
  8
0
 66
     1
 10
0.0
 20
0.0
 30
0.0
  0
VERTEX
  5
27F1
  8
0
 10
200.9940583802364
 20
84.643217556524405
 30
0.0
 42
-0.2770100220963358
  0
VERTEX
  5
27F2
  8
0
 10
207.41059968269471
 20
83.489011835265245
 30
0.0
 42
0.1940442857277115
  0
VERTEX
  5
27F3
  8
0
 10
209.54676784802291
 20
83.703337377064742
 30
0.0
 42
0.1940442857277115
  0
SEQEND
  5
27F4
  8
0
  0
POLYLINE
  5
27F5
  8
0
 66
     1
 10
0.0
 20
0.0
 30
0.0
  0
VERTEX
  5
27F6
  8
0
 10
208.91239166237659
 20
84.912040213295484
 30
0.0
 42
0.2230591094557833
  0
VERTEX
  5
27F7
  8
0
 10
209.6850777170612
 20
85.931541415271397
 30
0.0
  0
VERTEX
  5
27F8
  8
0
 10
210.37675384761809
 20
89.182909612530125
 30
0.0
 42
-0.0138643006725583
  0
VERTEX
  5
27F9
  8
0
 10
207.513510842746
 20
87.577384929086506
 30
0.0
  0
SEQEND
  5
27FA
  8
0
  0
POLYLINE
  5
27FB
  8
0
 66
     1
 10
0.0
 20
0.0
 30
0.0
  0
VERTEX
  5
27FC
  8
0
 10
221.2832195108912
 20
93.45641298829878
 30
0.0
 42
-0.2230591094557833
  0
VERTEX
  5
27FD
  8
0
 10
220.05618495041151
 20
93.094732705005299
 30
0.0
  0
VERTEX
  5
27FE
  8
0
 10
216.77053206677351
 20
93.599010556956301
 30
0.0
 42
0.0138643006725583
  0
VERTEX
  5
27FF
  8
0
 10
219.28579554746551
 20
95.708351600219189
 30
0.0
  0
SEQEND
  5
2800
  8
0
  0
POLYLINE
  5
2801
  8
0
 66
     1
 10
0.0
 20
0.0
 30
0.0
  0
VERTEX
  5
2802
  8
0
 10
224.3381261271164
 20
100.7666669615874
 30
0.0
 42
0.2770100220963358
  0
VERTEX
  5
2803
  8
0
 10
223.14578411573819
 20
94.357102728268444
 30
0.0
 42
-0.1940442857277115
  0
VERTEX
  5
2804
  8
0
 10
222.1890280524446
 20
92.435185013125576
 30
0.0
 42
-0.1940442857277115
  0
SEQEND
  5
2805
  8
0
  0
POLYLINE
  5
2806
  8
0
 66
     1
 10
0.0
 20
0.0
 30
0.0
  0
VERTEX
  5
2807
  8
0
 10
213.6317543621376
 20
91.275992074831265
 30
0.0
 42
-0.2770100220963358
  0
VERTEX
  5
2808
  8
0
 10
220.1380621448433
 20
91.690904318374734
 30
0.0
 42
0.1940442857277115
  0
VERTEX
  5
2809
  8
0
 10
222.1608656862052
 20
92.410220452965788
 30
0.0
 42
0.1940442857277115
  0
SEQEND
  5
280A
  8
0
  0
POLYLINE
  5
280B
  8
0
 66
     1
 10
0.0
 20
0.0
 30
0.0
  0
VERTEX
  5
280C
  8
0
 10
221.25566179740309
 20
93.431984423227547
 30
0.0
 42
0.2230591094557833
  0
VERTEX
  5
280D
  8
0
 10
221.76191239224559
 20
94.606776649604669
 30
0.0
  0
VERTEX
  5
280E
  8
0
 10
221.6553863315483
 20
97.929194928828409
 30
0.0
 42
-0.0138643006725583
  0
VERTEX
  5
280F
  8
0
 10
219.2595711708137
 20
95.685104973035607
 30
0.0
  0
SEQEND
  5
2810
  8
0
  0
POLYLINE
  5
2811
  8
0
 66
     1
 10
0.0
 20
0.0
 30
0.0
  0
VERTEX
  5
2812
  8
0
 10
231.2222136251344
 20
104.6886061385091
 30
0.0
 42
-0.2230591094557833
  0
VERTEX
  5
2813
  8
0
 10
230.1173902161938
 20
104.043787035976
 30
0.0
  0
VERTEX
  5
2814
  8
0
 10
226.80653084479789
 20
103.74710328757089
 30
0.0
 42
0.0138643006725583
  0
VERTEX
  5
2815
  8
0
 10
228.7439069870689
 20
106.3970926644279
 30
0.0
  0
SEQEND
  5
2816
  8
0
  0
POLYLINE
  5
2817
  8
0
 66
     1
 10
0.0
 20
0.0
 30
0.0
  0
VERTEX
  5
2818
  8
0
 10
232.4388919214305
 20
112.5175244233785
 30
0.0
 42
0.2770100220963358
  0
VERTEX
  5
2819
  8
0
 10
232.81510632420009
 20
106.0088643572598
 30
0.0
 42
-0.1940442857277115
  0
VERTEX
  5
281A
  8
0
 10
232.34609686797779
 20
103.9138273651274
 30
0.0
 42
-0.1940442857277115
  0
SEQEND
  5
281B
  8
0
  0
POLYLINE
  5
281C
  8
0
 66
     1
 10
0.0
 20
0.0
 30
0.0
  0
VERTEX
  5
281D
  8
0
 10
224.31489502696439
 20
100.7404288291861
 30
0.0
 42
-0.2770100220963358
  0
VERTEX
  5
281E
  8
0
 10
230.53284633105341
 20
102.7003458460821
 30
0.0
 42
0.1940442857277115
  0
VERTEX
  5
281F
  8
0
 10
232.3247272592167
 20
103.88284853433009
 30
0.0
 42
0.1940442857277115
  0
SEQEND
  5
2820
  8
0
  0
POLYLINE
  5
2821
  8
0
 66
     1
 10
0.0
 20
0.0
 30
0.0
  0
VERTEX
  5
2822
  8
0
 10
231.20130282699381
 20
104.6582924306321
 30
0.0
 42
0.2230591094557833
  0
VERTEX
  5
2823
  8
0
 10
231.41169651756789
 20
105.9201010274094
 30
0.0
  0
VERTEX
  5
2824
  8
0
 10
230.51315917305769
 20
109.1204825147088
 30
0.0
 42
-0.0138643006725583
  0
VERTEX
  5
2825
  8
0
 10
228.72400792516879
 20
106.3682456378623
 30
0.0
  0
SEQEND
  5
2826
  8
0
  0
POLYLINE
  5
2827
  8
0
 66
     1
 10
0.0
 20
0.0
 30
0.0
  0
VERTEX
  5
2828
  8
0
 10
238.18435886865581
 20
117.9729691482552
 30
0.0
 42
-0.2230591094557833
  0
VERTEX
  5
2829
  8
0
 10
237.2659549319122
 20
117.0824857688996
 30
0.0
  0
VERTEX
  5
282A
  8
0
 10
234.12230418493979
 20
116.002082601194
 30
0.0
 42
0.0138643006725583
  0
VERTEX
  5
282B
  8
0
 10
235.3691997294768
 20
119.0387125613818
 30
0.0
  0
SEQEND
  5
282C
  8
0
  0
POLYLINE
  5
282D
  8
0
 66
     1
 10
0.0
 20
0.0
 30
0.0
  0
VERTEX
  5
282E
  8
0
 10
237.49209992488781
 20
125.8655634709487
 30
0.0
 42
0.2770100220963358
  0
VERTEX
  5
282F
  8
0
 10
239.4150065282
 20
119.6360672370563
 30
0.0
 42
-0.1940442857277115
  0
VERTEX
  5
2830
  8
0
 10
239.46100080386461
 20
117.4896669027675
 30
0.0
 42
-0.1940442857277115
  0
SEQEND
  5
2831
  8
0
  0
POLYLINE
  5
2832
  8
0
 66
     1
 10
0.0
 20
0.0
 30
0.0
  0
VERTEX
  5
2833
  8
0
 10
232.42261507091351
 20
112.486489157254
 30
0.0
 42
-0.2770100220963358
  0
VERTEX
  5
2834
  8
0
 10
237.99084516792539
 20
115.8775076944889
 30
0.0
 42
0.1940442857277115
  0
VERTEX
  5
2835
  8
0
 10
239.4476658765675
 20
117.45447417837519
 30
0.0
 42
0.1940442857277115
  0
SEQEND
  5
2836
  8
0
  0
POLYLINE
  5
2837
  8
0
 66
     1
 10
0.0
 20
0.0
 30
0.0
  0
VERTEX
  5
2838
  8
0
 10
238.1713102454429
 20
117.9385320200884
 30
0.0
 42
0.2230591094557833
  0
VERTEX
  5
2839
  8
0
 10
238.0736197152024
 20
119.2140252581088
 30
0.0
  0
VERTEX
  5
283A
  8
0
 10
236.43529081129179
 20
122.1063754143553
 30
0.0
 42
-0.0138643006725583
  0
VERTEX
  5
283B
  8
0
 10
235.35678244347571
 20
119.0059416197636
 30
0.0
  0
SEQEND
  5
283C
  8
0
  0
POLYLINE
  5
283D
  8
0
 66
     1
 10
0.0
 20
0.0
 30
0.0
  0
VERTEX
  5
283E
  8
0
 10
241.76504066627001
 20
132.53746312610511
 30
0.0
 42
-0.2230591094557833
  0
VERTEX
  5
283F
  8
0
 10
241.0864305002645
 20
131.4530671271599
 30
0.0
  0
VERTEX
  5
2840
  8
0
 10
238.29268593242421
 20
129.65173364515519
 30
0.0
 42
0.0138643006725583
  0
VERTEX
  5
2841
  8
0
 10
238.7766358424596
 20
132.89852629308831
 30
0.0
  0
SEQEND
  5
2842
  8
0
  0
POLYLINE
  5
2843
  8
0
 66
     1
 10
0.0
 20
0.0
 30
0.0
  0
VERTEX
  5
2844
  8
0
 10
239.2040760559909
 20
140.0350445930008
 30
0.0
 42
0.2770100220963358
  0
VERTEX
  5
2845
  8
0
 10
242.5619225175422
 20
134.4467478691513
 30
0.0
 42
-0.1940442857277115
  0
VERTEX
  5
2846
  8
0
 10
243.1202475049746
 20
132.37372517828709
 30
0.0
 42
-0.1940442857277115
  0
SEQEND
  5
2847
  8
0
  0
POLYLINE
  5
2848
  8
0
 66
     1
 10
0.0
 20
0.0
 30
0.0
  0
VERTEX
  5
2849
  8
0
 10
237.48372327539369
 20
125.83153472795939
 30
0.0
 42
-0.2770100220963358
  0
VERTEX
  5
284A
  8
0
 10
242.07862687178309
 20
130.45658111399999
 30
0.0
 42
0.1940442857277115
  0
VERTEX
  5
284B
  8
0
 10
243.1157222366455
 20
132.3363638335212
 30
0.0
 42
0.1940442857277115
  0
SEQEND
  5
284C
  8
0
  0
POLYLINE
  5
284D
  8
0
 66
     1
 10
0.0
 20
0.0
 30
0.0
  0
VERTEX
  5
284E
  8
0
 10
241.76061255653619
 20
132.50090393836371
 30
0.0
 42
0.2230591094557833
  0
VERTEX
  5
284F
  8
0
 10
241.360515224008
 20
133.7159547868628
 30
0.0
  0
VERTEX
  5
2850
  8
0
 10
239.0776084815092
 20
136.13218073424039
 30
0.0
 42
-0.0138643006725583
  0
VERTEX
  5
2851
  8
0
 10
238.77242197988471
 20
132.8637359644267
 30
0.0
  0
SEQEND
  5
2852
  8
0
  0
POLYLINE
  5
2853
  8
0
 66
     1
 10
0.0
 20
0.0
 30
0.0
  0
VERTEX
  5
2854
  8
0
 10
241.7561628071488
 20
147.5356526218479
 30
0.0
 42
-0.2230591094557833
  0
VERTEX
  5
2855
  8
0
 10
241.35678476808201
 20
146.32036515715251
 30
0.0
  0
VERTEX
  5
2856
  8
0
 10
239.07530865880841
 20
143.90278831524211
 30
0.0
 42
0.0138643006725583
  0
VERTEX
  5
2857
  8
0
 10
238.76818752465729
 20
147.1710518638339
 30
0.0
  0
SEQEND
  5
2858
  8
0
  0
POLYLINE
  5
2859
  8
0
 66
     1
 10
0.0
 20
0.0
 30
0.0
  0
VERTEX
  5
285A
  8
0
 10
237.47532648478051
 20
154.20248905068959
 30
0.0
 42
0.2770100220963358
  0
VERTEX
  5
285B
  8
0
 10
242.0729669735008
 20
149.5801633298409
 30
0.0
 42
-0.1940442857277115
  0
VERTEX
  5
285C
  8
0
 10
243.11117485386009
 20
147.70099482606349
 30
0.0
 42
-0.1940442857277115
  0
SEQEND
  5
285D
  8
0
  0
POLYLINE
  5
285E
  8
0
 66
     1
 10
0.0
 20
0.0
 30
0.0
  0
VERTEX
  5
285F
  8
0
 10
239.20408642794061
 20
139.99999999999989
 30
0.0
 42
-0.2770100220963358
  0
VERTEX
  5
2860
  8
0
 10
242.55862442848041
 20
145.59028335024919
 30
0.0
 42
0.1940442857277115
  0
VERTEX
  5
2861
  8
0
 10
243.11572223664569
 20
147.66363616647871
 30
0.0
 42
0.1940442857277115
  0
SEQEND
  5
2862
  8
0
  0
POLYLINE
  5
2863
  8
0
 66
     1
 10
0.0
 20
0.0
 30
0.0
  0
VERTEX
  5
2864
  8
0
 10
241.7606125565363
 20
147.4990960616361
 30
0.0
 42
0.2230591094557833
  0
VERTEX
  5
2865
  8
0
 10
241.0813606243924
 20
148.58309018182919
 30
0.0
  0
VERTEX
  5
2866
  8
0
 10
238.28655028515081
 20
150.3827696509004
 30
0.0
 42
-0.0138643006725583
  0
VERTEX
  5
2867
  8
0
 10
238.77242197988491
 20
147.13626403557299
 30
0.0
  0
SEQEND
  5
2868
  8
0
  0
POLYLINE
  5
2869
  8
0
 66
     1
 10
0.0
 20
0.0
 30
0.0
  0
VERTEX
  5
286A
  8
0
 10
238.1582412401944
 20
162.09589737819189
 30
0.0
 42
-0.2230591094557833
  0
VERTEX
  5
286B
  8
0
 10
238.06130572801669
 20
160.82034653780431
 30
0.0
  0
VERTEX
  5
286C
  8
0
 10
236.42468917595249
 20
157.92702711450571
 30
0.0
 42
0.0138643006725583
  0
VERTEX
  5
286D
  8
0
 10
235.34434576159171
 20
161.0268219659666
 30
0.0
  0
SEQEND
  5
286E
  8
0
  0
POLYLINE
  5
286F
  8
0
 66
     1
 10
0.0
 20
0.0
 30
0.0
  0
VERTEX
  5
2870
  8
0
 10
232.40631985258591
 20
167.5445364686999
 30
0.0
 42
0.2770100220963358
  0
VERTEX
  5
2871
  8
0
 10
237.976556215014
 20
164.15681452027721
 30
0.0
 42
-0.1940442857277115
  0
VERTEX
  5
2872
  8
0
 10
239.4343101200258
 20
162.5807106465266
 30
0.0
 42
-0.1940442857277115
  0
SEQEND
  5
2873
  8
0
  0
POLYLINE
  5
2874
  8
0
 66
     1
 10
0.0
 20
0.0
 30
0.0
  0
VERTEX
  5
2875
  8
0
 10
237.4837232753938
 20
154.16846527204061
 30
0.0
 42
-0.2770100220963358
  0
VERTEX
  5
2876
  8
0
 10
239.40294212474191
 20
160.3990986380353
 30
0.0
 42
0.1940442857277115
  0
VERTEX
  5
2877
  8
0
 10
239.4476658765675
 20
162.54552582162481
 30
0.0
 42
0.1940442857277115
  0
SEQEND
  5
2878
  8
0
  0
POLYLINE
  5
2879
  8
0
 66
     1
 10
0.0
 20
0.0
 30
0.0
  0
VERTEX
  5
287A
  8
0
 10
238.1713102454429
 20
162.06146797991161
 30
0.0
 42
0.2230591094557833
  0
VERTEX
  5
287B
  8
0
 10
237.25237936699909
 20
162.9514075736914
 30
0.0
  0
VERTEX
  5
287C
  8
0
 10
234.10808964920929
 20
164.0299497352824
 30
0.0
 42
-0.0138643006725583
  0
VERTEX
  5
287D
  8
0
 10
235.35678244347571
 20
160.9940583802364
 30
0.0
  0
SEQEND
  5
287E
  8
0
  0
POLYLINE
  5
287F
  8
0
 66
     1
 10
0.0
 20
0.0
 30
0.0
  0
VERTEX
  5
2880
  8
0
 10
231.18037408896541
 20
175.37200889423431
 30
0.0
 42
-0.2230591094557833
  0
VERTEX
  5
2881
  8
0
 10
231.39151464329839
 20
174.11032505655919
 30
0.0
  0
VERTEX
  5
2882
  8
0
 10
230.49487185359041
 20
170.9094122599663
 30
0.0
 42
0.0138643006725583
  0
VERTEX
  5
2883
  8
0
 10
228.7040917913742
 20
173.66058960482519
 30
0.0
  0
SEQEND
  5
2884
  8
0
  0
POLYLINE
  5
2885
  8
0
 66
     1
 10
0.0
 20
0.0
 30
0.0
  0
VERTEX
  5
2886
  8
0
 10
224.29164839978091
 20
179.2857955474654
 30
0.0
 42
0.2770100220963358
  0
VERTEX
  5
2887
  8
0
 10
230.51075874551771
 20
177.32955945724299
 30
0.0
 42
-0.1940442857277115
  0
VERTEX
  5
2888
  8
0
 10
232.30333931694281
 20
176.14811764175701
 30
0.0
 42
-0.1940442857277115
  0
SEQEND
  5
2889
  8
0
  0
POLYLINE
  5
288A
  8
0
 66
     1
 10
0.0
 20
0.0
 30
0.0
  0
VERTEX
  5
288B
  8
0
 10
232.42261507091351
 20
167.513510842746
 30
0.0
 42
-0.2770100220963358
  0
VERTEX
  5
288C
  8
0
 10
232.79497674562279
 20
174.0223924606853
 30
0.0
 42
0.1940442857277115
  0
VERTEX
  5
288D
  8
0
 10
232.3247272592167
 20
176.11715146566991
 30
0.0
 42
0.1940442857277115
  0
SEQEND
  5
288E
  8
0
  0
POLYLINE
  5
288F
  8
0
 66
     1
 10
0.0
 20
0.0
 30
0.0
  0
VERTEX
  5
2890
  8
0
 10
231.20130282699381
 20
175.3417075693678
 30
0.0
 42
0.2230591094557833
  0
VERTEX
  5
2891
  8
0
 10
230.0960979247275
 20
175.98587258234261
 30
0.0
  0
VERTEX
  5
2892
  8
0
 10
226.78506351775931
 20
176.28059648636301
 30
0.0
 42
-0.0138643006725583
  0
VERTEX
  5
2893
  8
0
 10
228.72400792516879
 20
173.6317543621376
 30
0.0
  0
SEQEND
  5
2894
  8
0
  0
POLYLINE
  5
2895
  8
0
 66
     1
 10
0.0
 20
0.0
 30
0.0
  0
VERTEX
  5
2896
  8
0
 10
221.22808962877619
 20
186.59242782536469
 30
0.0
 42
-0.2230591094557833
  0
VERTEX
  5
2897
  8
0
 10
221.73503552806679
 20
185.4179354690136
 30
0.0
  0
VERTEX
  5
2898
  8
0
 10
221.63047612048891
 20
182.0954547160197
 30
0.0
 42
0.0138643006725583
  0
VERTEX
  5
2899
  8
0
 10
219.2333330384125
 20
184.3381261271162
 30
0.0
  0
SEQEND
  5
289A
  8
0
  0
POLYLINE
  5
289B
  8
0
 66
     1
 10
0.0
 20
0.0
 30
0.0
  0
VERTEX
  5
289C
  8
0
 10
213.60290733557221
 20
188.7439069870687
 30
0.0
 42
0.2770100220963358
  0
VERTEX
  5
289D
  8
0
 10
220.10945957686999
 20
188.33284608598129
 30
0.0
 42
-0.1940442857277115
  0
VERTEX
  5
289E
  8
0
 10
222.13268854766221
 20
187.61472743270991
 30
0.0
 42
-0.1940442857277115
  0
SEQEND
  5
289F
  8
0
  0
POLYLINE
  5
28A0
  8
0
 66
     1
 10
0.0
 20
0.0
 30
0.0
  0
VERTEX
  5
28A1
  8
0
 10
224.31489502696451
 20
179.2595711708137
 30
0.0
 42
-0.2770100220963358
  0
VERTEX
  5
28A2
  8
0
 10
223.11875921998029
 20
185.6684284998849
 30
0.0
 42
0.1940442857277115
  0
VERTEX
  5
28A3
  8
0
 10
222.16086568620531
 20
187.5897795470342
 30
0.0
 42
0.1940442857277115
  0
SEQEND
  5
28A4
  8
0
  0
POLYLINE
  5
28A5
  8
0
 66
     1
 10
0.0
 20
0.0
 30
0.0
  0
VERTEX
  5
28A6
  8
0
 10
221.25566179740329
 20
186.56801557677241
 30
0.0
 42
0.2230591094557833
  0
VERTEX
  5
28A7
  8
0
 10
220.0284133629776
 20
186.9289694798326
 30
0.0
  0
VERTEX
  5
28A8
  8
0
 10
216.74305955144379
 20
186.42274684425851
 30
0.0
 42
-0.0138643006725583
  0
VERTEX
  5
28A9
  8
0
 10
219.2595711708139
 20
184.31489502696431
 30
0.0
  0
SEQEND
  5
28AA
  8
0
  0
POLYLINE
  5
28AB
  8
0
 66
     1
 10
0.0
 20
0.0
 30
0.0
  0
VERTEX
  5
28AC
  8
0
 10
208.87977845737089
 20
195.1050642078693
 30
0.0
 42
-0.2230591094557833
  0
VERTEX
  5
28AD
  8
0
 10
209.6530678486256
 20
194.08602055948731
 30
0.0
  0
VERTEX
  5
28AE
  8
0
 10
210.3466684358882
 20
190.83506235473041
 30
0.0
 42
0.0138643006725583
  0
VERTEX
  5
28AF
  8
0
 10
207.48247557662151
 20
192.43889192143041
 30
0.0
  0
SEQEND
  5
28B0
  8
0
  0
POLYLINE
  5
28B1
  8
0
 66
     1
 10
0.0
 20
0.0
 30
0.0
  0
VERTEX
  5
28B2
  8
0
 10
200.9612874386184
 20
195.36919972947669
 30
0.0
 42
0.2770100220963358
  0
VERTEX
  5
28B3
  8
0
 10
207.37714440956799
 20
196.52720338295001
 30
0.0
 42
-0.1940442857277115
  0
VERTEX
  5
28B4
  8
0
 10
209.5134390660829
 20
196.31414233776599
 30
0.0
 42
-0.1940442857277115
  0
SEQEND
  5
28B5
  8
0
  0
POLYLINE
  5
28B6
  8
0
 66
     1
 10
0.0
 20
0.0
 30
0.0
  0
VERTEX
  5
28B7
  8
0
 10
213.63175436213771
 20
188.72400792516871
 30
0.0
 42
-0.2770100220963358
  0
VERTEX
  5
28B8
  8
0
 10
210.93663613878519
 20
194.66038147265479
 30
0.0
 42
0.1940442857277115
  0
VERTEX
  5
28B9
  8
0
 10
209.54676784802291
 20
196.2966626229352
 30
0.0
 42
0.1940442857277115
  0
SEQEND
  5
28BA
  8
0
  0
POLYLINE
  5
28BB
  8
0
 66
     1
 10
0.0
 20
0.0
 30
0.0
  0
VERTEX
  5
28BC
  8
0
 10
208.91239166237659
 20
195.0879597867044
 30
0.0
 42
0.2230591094557833
  0
VERTEX
  5
28BD
  8
0
 10
207.634422913934
 20
195.1447252510184
 30
0.0
  0
VERTEX
  5
28BE
  8
0
 10
204.56568251958561
 20
193.866975895385
 30
0.0
 42
-0.0138643006725583
  0
VERTEX
  5
28BF
  8
0
 10
207.5135108427462
 20
192.42261507091339
 30
0.0
  0
SEQEND
  5
28C0
  8
0
  0
POLYLINE
  5
28C1
  8
0
 66
     1
 10
0.0
 20
0.0
 30
0.0
  0
VERTEX
  5
28C2
  8
0
 10
194.8530795357467
 20
200.41519455737119
 30
0.0
 42
-0.2230591094557833
  0
VERTEX
  5
28C3
  8
0
 10
195.84777165033819
 20
199.61082272972931
 30
0.0
  0
VERTEX
  5
28C4
  8
0
 10
197.29922268744539
 20
196.6203209473174
 30
0.0
 42
0.0138643006725583
  0
VERTEX
  5
28C5
  8
0
 10
194.13443652905141
 20
197.49209992488781
 30
0.0
  0
SEQEND
  5
28C6
  8
0
  0
POLYLINE
  5
28C7
  8
0
 66
     1
 10
0.0
 20
0.0
 30
0.0
  0
VERTEX
  5
28C8
  8
0
 10
187.1014737069118
 20
198.77663584245951
 30
0.0
 42
0.2770100220963358
  0
VERTEX
  5
28C9
  8
0
 10
193.0537691210528
 20
201.43640508732571
 30
0.0
 42
-0.1940442857277115
  0
VERTEX
  5
28CA
  8
0
 10
195.17897578296891
 20
201.74078398372981
 30
0.0
 42
-0.1940442857277115
  0
SEQEND
  5
28CB
  8
0
  0
POLYLINE
  5
28CC
  8
0
 66
     1
 10
0.0
 20
0.0
 30
0.0
  0
VERTEX
  5
28CD
  8
0
 10
200.99405838023651
 20
195.35678244347559
 30
0.0
 42
-0.2770100220963358
  0
VERTEX
  5
28CE
  8
0
 10
196.9565882153008
 20
200.47567175663659
 30
0.0
 42
0.1940442857277115
  0
VERTEX
  5
28CF
  8
0
 10
195.2155192606447
 20
201.73178829723389
 30
0.0
 42
0.1940442857277115
  0
SEQEND
  5
28D0
  8
0
  0
POLYLINE
  5
28D1
  8
0
 66
     1
 10
0.0
 20
0.0
 30
0.0
  0
VERTEX
  5
28D2
  8
0
 10
194.88883841620029
 20
200.40639201041969
 30
0.0
 42
0.2230591094557833
  0
VERTEX
  5
28D3
  8
0
 10
193.6344202521729
 20
200.15567003353561
 30
0.0
  0
VERTEX
  5
28D4
  8
0
 10
190.960637312312
 20
198.18065210596231
 30
0.0
 42
-0.0138643006725583
  0
VERTEX
  5
28D5
  8
0
 10
194.16846527204081
 20
197.4837232753936
 30
0.0
  0
SEQEND
  5
28D6
  8
0
  0
POLYLINE
  5
28D7
  8
0
 66
     1
 10
0.0
 20
0.0
 30
0.0
  0
VERTEX
  5
28D8
  8
0
 10
179.96317362025221
 20
202.21421339949569
 30
0.0
 42
-0.2230591094557833
  0
VERTEX
  5
28D9
  8
0
 10
181.12146056803951
 20
201.67126055944379
 30
0.0
  0
VERTEX
  5
28DA
  8
0
 10
183.2464089965242
 20
199.11501229293921
 30
0.0
 42
0.0138643006725583
  0
VERTEX
  5
28DB
  8
0
 10
179.9649554069992
 20
199.20407605599101
 30
0.0
  0
SEQEND
  5
28DC
  8
0
  0
POLYLINE
  5
28DD
  8
0
 66
     1
 10
0.0
 20
0.0
 30
0.0
  0
VERTEX
  5
28DE
  8
0
 10
172.82894813616619
 20
198.76818752465709
 30
0.0
 42
0.2770100220963358
  0
VERTEX
  5
28DF
  8
0
 10
177.97175621974219
 20
202.77514624027231
 30
0.0
 42
-0.1940442857277115
  0
VERTEX
  5
28E0
  8
0
 10
179.9623656006811
 20
203.579275683178
 30
0.0
 42
-0.1940442857277115
  0
SEQEND
  5
28E1
  8
0
  0
POLYLINE
  5
28E2
  8
0
 66
     1
 10
0.0
 20
0.0
 30
0.0
  0
VERTEX
  5
28E3
  8
0
 10
187.1362640355733
 20
198.77242197988491
 30
0.0
 42
-0.2770100220963358
  0
VERTEX
  5
28E4
  8
0
 10
181.9910850194336
 20
202.77633581824551
 30
0.0
 42
0.1940442857277115
  0
VERTEX
  5
28E5
  8
0
 10
180.00000000000011
 20
203.57928682161781
 30
0.0
 42
0.1940442857277115
  0
SEQEND
  5
28E6
  8
0
  0
POLYLINE
  5
28E7
  8
0
 66
     1
 10
0.0
 20
0.0
 30
0.0
  0
VERTEX
  5
28E8
  8
0
 10
180.00000000000011
 20
202.21422429879061
 30
0.0
 42
0.2230591094557833
  0
VERTEX
  5
28E9
  8
0
 10
178.8420346444567
 20
201.67058593066739
 30
0.0
  0
VERTEX
  5
28EA
  8
0
 10
176.71859970474219
 20
199.11308029420681
 30
0.0
 42
-0.0138643006725583
  0
VERTEX
  5
28EB
  8
0
 10
180.0000000000002
 20
199.20408642794061
 30
0.0
  0
SEQEND
  5
28EC
  8
0
  0
POLYLINE
  5
28ED
  8
0
 66
     1
 10
0.0
 20
0.0
 30
0.0
  0
VERTEX
  5
28EE
  8
0
 10
165.07540792009041
 20
200.39756829830591
 30
0.0
 42
-0.2230591094557833
  0
VERTEX
  5
28EF
  8
0
 10
166.32997427386951
 20
200.14758889135459
 30
0.0
  0
VERTEX
  5
28F0
  8
0
 10
169.00492581494171
 20
198.17415399842201
 30
0.0
 42
0.0138643006725583
  0
VERTEX
  5
28F1
  8
0
 10
165.79751094931029
 20
197.4753264847804
 30
0.0
  0
SEQEND
  5
28F2
  8
0
  0
POLYLINE
  5
28F3
  8
0
 66
     1
 10
0.0
 20
0.0
 30
0.0
  0
VERTEX
  5
28F4
  8
0
 10
158.97317803403371
 20
195.34434576159171
 30
0.0
 42
0.2770100220963358
  0
VERTEX
  5
28F5
  8
0
 10
163.00761747457409
 20
200.46562407210681
 30
0.0
 42
-0.1940442857277115
  0
VERTEX
  5
28F6
  8
0
 10
164.74794259288609
 20
201.72277098118369
 30
0.0
 42
-0.1940442857277115
  0
SEQEND
  5
28F7
  8
0
  0
POLYLINE
  5
28F8
  8
0
 66
     1
 10
0.0
 20
0.0
 30
0.0
  0
VERTEX
  5
28F9
  8
0
 10
172.86373596442689
 20
198.77242197988491
 30
0.0
 42
-0.2770100220963358
  0
VERTEX
  5
28FA
  8
0
 10
166.90986719953651
 20
201.4286674247941
 30
0.0
 42
0.1940442857277115
  0
VERTEX
  5
28FB
  8
0
 10
164.7844807393555
 20
201.73178829723389
 30
0.0
 42
0.1940442857277115
  0
SEQEND
  5
28FC
  8
0
  0
POLYLINE
  5
28FD
  8
0
 66
     1
 10
0.0
 20
0.0
 30
0.0
  0
VERTEX
  5
28FE
  8
0
 10
165.1111615838
 20
200.40639201041981
 30
0.0
 42
0.2230591094557833
  0
VERTEX
  5
28FF
  8
0
 10
164.11694577417171
 20
199.60143153696791
 30
0.0
  0
VERTEX
  5
2900
  8
0
 10
162.6672651549282
 20
196.61007112305629
 30
0.0
 42
-0.0138643006725583
  0
VERTEX
  5
2901
  8
0
 10
165.83153472795951
 20
197.4837232753938
 30
0.0
  0
SEQEND
  5
2902
  8
0
  0
POLYLINE
  5
2903
  8
0
 66
     1
 10
0.0
 20
0.0
 30
0.0
  0
VERTEX
  5
2904
  8
0
 10
151.05500526292789
 20
195.0708360638468
 30
0.0
 42
-0.2230591094557833
  0
VERTEX
  5
2905
  8
0
 10
152.3329401863806
 20
195.12835798449001
 30
0.0
  0
VERTEX
  5
2906
  8
0
 10
155.40243637952619
 20
193.85242532796269
 30
0.0
 42
0.0138643006725583
  0
VERTEX
  5
2907
  8
0
 10
152.45546353130021
 20
192.4063198525858
 30
0.0
  0
SEQEND
  5
2908
  8
0
  0
POLYLINE
  5
2909
  8
0
 66
     1
 10
0.0
 20
0.0
 30
0.0
  0
VERTEX
  5
290A
  8
0
 10
146.33941039517509
 20
188.7040917913742
 30
0.0
 42
0.2770100220963358
  0
VERTEX
  5
290B
  8
0
 10
149.03101423698641
 20
194.6420596164711
 30
0.0
 42
-0.1940442857277115
  0
VERTEX
  5
290C
  8
0
 10
150.41991372261961
 20
196.27916318290701
 30
0.0
 42
-0.1940442857277115
  0
SEQEND
  5
290D
  8
0
  0
POLYLINE
  5
290E
  8
0
 66
     1
 10
0.0
 20
0.0
 30
0.0
  0
VERTEX
  5
290F
  8
0
 10
159.0059416197638
 20
195.35678244347559
 30
0.0
 42
-0.2770100220963358
  0
VERTEX
  5
2910
  8
0
 10
152.58940031730549
 20
196.51098816473481
 30
0.0
 42
0.1940442857277115
  0
VERTEX
  5
2911
  8
0
 10
150.45323215197729
 20
196.29666262293529
 30
0.0
 42
0.1940442857277115
  0
SEQEND
  5
2912
  8
0
  0
POLYLINE
  5
2913
  8
0
 66
     1
 10
0.0
 20
0.0
 30
0.0
  0
VERTEX
  5
2914
  8
0
 10
151.08760833762369
 20
195.0879597867046
 30
0.0
 42
0.2230591094557833
  0
VERTEX
  5
2915
  8
0
 10
150.31492228293899
 20
194.06845858472869
 30
0.0
  0
VERTEX
  5
2916
  8
0
 10
149.62324615238211
 20
190.8170903874699
 30
0.0
 42
-0.0138643006725583
  0
VERTEX
  5
2917
  8
0
 10
152.4864891572542
 20
192.42261507091351
 30
0.0
  0
SEQEND
  5
2918
  8
0
  0
POLYLINE
  5
2919
  8
0
 66
     1
 10
0.0
 20
0.0
 30
0.0
  0
VERTEX
  5
291A
  8
0
 10
138.716780489109
 20
186.54358701170139
 30
0.0
 42
-0.2230591094557833
  0
VERTEX
  5
291B
  8
0
 10
139.94381504958861
 20
186.90526729499479
 30
0.0
  0
VERTEX
  5
291C
  8
0
 10
143.2294679332268
 20
186.40098944304381
 30
0.0
 42
0.0138643006725583
  0
VERTEX
  5
291D
  8
0
 10
140.7142044525348
 20
184.29164839978091
 30
0.0
  0
SEQEND
  5
291E
  8
0
  0
POLYLINE
  5
291F
  8
0
 66
     1
 10
0.0
 20
0.0
 30
0.0
  0
VERTEX
  5
2920
  8
0
 10
135.66187387288389
 20
179.2333330384127
 30
0.0
 42
0.2770100220963358
  0
VERTEX
  5
2921
  8
0
 10
136.85421588426189
 20
185.64289727173161
 30
0.0
 42
-0.1940442857277115
  0
VERTEX
  5
2922
  8
0
 10
137.8109719475556
 20
187.5648149868745
 30
0.0
 42
-0.1940442857277115
  0
SEQEND
  5
2923
  8
0
  0
POLYLINE
  5
2924
  8
0
 66
     1
 10
0.0
 20
0.0
 30
0.0
  0
VERTEX
  5
2925
  8
0
 10
146.3682456378626
 20
188.72400792516879
 30
0.0
 42
-0.2770100220963358
  0
VERTEX
  5
2926
  8
0
 10
139.8619378551569
 20
188.30909568162539
 30
0.0
 42
0.1940442857277115
  0
VERTEX
  5
2927
  8
0
 10
137.839134313795
 20
187.58977954703431
 30
0.0
 42
0.1940442857277115
  0
SEQEND
  5
2928
  8
0
  0
POLYLINE
  5
2929
  8
0
 66
     1
 10
0.0
 20
0.0
 30
0.0
  0
VERTEX
  5
292A
  8
0
 10
138.74433820259711
 20
186.56801557677261
 30
0.0
 42
0.2230591094557833
  0
VERTEX
  5
292B
  8
0
 10
138.23808760775461
 20
185.39322335039549
 30
0.0
  0
VERTEX
  5
292C
  8
0
 10
138.34461366845181
 20
182.07080507117169
 30
0.0
 42
-0.0138643006725583
  0
VERTEX
  5
292D
  8
0
 10
140.74042882918641
 20
184.31489502696451
 30
0.0
  0
SEQEND
  5
292E
  8
0
  0
POLYLINE
  5
292F
  8
0
 66
     1
 10
0.0
 20
0.0
 30
0.0
  0
VERTEX
  5
2930
  8
0
 10
128.7777863748658
 20
175.3113938614909
 30
0.0
 42
-0.2230591094557833
  0
VERTEX
  5
2931
  8
0
 10
129.88260978380629
 20
175.95621296402399
 30
0.0
  0
VERTEX
  5
2932
  8
0
 10
133.19346915520231
 20
176.25289671242911
 30
0.0
 42
0.0138643006725583
  0
VERTEX
  5
2933
  8
0
 10
131.2560930129313
 20
173.6029073355721
 30
0.0
  0
SEQEND
  5
2934
  8
0
  0
POLYLINE
  5
2935
  8
0
 66
     1
 10
0.0
 20
0.0
 30
0.0
  0
VERTEX
  5
2936
  8
0
 10
127.5611080785696
 20
167.4824755766216
 30
0.0
 42
0.2770100220963358
  0
VERTEX
  5
2937
  8
0
 10
127.1848936758
 20
173.99113564274029
 30
0.0
 42
-0.1940442857277115
  0
VERTEX
  5
2938
  8
0
 10
127.65390313202219
 20
176.0861726348727
 30
0.0
 42
-0.1940442857277115
  0
SEQEND
  5
2939
  8
0
  0
POLYLINE
  5
293A
  8
0
 66
     1
 10
0.0
 20
0.0
 30
0.0
  0
VERTEX
  5
293B
  8
0
 10
135.68510497303569
 20
179.2595711708139
 30
0.0
 42
-0.2770100220963358
  0
VERTEX
  5
293C
  8
0
 10
129.46715366894671
 20
177.299654153918
 30
0.0
 42
0.1940442857277115
  0
VERTEX
  5
293D
  8
0
 10
127.6752727407835
 20
176.11715146566991
 30
0.0
 42
0.1940442857277115
  0
SEQEND
  5
293E
  8
0
  0
POLYLINE
  5
293F
  8
0
 66
     1
 10
0.0
 20
0.0
 30
0.0
  0
VERTEX
  5
2940
  8
0
 10
128.79869717300639
 20
175.34170756936791
 30
0.0
 42
0.2230591094557833
  0
VERTEX
  5
2941
  8
0
 10
128.58830348243231
 20
174.0798989725906
 30
0.0
  0
VERTEX
  5
2942
  8
0
 10
129.4868408269424
 20
170.8795174852913
 30
0.0
 42
-0.0138643006725583
  0
VERTEX
  5
2943
  8
0
 10
131.27599207483141
 20
173.63175436213771
 30
0.0
  0
SEQEND
  5
2944
  8
0
  0
POLYLINE
  5
2945
  8
0
 66
     1
 10
0.0
 20
0.0
 30
0.0
  0
VERTEX
  5
2946
  8
0
 10
121.81564113134441
 20
162.027030851745
 30
0.0
 42
-0.2230591094557833
  0
VERTEX
  5
2947
  8
0
 10
122.73404506808799
 20
162.91751423110051
 30
0.0
  0
VERTEX
  5
2948
  8
0
 10
125.87769581506031
 20
163.99791739880609
 30
0.0
 42
0.0138643006725583
  0
VERTEX
  5
2949
  8
0
 10
124.6308002705233
 20
160.96128743861831
 30
0.0
  0
SEQEND
  5
294A
  8
0
  0
POLYLINE
  5
294B
  8
0
 66
     1
 10
0.0
 20
0.0
 30
0.0
  0
VERTEX
  5
294C
  8
0
 10
122.5079000751122
 20
154.1344365290515
 30
0.0
 42
0.2770100220963358
  0
VERTEX
  5
294D
  8
0
 10
120.5849934718001
 20
160.36393276294379
 30
0.0
 42
-0.1940442857277115
  0
VERTEX
  5
294E
  8
0
 10
120.53899919613541
 20
162.5103330972326
 30
0.0
 42
-0.1940442857277115
  0
SEQEND
  5
294F
  8
0
  0
POLYLINE
  5
2950
  8
0
 66
     1
 10
0.0
 20
0.0
 30
0.0
  0
VERTEX
  5
2951
  8
0
 10
127.57738492908661
 20
167.51351084274609
 30
0.0
 42
-0.2770100220963358
  0
VERTEX
  5
2952
  8
0
 10
122.0091548320747
 20
164.1224923055112
 30
0.0
 42
0.1940442857277115
  0
VERTEX
  5
2953
  8
0
 10
120.5523341234326
 20
162.54552582162489
 30
0.0
 42
0.1940442857277115
  0
SEQEND
  5
2954
  8
0
  0
POLYLINE
  5
2955
  8
0
 66
     1
 10
0.0
 20
0.0
 30
0.0
  0
VERTEX
  5
2956
  8
0
 10
121.8286897545572
 20
162.06146797991181
 30
0.0
 42
0.2230591094557833
  0
VERTEX
  5
2957
  8
0
 10
121.9263802847978
 20
160.78597474189129
 30
0.0
  0
VERTEX
  5
2958
  8
0
 10
123.56470918870821
 20
157.8936245856448
 30
0.0
 42
-0.0138643006725583
  0
VERTEX
  5
2959
  8
0
 10
124.64321755652441
 20
160.99405838023659
 30
0.0
  0
SEQEND
  5
295A
  8
0
  0
POLYLINE
  5
295B
  8
0
 66
     1
 10
0.0
 20
0.0
 30
0.0
  0
VERTEX
  5
295C
  8
0
 10
118.23495933373
 20
147.462536873895
 30
0.0
 42
-0.2230591094557833
  0
VERTEX
  5
295D
  8
0
 10
118.9135694997355
 20
148.5469328728403
 30
0.0
  0
VERTEX
  5
295E
  8
0
 10
121.70731406757579
 20
150.3482663548449
 30
0.0
 42
0.0138643006725583
  0
VERTEX
  5
295F
  8
0
 10
121.2233641575404
 20
147.1014737069118
 30
0.0
  0
SEQEND
  5
2960
  8
0
  0
POLYLINE
  5
2961
  8
0
 66
     1
 10
0.0
 20
0.0
 30
0.0
  0
VERTEX
  5
2962
  8
0
 10
120.795923944009
 20
139.96495540699931
 30
0.0
 42
0.2770100220963358
  0
VERTEX
  5
2963
  8
0
 10
117.4380774824578
 20
145.55325213084879
 30
0.0
 42
-0.1940442857277115
  0
VERTEX
  5
2964
  8
0
 10
116.8797524950254
 20
147.626274821713
 30
0.0
 42
-0.1940442857277115
  0
SEQEND
  5
2965
  8
0
  0
POLYLINE
  5
2966
  8
0
 66
     1
 10
0.0
 20
0.0
 30
0.0
  0
VERTEX
  5
2967
  8
0
 10
122.5162767246063
 20
154.16846527204069
 30
0.0
 42
-0.2770100220963358
  0
VERTEX
  5
2968
  8
0
 10
117.9213731282169
 20
149.54341888600001
 30
0.0
 42
0.1940442857277115
  0
VERTEX
  5
2969
  8
0
 10
116.8842777633545
 20
147.66363616647899
 30
0.0
 42
0.1940442857277115
  0
SEQEND
  5
296A
  8
0
  0
POLYLINE
  5
296B
  8
0
 66
     1
 10
0.0
 20
0.0
 30
0.0
  0
VERTEX
  5
296C
  8
0
 10
118.2393874434638
 20
147.49909606163641
 30
0.0
 42
0.2230591094557833
  0
VERTEX
  5
296D
  8
0
 10
118.639484775992
 20
146.28404521313729
 30
0.0
  0
VERTEX
  5
296E
  8
0
 10
120.9223915184909
 20
143.86781926575969
 30
0.0
 42
-0.0138643006725583
  0
VERTEX
  5
296F
  8
0
 10
121.2275780201152
 20
147.1362640355733
 30
0.0
  0
SEQEND
  5
2970
  8
0
  0
LINE
  5
2973
  8
0
 10
232.11594795497501
 20
106.82206147936709
 30
0.0
 11
232.11594795497501
 21
106.6966480635878
 31
0.0
  0
CIRCLE
  5
2974
  8
0
 10
180.0
 20
139.99999999999989
 30
0.0
 40
52.5
  0
CIRCLE
  5
2975
  8
1
 10
180.0
 20
139.99999999999989
 30
0.0
 40
64.200000000000003
  0
LINE
  5
2976
  8
1
 10
249.19999999999999
 20
139.99999999999989
 30
0.0
 11
110.8
 21
140.0
 31
0.0
  0
LINE
  5
2977
  8
1
 10
180.0
 20
209.19999999999999
 30
0.0
 11
180.0
 21
70.799999999999969
 31
0.0
  0
INSERT
  5
29EF
  8
0
  2
STDGX5
 10
259.48390090931417
 20
27.275509708351589
 30
0.0
  0
INSERT
  5
29F0
  8
0
  2
STDGX5
 10
259.48390090931417
 20
27.275509708351589
 30
0.0
  0
INSERT
  5
29F1
  8
0
  2
STDGX5
 10
534.48390090931423
 20
27.275509708351589
 30
0.0
  0
INSERT
  5
29F2
  8
0
  2
STDGX5
 10
534.48390090931423
 20
27.275509708351589
 30
0.0
  0
INSERT
  5
2A01
  8
0
  2
STDGX5
 10
304.98320301570237
 20
71.632652666076979
 30
0.0
  0
INSERT
  5
2A02
  8
0
  2
STDGX5
 10
304.98320301570237
 20
71.632652666076979
 30
0.0
  0
INSERT
  5
2A03
  8
0
  2
STDGX5
 10
579.98320301570243
 20
71.632652666076979
 30
0.0
  0
INSERT
  5
2A04
  8
0
  2
STDGX5
 10
579.98320301570243
 20
71.632652666076979
 30
0.0
  0
INSERT
  5
2A05
  8
0
  2
STDGX5
 10
336.41908499830009
 20
79.346938304925615
 30
0.0
  0
INSERT
  5
2A06
  8
0
  2
STDGX5
 10
336.41908499830009
 20
79.346938304925615
 30
0.0
  0
INSERT
  5
2A07
  8
0
  2
STDGX5
 10
611.41908499830015
 20
79.346938304925615
 30
0.0
  0
INSERT
  5
2A08
  8
0
  2
STDGX5
 10
611.41908499830015
 20
79.346938304925615
 30
0.0
  0
INSERT
  5
2A09
  8
0
  2
STDGX5
 10
314.35881672672951
 20
77.142856514213804
 30
0.0
  0
INSERT
  5
2A0A
  8
0
  2
STDGX5
 10
314.35881672672951
 20
77.142856514213804
 30
0.0
  0
INSERT
  5
2A0B
  8
0
  2
STDGX5
 10
589.35881672672951
 20
77.142856514213804
 30
0.0
  0
INSERT
  5
2A0C
  8
0
  2
STDGX5
 10
589.35881672672951
 20
77.142856514213804
 30
0.0
  0
TEXT
  5
2EC8
  8
0
 62
     3
 10
0.0
 20
0.0
 30
0.0
 40
10.0
  1
910-026-01
  7
STANDARD1
  0
ENDSEC
  0
EOF
