  0
SECTION
  2
HEADER
  9
$ACADVER
  1
AC1009
  9
$INSBASE
 10
0.0
 20
0.0
 30
0.0
  9
$EXTMIN
 10
0.0
 20
-2.960436562073669
 30
0.0
  9
$EXTMAX
 10
250.75
 20
205.75
 30
0.0
  9
$LIMMIN
 10
0.0
 20
0.0
  9
$LIMMAX
 10
385.0
 20
270.0
  9
$ORTHOMODE
 70
     0
  9
$REGENMODE
 70
     1
  9
$FILLMODE
 70
     1
  9
$QTEXTMODE
 70
     0
  9
$MIRRTEXT
 70
     0
  9
$DRAGMODE
 70
     2
  9
$LTSCALE
 40
10.0
  9
$OSMODE
 70
  3071
  9
$ATTMODE
 70
     1
  9
$TEXTSIZE
 40
0.2
  9
$TRACEWID
 40
0.05
  9
$TEXTSTYLE
  7
STANDARD
  9
$CLAYER
  8
0
  9
$CELTYPE
  6
BYLAYER
  9
$CECOLOR
 62
   256
  9
$DIMSCALE
 40
1.0
  9
$DIMASZ
 40
3.0
  9
$DIMEXO
 40
1.0
  9
$DIMDLI
 40
6.0
  9
$DIMRND
 40
0.0
  9
$DIMDLE
 40
0.0
  9
$DIMEXE
 40
1.0
  9
$DIMTP
 40
495.0
  9
$DIMTM
 40
0.0
  9
$DIMTXT
 40
3.0
  9
$DIMCEN
 40
0.0
  9
$DIMTSZ
 40
0.0
  9
$DIMTOL
 70
     0
  9
$DIMLIM
 70
     0
  9
$DIMTIH
 70
     0
  9
$DIMTOH
 70
     0
  9
$DIMSE1
 70
     0
  9
$DIMSE2
 70
     0
  9
$DIMTAD
 70
     1
  9
$DIMZIN
 70
     0
  9
$DIMBLK
  1

  9
$DIMASO
 70
     0
  9
$DIMSHO
 70
     0
  9
$DIMPOST
  1

  9
$DIMAPOST
  1

  9
$DIMALT
 70
     0
  9
$DIMALTD
 70
     2
  9
$DIMALTF
 40
25.399999999999999
  9
$DIMLFAC
 40
1.0
  9
$DIMTOFL
 70
     1
  9
$DIMTVP
 40
0.0
  9
$DIMTIX
 70
     1
  9
$DIMSOXD
 70
     0
  9
$DIMSAH
 70
     0
  9
$DIMBLK1
  1

  9
$DIMBLK2
  1

  9
$DIMSTYLE
  2
STANDARD
  9
$DIMCLRD
 70
     0
  9
$DIMCLRE
 70
     0
  9
$DIMCLRT
 70
     4
  9
$DIMTFAC
 40
1.0
  9
$DIMGAP
 40
1.0
  9
$LUNITS
 70
     2
  9
$LUPREC
 70
     4
  9
$SKETCHINC
 40
0.1
  9
$FILLETRAD
 40
0.0
  9
$AUNITS
 70
     0
  9
$AUPREC
 70
     0
  9
$MENU
  1
E:\r13\win\SUPPORT\ACAD
  9
$ELEVATION
 40
0.0
  9
$PELEVATION
 40
0.0
  9
$THICKNESS
 40
0.0
  9
$LIMCHECK
 70
     0
  9
$BLIPMODE
 70
     0
  9
$CHAMFERA
 40
0.0
  9
$CHAMFERB
 40
0.0
  9
$SKPOLY
 70
     0
  9
$TDCREATE
 40
2450569.7088687499
  9
$TDUPDATE
 40
2456597.3556798501
  9
$TDINDWG
 40
0.0064399884
  9
$TDUSRTIMER
 40
0.0064399884
  9
$USRTIMER
 70
     1
  9
$ANGBASE
 50
0.0
  9
$ANGDIR
 70
     0
  9
$PDMODE
 70
     0
  9
$PDSIZE
 40
0.0
  9
$PLINEWID
 40
0.0
  9
$COORDS
 70
     1
  9
$SPLFRAME
 70
     0
  9
$SPLINETYPE
 70
     6
  9
$SPLINESEGS
 70
     8
  9
$ATTDIA
 70
     0
  9
$ATTREQ
 70
     1
  9
$HANDLING
 70
     1
  9
$HANDSEED
  5
1DA2
  9
$SURFTAB1
 70
     6
  9
$SURFTAB2
 70
     6
  9
$SURFTYPE
 70
     6
  9
$SURFU
 70
     6
  9
$SURFV
 70
     6
  9
$UCSNAME
  2

  9
$UCSORG
 10
0.0
 20
0.0
 30
0.0
  9
$UCSXDIR
 10
1.0
 20
0.0
 30
0.0
  9
$UCSYDIR
 10
0.0
 20
1.0
 30
0.0
  9
$PUCSNAME
  2

  9
$PUCSORG
 10
0.0
 20
0.0
 30
0.0
  9
$PUCSXDIR
 10
1.0
 20
0.0
 30
0.0
  9
$PUCSYDIR
 10
0.0
 20
1.0
 30
0.0
  9
$USERI1
 70
     3
  9
$USERI2
 70
     1
  9
$USERI3
 70
     0
  9
$USERI4
 70
     0
  9
$USERI5
 70
     0
  9
$USERR1
 40
1.0
  9
$USERR2
 40
3.0
  9
$USERR3
 40
3.0
  9
$USERR4
 40
3.0
  9
$USERR5
 40
10.0
  9
$WORLDVIEW
 70
     1
  9
$SHADEDGE
 70
     3
  9
$SHADEDIF
 70
    70
  9
$TILEMODE
 70
     1
  9
$MAXACTVP
 70
    16
  9
$PLIMCHECK
 70
     0
  9
$PEXTMIN
 10
1.0000000000000000E+020
 20
1.0000000000000000E+020
 30
1.0000000000000000E+020
  9
$PEXTMAX
 10
-1.0000000000000000E+020
 20
-1.0000000000000000E+020
 30
-1.0000000000000000E+020
  9
$PLIMMIN
 10
0.0
 20
0.0
  9
$PLIMMAX
 10
12.0
 20
9.0
  9
$UNITMODE
 70
     0
  9
$VISRETAIN
 70
     0
  9
$PLINEGEN
 70
     0
  9
$PSLTSCALE
 70
     0
  0
ENDSEC
  0
SECTION
  2
TABLES
  0
TABLE
  2
VPORT
 70
     1
  0
VPORT
  2
*ACTIVE
 70
     0
 10
0.0
 20
0.0
 11
1.0
 21
1.0
 12
192.49119011110221
 22
191.8411735746825
 13
0.0
 23
0.0
 14
5.0
 24
5.0
 15
10.0
 25
10.0
 16
0.0
 26
0.0
 36
1.0
 17
0.0
 27
0.0
 37
0.0
 40
393.16966538972372
 41
1.831871345029239
 42
50.0
 43
0.0
 44
0.0
 50
0.0
 51
0.0
 71
     0
 72
   100
 73
     1
 74
     0
 75
     0
 76
     0
 77
     0
 78
     0
  0
ENDTAB
  0
TABLE
  2
LTYPE
 70
     3
  0
LTYPE
  2
CONTINUOUS
 70
     0
  3
Solid Line
 72
    65
 73
     0
 40
0.0
  0
LTYPE
  2
CENTER
 70
     0
  3
____ _ ____ _ ____ _ ____ _ ____ _ ____ _ ____
 72
    65
 73
     4
 40
2.0
 49
1.25
 49
-0.25
 49
0.25
 49
-0.25
  0
LTYPE
  2
PHANTOM2
 70
     0
  3
___ _ _ ___ _ _ ___ _ _ ___ _ _
 72
    65
 73
     6
 40
1.25
 49
0.625
 49
-0.125
 49
0.125
 49
-0.125
 49
0.125
 49
-0.125
  0
ENDTAB
  0
TABLE
  2
LAYER
 70
     2
  0
LAYER
  2
0
 70
     0
 62
     7
  6
CONTINUOUS
  0
LAYER
  2
1
 70
     0
 62
     1
  6
CENTER
  0
ENDTAB
  0
TABLE
  2
STYLE
 70
     3
  0
STYLE
  2
STANDARD
 70
     0
 40
0.0
 41
1.0
 50
0.0
 71
     0
 42
0.2
  3
simplex
  4
bigfont
  0
STYLE
  2
ISO8
 70
     0
 40
0.0
 41
1.0
 50
0.0
 71
     0
 42
7.0
  3
TXT.SHX
  4

  0
STYLE
  2
STANDARD1
 70
     0
 40
0.0
 41
1.0
 50
0.0
 71
     0
 42
3.0
  3
txt
  4

  0
ENDTAB
  0
TABLE
  2
VIEW
 70
     0
  0
ENDTAB
  0
TABLE
  2
UCS
 70
     0
  0
ENDTAB
  0
TABLE
  2
APPID
 70
     3
  0
APPID
  2
ACAD
 70
     0
  0
APPID
  2
ACAD_MLEADERVER
 70
     0
  0
APPID
  2
ACAD_NAV_VCDISPLAY
 70
     0
  0
ENDTAB
  0
TABLE
  2
DIMSTYLE
 70
     1
  0
DIMSTYLE
  2
STANDARD
 70
     0
  3

  4

  5

  6

  7

 40
1.0
 41
0.18
 42
0.0625
 43
0.38
 44
0.18
 45
0.0
 46
0.0
 47
0.0
 48
0.0
140
0.18
141
0.09
142
0.0
143
25.399999999999999
144
1.0
145
0.0
146
1.0
147
0.09
 71
     0
 72
     0
 73
     1
 74
     1
 75
     0
 76
     0
 77
     0
 78
     0
170
     0
171
     2
172
     0
173
     0
174
     0
175
     0
176
     0
177
     0
178
     0
  0
ENDTAB
  0
ENDSEC
  0
SECTION
  2
BLOCKS
  0
BLOCK
  8
0
  2
$MODEL_SPACE
 70
     0
 10
0.0
 20
0.0
 30
0.0
  3
$MODEL_SPACE
  1

  0
ENDBLK
  5
1B6A
  8
0
  0
BLOCK
 67
     1
  8
0
  2
$PAPER_SPACE
 70
     0
 10
0.0
 20
0.0
 30
0.0
  3
$PAPER_SPACE
  1

  0
ENDBLK
  5
1B68
 67
     1
  8
0
  0
BLOCK
  8
0
  2
STDGX5
 70
     0
 10
0.0
 20
0.0
 30
0.0
  3
STDGX5
  1

  0
ENDBLK
  5
4F
  8
0
  0
ENDSEC
  0
SECTION
  2
ENTITIES
  0
INSERT
  5
DE
  8
0
  2
STDGX5
 10
0.0
 20
0.0
 30
0.0
  0
INSERT
  5
DF
  8
0
  2
STDGX5
 10
0.0
 20
0.0
 30
0.0
  0
INSERT
  5
15C
  8
0
  2
STDGX5
 10
275.0
 20
0.0
 30
0.0
  0
INSERT
  5
15D
  8
0
  2
STDGX5
 10
275.0
 20
0.0
 30
0.0
  0
INSERT
  5
25F
  8
0
  2
STDGX5
 10
45.499302106388193
 20
44.35714295772538
 30
0.0
  0
INSERT
  5
260
  8
0
  2
STDGX5
 10
45.499302106388193
 20
44.35714295772538
 30
0.0
  0
INSERT
  5
261
  8
0
  2
STDGX5
 10
320.4993021063882
 20
44.35714295772538
 30
0.0
  0
INSERT
  5
262
  8
0
  2
STDGX5
 10
320.4993021063882
 20
44.35714295772538
 30
0.0
  0
INSERT
  5
1166
  8
0
  2
STDGX5
 10
76.93518408898592
 20
52.071428596574037
 30
0.0
  0
INSERT
  5
1167
  8
0
  2
STDGX5
 10
76.93518408898592
 20
52.071428596574037
 30
0.0
  0
INSERT
  5
1168
  8
0
  2
STDGX5
 10
351.93518408898592
 20
52.071428596574037
 30
0.0
  0
INSERT
  5
1169
  8
0
  2
STDGX5
 10
351.93518408898592
 20
52.071428596574037
 30
0.0
  0
INSERT
  5
181C
  8
0
  2
STDGX5
 10
54.874915817415292
 20
49.867346805862212
 30
0.0
  0
INSERT
  5
181D
  8
0
  2
STDGX5
 10
54.874915817415292
 20
49.867346805862212
 30
0.0
  0
INSERT
  5
181E
  8
0
  2
STDGX5
 10
329.87491581741529
 20
49.867346805862212
 30
0.0
  0
INSERT
  5
181F
  8
0
  2
STDGX5
 10
329.87491581741529
 20
49.867346805862212
 30
0.0
  0
POLYLINE
  5
1820
  8
0
 66
     1
 10
0.0
 20
0.0
 30
0.0
  0
VERTEX
  5
1821
  8
0
 10
127.8935341648159
 20
133.9978685796674
 30
0.0
 42
0.2223672984220246
  0
VERTEX
  5
1822
  8
0
 10
128.41372690474279
 20
133.1346313065805
 30
0.0
  0
VERTEX
  5
1823
  8
0
 10
130.03320368429181
 20
132.04831182370381
 30
0.0
 42
0.6485152997455652
  0
VERTEX
  5
1824
  8
0
 10
130.49331164739439
 20
132.33665694120131
 30
0.0
 42
-0.0087400362380814
  0
VERTEX
  5
1825
  8
0
 10
130.25876572007141
 20
134.24646443350881
 30
0.0
  0
SEQEND
  5
1826
  8
0
  0
POLYLINE
  5
1827
  8
0
 66
     1
 10
0.0
 20
0.0
 30
0.0
  0
VERTEX
  5
1828
  8
0
 10
129.9572356980056
 20
139.99999999999989
 30
0.0
 42
-0.2744102252691183
  0
VERTEX
  5
1829
  8
0
 10
127.32049172191429
 20
135.5573911466104
 30
0.0
 42
0.2001169019235578
  0
VERTEX
  5
182A
  8
0
 10
126.8209291572001
 20
133.88513325059981
 30
0.0
 42
0.2001169019235578
  0
SEQEND
  5
182B
  8
0
  0
POLYLINE
  5
182C
  8
0
 66
     1
 10
0.0
 20
0.0
 30
0.0
  0
VERTEX
  5
182D
  8
0
 10
131.16445856179351
 20
128.53525490645069
 30
0.0
 42
0.2744102252691183
  0
VERTEX
  5
182E
  8
0
 10
127.6602029146208
 20
132.3312244241007
 30
0.0
 42
-0.2001169019235578
  0
VERTEX
  5
182F
  8
0
 10
126.8232857966988
 20
133.8627527341761
 30
0.0
 42
-0.2001169019235578
  0
SEQEND
  5
1830
  8
0
  0
POLYLINE
  5
1831
  8
0
 66
     1
 10
0.0
 20
0.0
 30
0.0
  0
VERTEX
  5
1832
  8
0
 10
127.89584735667459
 20
133.97590067646769
 30
0.0
 42
-0.2223672984220246
  0
VERTEX
  5
1833
  8
0
 10
128.2248290628921
 20
134.92855492292509
 30
0.0
  0
VERTEX
  5
1834
  8
0
 10
129.5825194743378
 20
136.32836626915881
 30
0.0
 42
-0.6485152997455652
  0
VERTEX
  5
1835
  8
0
 10
130.0925949572968
 20
136.14218021656819
 30
0.0
 42
0.0087400362380814
  0
VERTEX
  5
1836
  8
0
 10
130.2609831043136
 20
134.225406395367
 30
0.0
  0
SEQEND
  5
1837
  8
0
  0
POLYLINE
  5
1838
  8
0
 66
     1
 10
0.0
 20
0.0
 30
0.0
  0
VERTEX
  5
1839
  8
0
 10
130.396190776004
 20
122.2349207713155
 30
0.0
 42
-0.2223672984220246
  0
VERTEX
  5
183A
  8
0
 10
130.5199154874802
 20
123.2351563796045
 30
0.0
  0
VERTEX
  5
183B
  8
0
 10
131.55689996215381
 20
124.8866581984537
 30
0.0
 42
-0.6485152997455652
  0
VERTEX
  5
183C
  8
0
 10
132.09453932900411
 20
124.8105914139288
 30
0.0
 42
0.0087400362380814
  0
VERTEX
  5
183D
  8
0
 10
132.65776747708171
 20
122.9707135639314
 30
0.0
  0
SEQEND
  5
183E
  8
0
  0
POLYLINE
  5
183F
  8
0
 66
     1
 10
0.0
 20
0.0
 30
0.0
  0
VERTEX
  5
1840
  8
0
 10
134.72454884520741
 20
117.5927486472131
 30
0.0
 42
0.2744102252691183
  0
VERTEX
  5
1841
  8
0
 10
130.50764315086019
 20
120.5771914066996
 30
0.0
 42
-0.2001169019235578
  0
VERTEX
  5
1842
  8
0
 10
129.3705920394687
 20
121.9012472955943
 30
0.0
 42
-0.2001169019235578
  0
SEQEND
  5
1843
  8
0
  0
POLYLINE
  5
1844
  8
0
 66
     1
 10
0.0
 20
0.0
 30
0.0
  0
VERTEX
  5
1845
  8
0
 10
131.1600521602478
 20
128.5559658066889
 30
0.0
 42
-0.2744102252691183
  0
VERTEX
  5
1846
  8
0
 10
129.504597684635
 20
123.6622287174244
 30
0.0
 42
0.2001169019235578
  0
VERTEX
  5
1847
  8
0
 10
129.3636337271862
 20
121.9226487711346
 30
0.0
 42
0.2001169019235578
  0
SEQEND
  5
1848
  8
0
  0
POLYLINE
  5
1849
  8
0
 66
     1
 10
0.0
 20
0.0
 30
0.0
  0
VERTEX
  5
184A
  8
0
 10
130.38936074903941
 20
122.255927683493
 30
0.0
 42
0.2223672984220246
  0
VERTEX
  5
184B
  8
0
 10
131.07766315054241
 20
121.51970836806839
 30
0.0
  0
VERTEX
  5
184C
  8
0
 10
132.88760899735561
 20
120.7938357277382
 30
0.0
 42
0.6485152997455652
  0
VERTEX
  5
184D
  8
0
 10
133.2777121766249
 20
121.1715416371691
 30
0.0
 42
-0.0087400362380814
  0
VERTEX
  5
184E
  8
0
 10
132.65122033568991
 20
122.990850413309
 30
0.0
  0
SEQEND
  5
184F
  8
0
  0
POLYLINE
  5
1850
  8
0
 66
     1
 10
0.0
 20
0.0
 30
0.0
  0
VERTEX
  5
1851
  8
0
 10
135.28298267656911
 20
111.27036007476489
 30
0.0
 42
-0.2223672984220246
  0
VERTEX
  5
1852
  8
0
 10
135.19604302971561
 20
112.2744619491403
 30
0.0
  0
VERTEX
  5
1853
  8
0
 10
135.8670003700702
 20
114.10547568633631
 30
0.0
 42
-0.6485152997455652
  0
VERTEX
  5
1854
  8
0
 10
136.40870620060051
 20
114.1428526533697
 30
0.0
 42
0.0087400362380814
  0
VERTEX
  5
1855
  8
0
 10
137.3421585769994
 20
112.4602822653346
 30
0.0
  0
SEQEND
  5
1856
  8
0
  0
POLYLINE
  5
1857
  8
0
 66
     1
 10
0.0
 20
0.0
 30
0.0
  0
VERTEX
  5
1858
  8
0
 10
140.4819175924664
 20
107.62954679401351
 30
0.0
 42
0.2744102252691183
  0
VERTEX
  5
1859
  8
0
 10
135.73666086474631
 20
109.672028325802
 30
0.0
 42
-0.2001169019235578
  0
VERTEX
  5
185A
  8
0
 10
134.3491703496297
 20
110.7307441976461
 30
0.0
 42
-0.2001169019235578
  0
SEQEND
  5
185B
  8
0
  0
POLYLINE
  5
185C
  8
0
 66
     1
 10
0.0
 20
0.0
 30
0.0
  0
VERTEX
  5
185D
  8
0
 10
134.7159326958207
 20
117.6120908221943
 30
0.0
 42
-0.2744102252691183
  0
VERTEX
  5
185E
  8
0
 10
134.11411902502249
 20
112.48110529061169
 30
0.0
 42
0.2001169019235578
  0
VERTEX
  5
185F
  8
0
 10
134.33791447619981
 20
110.75023128512611
 30
0.0
 42
0.2001169019235578
  0
SEQEND
  5
1860
  8
0
  0
POLYLINE
  5
1861
  8
0
 66
     1
 10
0.0
 20
0.0
 30
0.0
  0
VERTEX
  5
1862
  8
0
 10
135.27193431945099
 20
111.28948789305559
 30
0.0
 42
0.2223672984220246
  0
VERTEX
  5
1863
  8
0
 10
136.09826426474319
 20
110.7124628521496
 30
0.0
  0
VERTEX
  5
1864
  8
0
 10
138.01957586023099
 20
110.3787611718718
 30
0.0
 42
0.6485152997455652
  0
VERTEX
  5
1865
  8
0
 10
138.32262487481029
 20
110.8293203125599
 30
0.0
 42
-0.0087400362380814
  0
VERTEX
  5
1866
  8
0
 10
137.33156781995359
 20
112.4786178490028
 30
0.0
  0
SEQEND
  5
1867
  8
0
  0
POLYLINE
  5
1868
  8
0
 66
     1
 10
0.0
 20
0.0
 30
0.0
  0
VERTEX
  5
1869
  8
0
 10
142.34264680288601
 20
101.5614225030548
 30
0.0
 42
-0.2223672984220246
  0
VERTEX
  5
186A
  8
0
 10
142.04884247745289
 20
102.525506573391
 30
0.0
  0
VERTEX
  5
186B
  8
0
 10
142.3244486281047
 20
104.4560081424396
 30
0.0
 42
-0.6485152997455652
  0
VERTEX
  5
186C
  8
0
 10
142.84654577812771
 20
104.6051953082175
 30
0.0
 42
0.0087400362380814
  0
VERTEX
  5
186D
  8
0
 10
144.10942603479791
 20
103.1534687819701
 30
0.0
  0
SEQEND
  5
186E
  8
0
  0
POLYLINE
  5
186F
  8
0
 66
     1
 10
0.0
 20
0.0
 30
0.0
  0
VERTEX
  5
1870
  8
0
 10
148.18494016239501
 20
99.081089076583766
 30
0.0
 42
0.2744102252691183
  0
VERTEX
  5
1871
  8
0
 10
143.11872289057149
 20
100.0923431368211
 30
0.0
 42
-0.2001169019235578
  0
VERTEX
  5
1872
  8
0
 10
141.54143296515849
 20
100.8394480277328
 30
0.0
 42
-0.2001169019235578
  0
SEQEND
  5
1873
  8
0
  0
POLYLINE
  5
1874
  8
0
 66
     1
 10
0.0
 20
0.0
 30
0.0
  0
VERTEX
  5
1875
  8
0
 10
140.46946826231181
 20
107.64667489787701
 30
0.0
 42
-0.2744102252691183
  0
VERTEX
  5
1876
  8
0
 10
140.94759754156459
 20
102.50268961290681
 30
0.0
 42
0.2001169019235578
  0
VERTEX
  5
1877
  8
0
 10
141.52637146626179
 20
100.8561690479202
 30
0.0
 42
0.2001169019235578
  0
SEQEND
  5
1878
  8
0
  0
POLYLINE
  5
1879
  8
0
 66
     1
 10
0.0
 20
0.0
 30
0.0
  0
VERTEX
  5
187A
  8
0
 10
142.32786298183649
 20
101.577835250014
 30
0.0
 42
0.2223672984220246
  0
VERTEX
  5
187B
  8
0
 10
143.25610588713741
 20
101.1852232467874
 30
0.0
  0
VERTEX
  5
187C
  8
0
 10
145.20481269510111
 20
101.25827689126849
 30
0.0
 42
0.6485152997455652
  0
VERTEX
  5
187D
  8
0
 10
145.4075628488628
 20
101.7619976667431
 30
0.0
 42
-0.0087400362380814
  0
VERTEX
  5
187E
  8
0
 10
144.09525452900101
 20
103.1692017469387
 30
0.0
  0
SEQEND
  5
187F
  8
0
  0
POLYLINE
  5
1880
  8
0
 66
     1
 10
0.0
 20
0.0
 30
0.0
  0
VERTEX
  5
1881
  8
0
 10
151.2666419566078
 20
93.532435216720316
 30
0.0
 42
-0.2223672984220246
  0
VERTEX
  5
1882
  8
0
 10
150.77881361144611
 20
94.414366382954967
 30
0.0
  0
VERTEX
  5
1883
  8
0
 10
150.64702326110631
 20
96.359983601714475
 30
0.0
 42
-0.6485152997455652
  0
VERTEX
  5
1884
  8
0
 10
151.12669357986621
 20
96.614460771212833
 30
0.0
 42
0.0087400362380814
  0
VERTEX
  5
1885
  8
0
 10
152.66380778961931
 20
95.457025522106974
 30
0.0
  0
SEQEND
  5
1886
  8
0
  0
POLYLINE
  5
1887
  8
0
 66
     1
 10
0.0
 20
0.0
 30
0.0
  0
VERTEX
  5
1888
  8
0
 10
157.49695750548389
 20
92.320984117226672
 30
0.0
 42
0.2744102252691183
  0
VERTEX
  5
1889
  8
0
 10
152.33119769474331
 20
92.256814050945195
 30
0.0
 42
-0.2001169019235578
  0
VERTEX
  5
188A
  8
0
 10
150.6330434974513
 20
92.659655892184503
 30
0.0
 42
-0.2001169019235578
  0
SEQEND
  5
188B
  8
0
  0
POLYLINE
  5
188C
  8
0
 66
     1
 10
0.0
 20
0.0
 30
0.0
  0
VERTEX
  5
188D
  8
0
 10
148.16920174693871
 20
99.095254529001011
 30
0.0
 42
-0.2744102252691183
  0
VERTEX
  5
188E
  8
0
 10
149.70637743242031
 20
94.163086331176274
 30
0.0
 42
0.2001169019235578
  0
VERTEX
  5
188F
  8
0
 10
150.61483463286271
 20
92.672880056260766
 30
0.0
 42
0.2001169019235578
  0
SEQEND
  5
1890
  8
0
  0
POLYLINE
  5
1891
  8
0
 66
     1
 10
0.0
 20
0.0
 30
0.0
  0
VERTEX
  5
1892
  8
0
 10
151.24876879554719
 20
93.54541557654872
 30
0.0
 42
0.2223672984220246
  0
VERTEX
  5
1893
  8
0
 10
152.23835599169169
 20
93.354375639504099
 30
0.0
  0
VERTEX
  5
1894
  8
0
 10
154.12929017369061
 20
93.830991813929941
 30
0.0
 42
0.6485152997455652
  0
VERTEX
  5
1895
  8
0
 10
154.22288031201199
 20
94.365859209182332
 30
0.0
 42
-0.0087400362380814
  0
VERTEX
  5
1896
  8
0
 10
152.64667489787709
 20
95.469468262311835
 30
0.0
  0
SEQEND
  5
1897
  8
0
  0
POLYLINE
  5
1898
  8
0
 66
     1
 10
0.0
 20
0.0
 30
0.0
  0
VERTEX
  5
1899
  8
0
 10
161.6649467274369
 20
87.534303487529755
 30
0.0
 42
-0.2223672984220246
  0
VERTEX
  5
189A
  8
0
 10
161.00441480209039
 20
88.295537125723158
 30
0.0
  0
VERTEX
  5
189B
  8
0
 10
160.47098782146921
 20
90.171237185626566
 30
0.0
 42
-0.6485152997455652
  0
VERTEX
  5
189C
  8
0
 10
160.88726741432251
 20
90.519882485421334
 30
0.0
 42
0.0087400362380814
  0
VERTEX
  5
189D
  8
0
 10
162.63143631029999
 20
89.707323987833504
 30
0.0
  0
SEQEND
  5
189E
  8
0
  0
POLYLINE
  5
189F
  8
0
 66
     1
 10
0.0
 20
0.0
 30
0.0
  0
VERTEX
  5
18A0
  8
0
 10
168.0109897798234
 20
87.644680941248737
 30
0.0
 42
0.2744102252691183
  0
VERTEX
  5
18A1
  8
0
 10
162.9714559219608
 20
86.507891288267075
 30
0.0
 42
-0.2001169019235578
  0
VERTEX
  5
18A2
  8
0
 10
161.2266549398594
 20
86.548863958322229
 30
0.0
 42
-0.2001169019235578
  0
SEQEND
  5
18A3
  8
0
  0
POLYLINE
  5
18A4
  8
0
 66
     1
 10
0.0
 20
0.0
 30
0.0
  0
VERTEX
  5
18A5
  8
0
 10
157.4786178490028
 20
92.331567819953605
 30
0.0
 42
-0.2744102252691183
  0
VERTEX
  5
18A6
  8
0
 10
160.00765798707019
 20
87.826776126688159
 30
0.0
 42
0.2001169019235578
  0
VERTEX
  5
18A7
  8
0
 10
161.20609452433729
 20
86.558013306860644
 30
0.0
 42
0.2001169019235578
  0
SEQEND
  5
18A8
  8
0
  0
POLYLINE
  5
18A9
  8
0
 66
     1
 10
0.0
 20
0.0
 30
0.0
  0
VERTEX
  5
18AA
  8
0
 10
161.64476536926861
 20
87.543284156216188
 30
0.0
 42
0.2223672984220246
  0
VERTEX
  5
18AB
  8
0
 10
162.65244714721899
 20
87.562165647313648
 30
0.0
  0
VERTEX
  5
18AC
  8
0
 10
164.4029658057907
 20
88.421513937803724
 30
0.0
 42
0.6485152997455652
  0
VERTEX
  5
18AD
  8
0
 10
164.3833055905319
 20
88.964151681082853
 30
0.0
 42
-0.0087400362380814
  0
VERTEX
  5
18AE
  8
0
 10
162.61209082219429
 20
89.715932695820698
 30
0.0
  0
SEQEND
  5
18AF
  8
0
  0
POLYLINE
  5
18B0
  8
0
 66
     1
 10
0.0
 20
0.0
 30
0.0
  0
VERTEX
  5
18B1
  8
0
 10
173.08310530028601
 20
83.82917445427816
 30
0.0
 42
-0.2223672984220246
  0
VERTEX
  5
18B2
  8
0
 10
172.27873820947599
 20
84.436441001636993
 30
0.0
  0
VERTEX
  5
18B3
  8
0
 10
171.3669879172933
 20
86.160246809458982
 30
0.0
 42
-0.6485152997455652
  0
VERTEX
  5
18B4
  8
0
 10
171.70168336850111
 20
86.587822766963427
 30
0.0
 42
0.0087400362380814
  0
VERTEX
  5
18B5
  8
0
 10
173.57667840049791
 20
86.155653726326463
 30
0.0
  0
SEQEND
  5
18B6
  8
0
  0
POLYLINE
  5
18B7
  8
0
 66
     1
 10
0.0
 20
0.0
 30
0.0
  0
VERTEX
  5
18B8
  8
0
 10
179.26752332310039
 20
85.256556436832426
 30
0.0
 42
0.2744102252691183
  0
VERTEX
  5
18B9
  8
0
 10
174.57446723007081
 20
83.096830359907855
 30
0.0
 42
-0.2001169019235578
  0
VERTEX
  5
18BA
  8
0
 10
172.85927563856191
 20
82.774143156488776
 30
0.0
 42
-0.2001169019235578
  0
SEQEND
  5
18BB
  8
0
  0
POLYLINE
  5
18BC
  8
0
 66
     1
 10
0.0
 20
0.0
 30
0.0
  0
VERTEX
  5
18BD
  8
0
 10
167.990850413309
 20
87.651220335689942
 30
0.0
 42
-0.2744102252691183
  0
VERTEX
  5
18BE
  8
0
 10
171.4012238142478
 20
83.770686160368371
 30
0.0
 42
0.2001169019235578
  0
VERTEX
  5
18BF
  8
0
 10
172.83726226092429
 20
82.778817819054808
 30
0.0
 42
0.2001169019235578
  0
SEQEND
  5
18C0
  8
0
  0
POLYLINE
  5
18C1
  8
0
 66
     1
 10
0.0
 20
0.0
 30
0.0
  0
VERTEX
  5
18C2
  8
0
 10
173.06149776720289
 20
83.833762933507018
 30
0.0
 42
0.2223672984220246
  0
VERTEX
  5
18C3
  8
0
 10
174.04323359786889
 20
84.061740640982194
 30
0.0
  0
VERTEX
  5
18C4
  8
0
 10
175.57683066771349
 20
85.266263403631413
 30
0.0
 42
0.6485152997455652
  0
VERTEX
  5
18C5
  8
0
 10
175.44477934462151
 20
85.79295562169122
 30
0.0
 42
-0.0087400362380814
  0
VERTEX
  5
18C6
  8
0
 10
173.5559658066889
 20
86.160052160247787
 30
0.0
  0
SEQEND
  5
18C7
  8
0
  0
POLYLINE
  5
18C8
  8
0
 66
     1
 10
0.0
 20
0.0
 30
0.0
  0
VERTEX
  5
18C9
  8
0
 10
185.02208935511771
 20
82.578980034900255
 30
0.0
 42
-0.2223672984220246
  0
VERTEX
  5
18CA
  8
0
 10
184.10904180049431
 20
83.005739029316771
 30
0.0
  0
VERTEX
  5
18CB
  8
0
 10
182.8588160595817
 20
84.502311999517531
 30
0.0
 42
-0.6485152997455652
  0
VERTEX
  5
18CC
  8
0
 10
183.0972995718794
 20
84.990131493651589
 30
0.0
 42
0.0087400362380814
  0
VERTEX
  5
18CD
  8
0
 10
185.02117445977279
 20
84.957239770818504
 30
0.0
  0
SEQEND
  5
18CE
  8
0
  0
POLYLINE
  5
18CF
  8
0
 66
     1
 10
0.0
 20
0.0
 30
0.0
  0
VERTEX
  5
18D0
  8
0
 10
190.77459360463291
 20
85.260983104313567
 30
0.0
 42
0.2744102252691183
  0
VERTEX
  5
18D1
  8
0
 10
186.63312434748349
 20
82.172710996523193
 30
0.0
 42
-0.2001169019235578
  0
VERTEX
  5
18D2
  8
0
 10
185.02250424951831
 20
81.500466898844309
 30
0.0
 42
-0.2001169019235578
  0
SEQEND
  5
18D3
  8
0
  0
POLYLINE
  5
18D4
  8
0
 66
     1
 10
0.0
 20
0.0
 30
0.0
  0
VERTEX
  5
18D5
  8
0
 10
179.24646443350881
 20
85.258765720071352
 30
0.0
 42
-0.2744102252691183
  0
VERTEX
  5
18D6
  8
0
 10
183.3891214149107
 20
82.172087027024105
 30
0.0
 42
0.2001169019235578
  0
VERTEX
  5
18D7
  8
0
 10
185.0
 20
81.500462570252267
 30
0.0
 42
0.2001169019235578
  0
SEQEND
  5
18D8
  8
0
  0
POLYLINE
  5
18D9
  8
0
 66
     1
 10
0.0
 20
0.0
 30
0.0
  0
VERTEX
  5
18DA
  8
0
 10
185.0
 20
82.5789757861113
 30
0.0
 42
0.2223672984220246
  0
VERTEX
  5
18DB
  8
0
 10
185.9128833166904
 20
83.006085990189064
 30
0.0
  0
VERTEX
  5
18DC
  8
0
 10
187.16253324684041
 20
84.503139800328213
 30
0.0
 42
0.6485152997455652
  0
VERTEX
  5
18DD
  8
0
 10
186.92386209238691
 20
84.990867515889789
 30
0.0
 42
-0.0087400362380814
  0
VERTEX
  5
18DE
  8
0
 10
185.0
 20
84.957235698005576
 30
0.0
  0
SEQEND
  5
18DF
  8
0
  0
POLYLINE
  5
18E0
  8
0
 66
     1
 10
0.0
 20
0.0
 30
0.0
  0
VERTEX
  5
18E1
  8
0
 10
196.96010799913441
 20
83.838359724621327
 30
0.0
 42
-0.2223672984220246
  0
VERTEX
  5
18E2
  8
0
 10
195.97828454012279
 20
84.065959750222603
 30
0.0
  0
VERTEX
  5
18E3
  8
0
 10
194.44422421460681
 20
85.269892462650546
 30
0.0
 42
-0.6485152997455652
  0
VERTEX
  5
18E4
  8
0
 10
194.57607291413609
 20
85.796635440702943
 30
0.0
 42
0.0087400362380814
  0
VERTEX
  5
18E5
  8
0
 10
196.4647450935492
 20
86.164458561793438
 30
0.0
  0
SEQEND
  5
18E6
  8
0
  0
POLYLINE
  5
18E7
  8
0
 66
     1
 10
0.0
 20
0.0
 30
0.0
  0
VERTEX
  5
18E8
  8
0
 10
202.0292864360685
 20
87.657767477081691
 30
0.0
 42
0.2744102252691183
  0
VERTEX
  5
18E9
  8
0
 10
198.62040609431099
 20
83.775921648709698
 30
0.0
 42
-0.2001169019235578
  0
VERTEX
  5
18EA
  8
0
 10
197.18474931678341
 20
82.783500949624624
 30
0.0
 42
-0.2001169019235578
  0
SEQEND
  5
18EB
  8
0
  0
POLYLINE
  5
18EC
  8
0
 66
     1
 10
0.0
 20
0.0
 30
0.0
  0
VERTEX
  5
18ED
  8
0
 10
190.75353556649111
 20
85.258765720071324
 30
0.0
 42
-0.2744102252691183
  0
VERTEX
  5
18EE
  8
0
 10
195.44742213959509
 20
83.100845179712238
 30
0.0
 42
0.2001169019235578
  0
VERTEX
  5
18EF
  8
0
 10
197.16273773907571
 20
82.778817819054765
 30
0.0
 42
0.2001169019235578
  0
SEQEND
  5
18F0
  8
0
  0
POLYLINE
  5
18F1
  8
0
 66
     1
 10
0.0
 20
0.0
 30
0.0
  0
VERTEX
  5
18F2
  8
0
 10
196.93850223279711
 20
83.833762933506975
 30
0.0
 42
0.2223672984220246
  0
VERTEX
  5
18F3
  8
0
 10
197.74263565407239
 20
84.441338868767019
 30
0.0
  0
VERTEX
  5
18F4
  8
0
 10
198.6537227460947
 20
86.165495291231835
 30
0.0
 42
0.6485152997455652
  0
VERTEX
  5
18F5
  8
0
 10
198.3188628350004
 20
86.592942462747885
 30
0.0
 42
-0.0087400362380814
  0
VERTEX
  5
18F6
  8
0
 10
196.44403419331101
 20
86.160052160247758
 30
0.0
  0
SEQEND
  5
18F7
  8
0
  0
POLYLINE
  5
18F8
  8
0
 66
     1
 10
0.0
 20
0.0
 30
0.0
  0
VERTEX
  5
18F9
  8
0
 10
208.37541253262319
 20
87.552272587826366
 30
0.0
 42
-0.2223672984220246
  0
VERTEX
  5
18FA
  8
0
 10
207.36772356569401
 20
87.570766431347565
 30
0.0
  0
VERTEX
  5
18FB
  8
0
 10
205.61687445303789
 20
88.429441249359428
 30
0.0
 42
-0.6485152997455652
  0
VERTEX
  5
18FC
  8
0
 10
205.6363259189491
 20
88.972086515596033
 30
0.0
 42
0.0087400362380814
  0
VERTEX
  5
18FD
  8
0
 10
207.40725135278689
 20
89.72454884520738
 30
0.0
  0
SEQEND
  5
18FE
  8
0
  0
POLYLINE
  5
18FF
  8
0
 66
     1
 10
0.0
 20
0.0
 30
0.0
  0
VERTEX
  5
1900
  8
0
 10
212.5397177346654
 20
92.342158576999466
 30
0.0
 42
0.2744102252691183
  0
VERTEX
  5
1901
  8
0
 10
210.01241073685739
 20
87.836394317908656
 30
0.0
 42
-0.2001169019235578
  0
VERTEX
  5
1902
  8
0
 10
208.81446236999079
 20
86.567170564130294
 30
0.0
 42
-0.2001169019235578
  0
SEQEND
  5
1903
  8
0
  0
POLYLINE
  5
1904
  8
0
 66
     1
 10
0.0
 20
0.0
 30
0.0
  0
VERTEX
  5
1905
  8
0
 10
202.009149586691
 20
87.651220335689956
 30
0.0
 42
-0.2744102252691183
  0
VERTEX
  5
1906
  8
0
 10
207.04912038448569
 20
86.516369430484332
 30
0.0
 42
0.2001169019235578
  0
VERTEX
  5
1907
  8
0
 10
208.79390547566271
 20
86.558013306860644
 30
0.0
 42
0.2001169019235578
  0
SEQEND
  5
1908
  8
0
  0
POLYLINE
  5
1909
  8
0
 66
     1
 10
0.0
 20
0.0
 30
0.0
  0
VERTEX
  5
190A
  8
0
 10
208.3552346307313
 20
87.543284156216188
 30
0.0
 42
0.2223672984220246
  0
VERTEX
  5
190B
  8
0
 10
209.0154736674215
 20
88.304771838814844
 30
0.0
  0
VERTEX
  5
190C
  8
0
 10
209.5481790435137
 20
90.180676964523144
 30
0.0
 42
0.6485152997455652
  0
VERTEX
  5
190D
  8
0
 10
209.13176536072979
 20
90.529162099479365
 30
0.0
 42
-0.0087400362380814
  0
VERTEX
  5
190E
  8
0
 10
207.38790917780571
 20
89.715932695820698
 30
0.0
  0
SEQEND
  5
190F
  8
0
  0
POLYLINE
  5
1910
  8
0
 66
     1
 10
0.0
 20
0.0
 30
0.0
  0
VERTEX
  5
1911
  8
0
 10
218.76909937076229
 20
93.558402811062052
 30
0.0
 42
-0.2223672984220246
  0
VERTEX
  5
1912
  8
0
 10
217.7795857391983
 20
93.366982202798027
 30
0.0
  0
VERTEX
  5
1913
  8
0
 10
215.88846834713141
 20
93.842870916467774
 30
0.0
 42
-0.6485152997455652
  0
VERTEX
  5
1914
  8
0
 10
215.79467245702571
 20
94.377702268853113
 30
0.0
 42
0.0087400362380814
  0
VERTEX
  5
1915
  8
0
 10
217.37045320598639
 20
95.481917592466431
 30
0.0
  0
SEQEND
  5
1916
  8
0
  0
POLYLINE
  5
1917
  8
0
 66
     1
 10
0.0
 20
0.0
 30
0.0
  0
VERTEX
  5
1918
  8
0
 10
221.8465312180299
 20
99.109426034797977
 30
0.0
 42
0.2744102252691183
  0
VERTEX
  5
1919
  8
0
 10
220.31125300734001
 20
94.176666864166364
 30
0.0
 42
-0.2001169019235578
  0
VERTEX
  5
191A
  8
0
 10
219.4033691431606
 20
92.686111224146089
 30
0.0
 42
-0.2001169019235578
  0
SEQEND
  5
191B
  8
0
  0
POLYLINE
  5
191C
  8
0
 66
     1
 10
0.0
 20
0.0
 30
0.0
  0
VERTEX
  5
191D
  8
0
 10
212.5213821509972
 20
92.331567819953605
 30
0.0
 42
-0.2744102252691183
  0
VERTEX
  5
191E
  8
0
 10
217.68716626515581
 20
92.269384980077788
 30
0.0
 42
0.2001169019235578
  0
VERTEX
  5
191F
  8
0
 10
219.3851653671372
 20
92.67288005626078
 30
0.0
 42
0.2001169019235578
  0
SEQEND
  5
1920
  8
0
  0
POLYLINE
  5
1921
  8
0
 66
     1
 10
0.0
 20
0.0
 30
0.0
  0
VERTEX
  5
1922
  8
0
 10
218.75123120445269
 20
93.54541557654872
 30
0.0
 42
0.2223672984220246
  0
VERTEX
  5
1923
  8
0
 10
219.23872024247609
 20
94.427534340733104
 30
0.0
  0
VERTEX
  5
1924
  8
0
 10
219.36976212149889
 20
96.373202114099925
 30
0.0
 42
0.6485152997455652
  0
VERTEX
  5
1925
  8
0
 10
218.88999394313751
 20
96.627494739881485
 30
0.0
 42
-0.0087400362380814
  0
VERTEX
  5
1926
  8
0
 10
217.35332510212291
 20
95.469468262311835
 30
0.0
  0
SEQEND
  5
1927
  8
0
  0
POLYLINE
  5
1928
  8
0
 66
     1
 10
0.0
 20
0.0
 30
0.0
  0
VERTEX
  5
1929
  8
0
 10
227.686914524282
 20
101.5942536829626
 30
0.0
 42
-0.2223672984220246
  0
VERTEX
  5
192A
  8
0
 10
226.75882272199581
 20
101.2012846220324
 30
0.0
  0
VERTEX
  5
192B
  8
0
 10
224.81008795513941
 20
101.27358861100529
 30
0.0
 42
-0.6485152997455652
  0
VERTEX
  5
192C
  8
0
 10
224.607144039497
 20
101.77723135303459
 30
0.0
 42
0.0087400362380814
  0
VERTEX
  5
192D
  8
0
 10
225.91891092341621
 20
103.18494016239489
 30
0.0
  0
SEQEND
  5
192E
  8
0
  0
POLYLINE
  5
192F
  8
0
 66
     1
 10
0.0
 20
0.0
 30
0.0
  0
VERTEX
  5
1930
  8
0
 10
229.54297447789301
 20
107.6638077896193
 30
0.0
 42
0.2744102252691183
  0
VERTEX
  5
1931
  8
0
 10
229.06682407921059
 20
102.5196389532081
 30
0.0
 42
-0.2001169019235578
  0
VERTEX
  5
1932
  8
0
 10
228.48868359909321
 20
100.8728958608944
 30
0.0
 42
-0.2001169019235578
  0
SEQEND
  5
1933
  8
0
  0
POLYLINE
  5
1934
  8
0
 66
     1
 10
0.0
 20
0.0
 30
0.0
  0
VERTEX
  5
1935
  8
0
 10
221.8307982530612
 20
99.095254529000982
 30
0.0
 42
-0.2744102252691183
  0
VERTEX
  5
1936
  8
0
 10
226.8966261296128
 20
100.1084574429439
 30
0.0
 42
0.2001169019235578
  0
VERTEX
  5
1937
  8
0
 10
228.47362853373809
 20
100.8561690479201
 30
0.0
 42
0.2001169019235578
  0
SEQEND
  5
1938
  8
0
  0
POLYLINE
  5
1939
  8
0
 66
     1
 10
0.0
 20
0.0
 30
0.0
  0
VERTEX
  5
193A
  8
0
 10
227.67213701816351
 20
101.577835250014
 30
0.0
 42
0.2223672984220246
  0
VERTEX
  5
193B
  8
0
 10
227.96557044732651
 20
102.5420322729137
 30
0.0
  0
VERTEX
  5
193C
  8
0
 10
227.68922167035791
 20
104.4724276758931
 30
0.0
 42
0.6485152997455652
  0
VERTEX
  5
193D
  8
0
 10
227.16706716799661
 20
104.62141398452199
 30
0.0
 42
-0.0087400362380814
  0
VERTEX
  5
193E
  8
0
 10
225.9047454709989
 20
103.1692017469387
 30
0.0
  0
SEQEND
  5
193F
  8
0
  0
POLYLINE
  5
1940
  8
0
 66
     1
 10
0.0
 20
0.0
 30
0.0
  0
VERTEX
  5
1941
  8
0
 10
234.73910667854861
 20
111.3086199601353
 30
0.0
 42
-0.2223672984220246
  0
VERTEX
  5
1942
  8
0
 10
233.9129987707787
 20
110.7312770801765
 30
0.0
  0
VERTEX
  5
1943
  8
0
 10
231.99181568951141
 20
110.3968363131813
 30
0.0
 42
-0.6485152997455652
  0
VERTEX
  5
1944
  8
0
 10
231.68859337127881
 20
110.8472788402819
 30
0.0
 42
0.0087400362380814
  0
VERTEX
  5
1945
  8
0
 10
232.67901588277331
 20
112.49695750548391
 30
0.0
  0
SEQEND
  5
1946
  8
0
  0
POLYLINE
  5
1947
  8
0
 66
     1
 10
0.0
 20
0.0
 30
0.0
  0
VERTEX
  5
1948
  8
0
 10
235.2926760121664
 20
117.6314363103001
 30
0.0
 42
0.2744102252691183
  0
VERTEX
  5
1949
  8
0
 10
235.89646348273709
 20
112.5006826707212
 30
0.0
 42
-0.2001169019235578
  0
VERTEX
  5
194A
  8
0
 10
235.6733338998886
 20
110.76972270119821
 30
0.0
 42
-0.2001169019235578
  0
SEQEND
  5
194B
  8
0
  0
POLYLINE
  5
194C
  8
0
 66
     1
 10
0.0
 20
0.0
 30
0.0
  0
VERTEX
  5
194D
  8
0
 10
229.53053173768819
 20
107.64667489787711
 30
0.0
 42
-0.2744102252691183
  0
VERTEX
  5
194E
  8
0
 10
234.2750023898881
 20
109.6909817364124
 30
0.0
 42
0.2001169019235578
  0
VERTEX
  5
194F
  8
0
 10
235.6620855238001
 20
110.75023128512611
 30
0.0
 42
0.2001169019235578
  0
SEQEND
  5
1950
  8
0
  0
POLYLINE
  5
1951
  8
0
 66
     1
 10
0.0
 20
0.0
 30
0.0
  0
VERTEX
  5
1952
  8
0
 10
234.72806568054889
 20
111.28948789305571
 30
0.0
 42
0.2223672984220246
  0
VERTEX
  5
1953
  8
0
 10
234.8146190519472
 20
112.29362313803949
 30
0.0
  0
VERTEX
  5
1954
  8
0
 10
234.1429573866094
 20
114.1243786284564
 30
0.0
 42
0.6485152997455652
  0
VERTEX
  5
1955
  8
0
 10
233.6012372175766
 20
114.1615472033299
 30
0.0
 42
-0.0087400362380814
  0
VERTEX
  5
1956
  8
0
 10
232.6684321800463
 20
112.4786178490028
 30
0.0
  0
SEQEND
  5
1957
  8
0
  0
POLYLINE
  5
1958
  8
0
 66
     1
 10
0.0
 20
0.0
 30
0.0
  0
VERTEX
  5
1959
  8
0
 10
239.61746119624831
 20
122.2769372215664
 30
0.0
 42
-0.2223672984220246
  0
VERTEX
  5
195A
  8
0
 10
238.92944206266981
 20
121.54045317683151
 30
0.0
  0
VERTEX
  5
195B
  8
0
 10
237.11977558650219
 20
120.8138843202108
 30
0.0
 42
-0.6485152997455652
  0
VERTEX
  5
195C
  8
0
 10
236.72952713600839
 20
121.1914401324853
 30
0.0
 42
0.0087400362380814
  0
VERTEX
  5
195D
  8
0
 10
237.35531905875121
 20
123.01098977982321
 30
0.0
  0
SEQEND
  5
195E
  8
0
  0
POLYLINE
  5
195F
  8
0
 66
     1
 10
0.0
 20
0.0
 30
0.0
  0
VERTEX
  5
1960
  8
0
 10
238.84434627367349
 20
128.5766784004978
 30
0.0
 42
0.2744102252691183
  0
VERTEX
  5
1961
  8
0
 10
240.5016832037395
 20
123.6835785118884
 30
0.0
 42
-0.2001169019235578
  0
VERTEX
  5
1962
  8
0
 10
240.64331635162489
 20
121.9440529218917
 30
0.0
 42
-0.2001169019235578
  0
SEQEND
  5
1963
  8
0
  0
POLYLINE
  5
1964
  8
0
 66
     1
 10
0.0
 20
0.0
 30
0.0
  0
VERTEX
  5
1965
  8
0
 10
235.2840673041793
 20
117.61209082219411
 30
0.0
 42
-0.2744102252691183
  0
VERTEX
  5
1966
  8
0
 10
239.49982459803039
 20
120.5981555668053
 30
0.0
 42
0.2001169019235578
  0
VERTEX
  5
1967
  8
0
 10
240.63636627281369
 20
121.9226487711345
 30
0.0
 42
0.2001169019235578
  0
SEQEND
  5
1968
  8
0
  0
POLYLINE
  5
1969
  8
0
 66
     1
 10
0.0
 20
0.0
 30
0.0
  0
VERTEX
  5
196A
  8
0
 10
239.61063925096059
 20
122.2559276834928
 30
0.0
 42
0.2223672984220246
  0
VERTEX
  5
196B
  8
0
 10
239.48652976693489
 20
123.2561156219794
 30
0.0
  0
VERTEX
  5
196C
  8
0
 10
238.44891005099339
 20
124.9072183999632
 30
0.0
 42
0.6485152997455652
  0
VERTEX
  5
196D
  8
0
 10
237.91129998613761
 20
124.8309447960046
 30
0.0
 42
-0.0087400362380814
  0
VERTEX
  5
196E
  8
0
 10
237.34877966431
 20
122.99085041330881
 30
0.0
  0
SEQEND
  5
196F
  8
0
  0
POLYLINE
  5
1970
  8
0
 66
     1
 10
0.0
 20
0.0
 30
0.0
  0
VERTEX
  5
1971
  8
0
 10
242.10877057601539
 20
134.01983737110601
 30
0.0
 42
-0.2223672984220246
  0
VERTEX
  5
1972
  8
0
 10
241.58890995424781
 20
133.1564000483925
 30
0.0
  0
VERTEX
  5
1973
  8
0
 10
239.9698511919315
 20
132.0694576476449
 30
0.0
 42
-0.6485152997455652
  0
VERTEX
  5
1974
  8
0
 10
239.50963233908291
 20
132.35762574438311
 30
0.0
 42
0.0087400362380814
  0
VERTEX
  5
1975
  8
0
 10
239.7434435631676
 20
134.26752332310031
 30
0.0
  0
SEQEND
  5
1976
  8
0
  0
POLYLINE
  5
1977
  8
0
 66
     1
 10
0.0
 20
0.0
 30
0.0
  0
VERTEX
  5
1978
  8
0
 10
240.0427602291814
 20
140.02117445977271
 30
0.0
 42
0.2744102252691183
  0
VERTEX
  5
1979
  8
0
 10
242.681213042114
 20
135.5795802669634
 30
0.0
 42
-0.2001169019235578
  0
VERTEX
  5
197A
  8
0
 10
243.1814188725395
 20
133.90751467194571
 30
0.0
 42
-0.2001169019235578
  0
SEQEND
  5
197B
  8
0
  0
POLYLINE
  5
197C
  8
0
 66
     1
 10
0.0
 20
0.0
 30
0.0
  0
VERTEX
  5
197D
  8
0
 10
238.83994783975211
 20
128.5559658066889
 30
0.0
 42
-0.2744102252691183
  0
VERTEX
  5
197E
  8
0
 10
242.34274295206529
 20
132.35328309930799
 30
0.0
 42
0.2001169019235578
  0
VERTEX
  5
197F
  8
0
 10
243.17907084279989
 20
133.88513325059981
 30
0.0
 42
0.2001169019235578
  0
SEQEND
  5
1980
  8
0
  0
POLYLINE
  5
1981
  8
0
 66
     1
 10
0.0
 20
0.0
 30
0.0
  0
VERTEX
  5
1982
  8
0
 10
242.106465835184
 20
133.9978685796674
 30
0.0
 42
0.2223672984220246
  0
VERTEX
  5
1983
  8
0
 10
241.77711767572981
 20
134.95039619931069
 30
0.0
  0
VERTEX
  5
1984
  8
0
 10
240.41888886982301
 20
136.3496851505931
 30
0.0
 42
0.6485152997455652
  0
VERTEX
  5
1985
  8
0
 10
239.90888504871779
 20
136.1633028902969
 30
0.0
 42
-0.0087400362380814
  0
VERTEX
  5
1986
  8
0
 10
239.74123427992851
 20
134.24646443350881
 30
0.0
  0
SEQEND
  5
1987
  8
0
  0
POLYLINE
  5
1988
  8
0
 66
     1
 10
0.0
 20
0.0
 30
0.0
  0
VERTEX
  5
1989
  8
0
 10
242.10415264332531
 20
146.0240993235322
 30
0.0
 42
-0.2223672984220246
  0
VERTEX
  5
198A
  8
0
 10
241.77517093710779
 20
145.07144507707471
 30
0.0
  0
VERTEX
  5
198B
  8
0
 10
240.4174805256622
 20
143.67163373084111
 30
0.0
 42
-0.6485152997455652
  0
VERTEX
  5
198C
  8
0
 10
239.9074050427032
 20
143.85781978343169
 30
0.0
 42
0.0087400362380814
  0
VERTEX
  5
198D
  8
0
 10
239.7390168956864
 20
145.7745936046328
 30
0.0
  0
SEQEND
  5
198E
  8
0
  0
POLYLINE
  5
198F
  8
0
 66
     1
 10
0.0
 20
0.0
 30
0.0
  0
VERTEX
  5
1990
  8
0
 10
238.83554143820649
 20
151.46474509354911
 30
0.0
 42
0.2744102252691183
  0
VERTEX
  5
1991
  8
0
 10
242.3397970853791
 20
147.66877557589919
 30
0.0
 42
-0.2001169019235578
  0
VERTEX
  5
1992
  8
0
 10
243.1767142033012
 20
146.13724726582379
 30
0.0
 42
-0.2001169019235578
  0
SEQEND
  5
1993
  8
0
  0
POLYLINE
  5
1994
  8
0
 66
     1
 10
0.0
 20
0.0
 30
0.0
  0
VERTEX
  5
1995
  8
0
 10
240.0427643019944
 20
139.99999999999989
 30
0.0
 42
-0.2744102252691183
  0
VERTEX
  5
1996
  8
0
 10
242.67950827808559
 20
144.44260885338949
 30
0.0
 42
0.2001169019235578
  0
VERTEX
  5
1997
  8
0
 10
243.17907084279989
 20
146.11486674939999
 30
0.0
 42
0.2001169019235578
  0
SEQEND
  5
1998
  8
0
  0
POLYLINE
  5
1999
  8
0
 66
     1
 10
0.0
 20
0.0
 30
0.0
  0
VERTEX
  5
199A
  8
0
 10
242.106465835184
 20
146.0021314203324
 30
0.0
 42
0.2223672984220246
  0
VERTEX
  5
199B
  8
0
 10
241.5862730952571
 20
146.8653686934193
 30
0.0
  0
VERTEX
  5
199C
  8
0
 10
239.96679631570811
 20
147.9516881762961
 30
0.0
 42
0.6485152997455652
  0
VERTEX
  5
199D
  8
0
 10
239.50668835260549
 20
147.66334305879849
 30
0.0
 42
-0.0087400362380814
  0
VERTEX
  5
199E
  8
0
 10
239.74123427992851
 20
145.753535566491
 30
0.0
  0
SEQEND
  5
199F
  8
0
  0
POLYLINE
  5
19A0
  8
0
 66
     1
 10
0.0
 20
0.0
 30
0.0
  0
VERTEX
  5
19A1
  8
0
 10
239.603809223996
 20
157.76507922868441
 30
0.0
 42
-0.2223672984220246
  0
VERTEX
  5
19A2
  8
0
 10
239.48008451251971
 20
156.76484362039531
 30
0.0
  0
VERTEX
  5
19A3
  8
0
 10
238.44310003784611
 20
155.1133418015462
 30
0.0
 42
-0.6485152997455652
  0
VERTEX
  5
19A4
  8
0
 10
237.90546067099589
 20
155.1894085860711
 30
0.0
 42
0.0087400362380814
  0
VERTEX
  5
19A5
  8
0
 10
237.34223252291821
 20
157.02928643606839
 30
0.0
  0
SEQEND
  5
19A6
  8
0
  0
POLYLINE
  5
19A7
  8
0
 66
     1
 10
0.0
 20
0.0
 30
0.0
  0
VERTEX
  5
19A8
  8
0
 10
235.27545115479259
 20
162.4072513527868
 30
0.0
 42
0.2744102252691183
  0
VERTEX
  5
19A9
  8
0
 10
239.4923568491397
 20
159.4228085933002
 30
0.0
 42
-0.2001169019235578
  0
VERTEX
  5
19AA
  8
0
 10
240.62940796053121
 20
158.09875270440551
 30
0.0
 42
-0.2001169019235578
  0
SEQEND
  5
19AB
  8
0
  0
POLYLINE
  5
19AC
  8
0
 66
     1
 10
0.0
 20
0.0
 30
0.0
  0
VERTEX
  5
19AD
  8
0
 10
238.83994783975211
 20
151.44403419331101
 30
0.0
 42
-0.2744102252691183
  0
VERTEX
  5
19AE
  8
0
 10
240.495402315365
 20
156.3377712825754
 30
0.0
 42
0.2001169019235578
  0
VERTEX
  5
19AF
  8
0
 10
240.63636627281369
 20
158.0773512288653
 30
0.0
 42
0.2001169019235578
  0
SEQEND
  5
19B0
  8
0
  0
POLYLINE
  5
19B1
  8
0
 66
     1
 10
0.0
 20
0.0
 30
0.0
  0
VERTEX
  5
19B2
  8
0
 10
239.61063925096059
 20
157.74407231650679
 30
0.0
 42
0.2223672984220246
  0
VERTEX
  5
19B3
  8
0
 10
238.92233684945751
 20
158.48029163193149
 30
0.0
  0
VERTEX
  5
19B4
  8
0
 10
237.11239100264439
 20
159.2061642722617
 30
0.0
 42
0.6485152997455652
  0
VERTEX
  5
19B5
  8
0
 10
236.72228782337501
 20
158.8284583628307
 30
0.0
 42
-0.0087400362380814
  0
VERTEX
  5
19B6
  8
0
 10
237.34877966431
 20
157.0091495866908
 30
0.0
  0
SEQEND
  5
19B7
  8
0
  0
POLYLINE
  5
19B8
  8
0
 66
     1
 10
0.0
 20
0.0
 30
0.0
  0
VERTEX
  5
19B9
  8
0
 10
234.71701732343089
 20
168.72963992523501
 30
0.0
 42
-0.2223672984220246
  0
VERTEX
  5
19BA
  8
0
 10
234.80395697028439
 20
167.7255380508596
 30
0.0
  0
VERTEX
  5
19BB
  8
0
 10
234.13299962992971
 20
165.89452431366371
 30
0.0
 42
-0.6485152997455652
  0
VERTEX
  5
19BC
  8
0
 10
233.59129379939949
 20
165.8571473466302
 30
0.0
 42
0.0087400362380814
  0
VERTEX
  5
19BD
  8
0
 10
232.65784142300049
 20
167.5397177346654
 30
0.0
  0
SEQEND
  5
19BE
  8
0
  0
POLYLINE
  5
19BF
  8
0
 66
     1
 10
0.0
 20
0.0
 30
0.0
  0
VERTEX
  5
19C0
  8
0
 10
229.51808240753351
 20
172.37045320598639
 30
0.0
 42
0.2744102252691183
  0
VERTEX
  5
19C1
  8
0
 10
234.2633391352536
 20
170.3279716741979
 30
0.0
 42
-0.2001169019235578
  0
VERTEX
  5
19C2
  8
0
 10
235.6508296503703
 20
169.2692558023538
 30
0.0
 42
-0.2001169019235578
  0
SEQEND
  5
19C3
  8
0
  0
POLYLINE
  5
19C4
  8
0
 66
     1
 10
0.0
 20
0.0
 30
0.0
  0
VERTEX
  5
19C5
  8
0
 10
235.2840673041793
 20
162.38790917780571
 30
0.0
 42
-0.2744102252691183
  0
VERTEX
  5
19C6
  8
0
 10
235.8858809749774
 20
167.51889470938821
 30
0.0
 42
0.2001169019235578
  0
VERTEX
  5
19C7
  8
0
 10
235.6620855238001
 20
169.24976871487391
 30
0.0
 42
0.2001169019235578
  0
SEQEND
  5
19C8
  8
0
  0
POLYLINE
  5
19C9
  8
0
 66
     1
 10
0.0
 20
0.0
 30
0.0
  0
VERTEX
  5
19CA
  8
0
 10
234.72806568054889
 20
168.71051210694429
 30
0.0
 42
0.2223672984220246
  0
VERTEX
  5
19CB
  8
0
 10
233.90173573525681
 20
169.2875371478504
 30
0.0
  0
VERTEX
  5
19CC
  8
0
 10
231.98042413976901
 20
169.6212388281281
 30
0.0
 42
0.6485152997455652
  0
VERTEX
  5
19CD
  8
0
 10
231.67737512518971
 20
169.17067968744001
 30
0.0
 42
-0.0087400362380814
  0
VERTEX
  5
19CE
  8
0
 10
232.6684321800463
 20
167.5213821509972
 30
0.0
  0
SEQEND
  5
19CF
  8
0
  0
POLYLINE
  5
19D0
  8
0
 66
     1
 10
0.0
 20
0.0
 30
0.0
  0
VERTEX
  5
19D1
  8
0
 10
227.65735319711399
 20
178.43857749694499
 30
0.0
 42
-0.2223672984220246
  0
VERTEX
  5
19D2
  8
0
 10
227.95115752254711
 20
177.4744934266088
 30
0.0
  0
VERTEX
  5
19D3
  8
0
 10
227.67555137189541
 20
175.5439918575602
 30
0.0
 42
-0.6485152997455652
  0
VERTEX
  5
19D4
  8
0
 10
227.15345422187229
 20
175.39480469178241
 30
0.0
 42
0.0087400362380814
  0
VERTEX
  5
19D5
  8
0
 10
225.89057396520209
 20
176.8465312180297
 30
0.0
  0
SEQEND
  5
19D6
  8
0
  0
POLYLINE
  5
19D7
  8
0
 66
     1
 10
0.0
 20
0.0
 30
0.0
  0
VERTEX
  5
19D8
  8
0
 10
221.81505983760511
 20
180.91891092341609
 30
0.0
 42
0.2744102252691183
  0
VERTEX
  5
19D9
  8
0
 10
226.88127710942859
 20
179.90765686317869
 30
0.0
 42
-0.2001169019235578
  0
VERTEX
  5
19DA
  8
0
 10
228.45856703484159
 20
179.160551972267
 30
0.0
 42
-0.2001169019235578
  0
SEQEND
  5
19DB
  8
0
  0
POLYLINE
  5
19DC
  8
0
 66
     1
 10
0.0
 20
0.0
 30
0.0
  0
VERTEX
  5
19DD
  8
0
 10
229.53053173768819
 20
172.3533251021228
 30
0.0
 42
-0.2744102252691183
  0
VERTEX
  5
19DE
  8
0
 10
229.05240245843549
 20
177.49731038709299
 30
0.0
 42
0.2001169019235578
  0
VERTEX
  5
19DF
  8
0
 10
228.47362853373821
 20
179.14383095207961
 30
0.0
 42
0.2001169019235578
  0
SEQEND
  5
19E0
  8
0
  0
POLYLINE
  5
19E1
  8
0
 66
     1
 10
0.0
 20
0.0
 30
0.0
  0
VERTEX
  5
19E2
  8
0
 10
227.6721370181636
 20
178.42216474998591
 30
0.0
 42
0.2223672984220246
  0
VERTEX
  5
19E3
  8
0
 10
226.74389411286259
 20
178.81477675321241
 30
0.0
  0
VERTEX
  5
19E4
  8
0
 10
224.79518730489889
 20
178.74172310873129
 30
0.0
 42
0.6485152997455652
  0
VERTEX
  5
19E5
  8
0
 10
224.59243715113729
 20
178.2380023332567
 30
0.0
 42
-0.0087400362380814
  0
VERTEX
  5
19E6
  8
0
 10
225.90474547099899
 20
176.83079825306109
 30
0.0
  0
SEQEND
  5
19E7
  8
0
  0
POLYLINE
  5
19E8
  8
0
 66
     1
 10
0.0
 20
0.0
 30
0.0
  0
VERTEX
  5
19E9
  8
0
 10
218.7333580433922
 20
186.4675647832795
 30
0.0
 42
-0.2223672984220246
  0
VERTEX
  5
19EA
  8
0
 10
219.22118638855389
 20
185.58563361704489
 30
0.0
  0
VERTEX
  5
19EB
  8
0
 10
219.35297673889369
 20
183.64001639828541
 30
0.0
 42
-0.6485152997455652
  0
VERTEX
  5
19EC
  8
0
 10
218.87330642013379
 20
183.385539228787
 30
0.0
 42
0.0087400362380814
  0
VERTEX
  5
19ED
  8
0
 10
217.3361922103806
 20
184.54297447789281
 30
0.0
  0
SEQEND
  5
19EE
  8
0
  0
POLYLINE
  5
19EF
  8
0
 66
     1
 10
0.0
 20
0.0
 30
0.0
  0
VERTEX
  5
19F0
  8
0
 10
212.50304249451611
 20
187.6790158827732
 30
0.0
 42
0.2744102252691183
  0
VERTEX
  5
19F1
  8
0
 10
217.66880230525669
 20
187.74318594905461
 30
0.0
 42
-0.2001169019235578
  0
VERTEX
  5
19F2
  8
0
 10
219.3669565025487
 20
187.3403441078153
 30
0.0
 42
-0.2001169019235578
  0
SEQEND
  5
19F3
  8
0
  0
POLYLINE
  5
19F4
  8
0
 66
     1
 10
0.0
 20
0.0
 30
0.0
  0
VERTEX
  5
19F5
  8
0
 10
221.83079825306129
 20
180.90474547099879
 30
0.0
 42
-0.2744102252691183
  0
VERTEX
  5
19F6
  8
0
 10
220.29362256757969
 20
185.83691366882351
 30
0.0
 42
0.2001169019235578
  0
VERTEX
  5
19F7
  8
0
 10
219.38516536713729
 20
187.32711994373909
 30
0.0
 42
0.2001169019235578
  0
SEQEND
  5
19F8
  8
0
  0
POLYLINE
  5
19F9
  8
0
 66
     1
 10
0.0
 20
0.0
 30
0.0
  0
VERTEX
  5
19FA
  8
0
 10
218.75123120445281
 20
186.45458442345111
 30
0.0
 42
0.2223672984220246
  0
VERTEX
  5
19FB
  8
0
 10
217.76164400830831
 20
186.64562436049579
 30
0.0
  0
VERTEX
  5
19FC
  8
0
 10
215.87070982630939
 20
186.1690081860699
 30
0.0
 42
0.6485152997455652
  0
VERTEX
  5
19FD
  8
0
 10
215.77711968798801
 20
185.6341407908175
 30
0.0
 42
-0.0087400362380814
  0
VERTEX
  5
19FE
  8
0
 10
217.35332510212291
 20
184.53053173768799
 30
0.0
  0
SEQEND
  5
19FF
  8
0
  0
POLYLINE
  5
1A00
  8
0
 66
     1
 10
0.0
 20
0.0
 30
0.0
  0
VERTEX
  5
1A01
  8
0
 10
208.3350532725631
 20
192.4656965124702
 30
0.0
 42
-0.2223672984220246
  0
VERTEX
  5
1A02
  8
0
 10
208.99558519790961
 20
191.70446287427669
 30
0.0
  0
VERTEX
  5
1A03
  8
0
 10
209.52901217853079
 20
189.82876281437339
 30
0.0
 42
-0.6485152997455652
  0
VERTEX
  5
1A04
  8
0
 10
209.11273258567749
 20
189.48011751457861
 30
0.0
 42
0.0087400362380814
  0
VERTEX
  5
1A05
  8
0
 10
207.3685636896999
 20
190.2926760121664
 30
0.0
  0
SEQEND
  5
1A06
  8
0
  0
POLYLINE
  5
1A07
  8
0
 66
     1
 10
0.0
 20
0.0
 30
0.0
  0
VERTEX
  5
1A08
  8
0
 10
201.9890102201766
 20
192.35531905875121
 30
0.0
 42
0.2744102252691183
  0
VERTEX
  5
1A09
  8
0
 10
207.0285440780392
 20
193.4921087117329
 30
0.0
 42
-0.2001169019235578
  0
VERTEX
  5
1A0A
  8
0
 10
208.7733450601406
 20
193.4511360416777
 30
0.0
 42
-0.2001169019235578
  0
SEQEND
  5
1A0B
  8
0
  0
POLYLINE
  5
1A0C
  8
0
 66
     1
 10
0.0
 20
0.0
 30
0.0
  0
VERTEX
  5
1A0D
  8
0
 10
212.5213821509972
 20
187.6684321800463
 30
0.0
 42
-0.2744102252691183
  0
VERTEX
  5
1A0E
  8
0
 10
209.99234201292981
 20
192.17322387331171
 30
0.0
 42
0.2001169019235578
  0
VERTEX
  5
1A0F
  8
0
 10
208.79390547566271
 20
193.4419866931392
 30
0.0
 42
0.2001169019235578
  0
SEQEND
  5
1A10
  8
0
  0
POLYLINE
  5
1A11
  8
0
 66
     1
 10
0.0
 20
0.0
 30
0.0
  0
VERTEX
  5
1A12
  8
0
 10
208.3552346307313
 20
192.45671584378371
 30
0.0
 42
0.2223672984220246
  0
VERTEX
  5
1A13
  8
0
 10
207.34755285278101
 20
192.4378343526862
 30
0.0
  0
VERTEX
  5
1A14
  8
0
 10
205.59703419420919
 20
191.57848606219619
 30
0.0
 42
0.6485152997455652
  0
VERTEX
  5
1A15
  8
0
 10
205.61669440946801
 20
191.03584831891709
 30
0.0
 42
-0.0087400362380814
  0
VERTEX
  5
1A16
  8
0
 10
207.38790917780571
 20
190.28406730417919
 30
0.0
  0
SEQEND
  5
1A17
  8
0
  0
POLYLINE
  5
1A18
  8
0
 66
     1
 10
0.0
 20
0.0
 30
0.0
  0
VERTEX
  5
1A19
  8
0
 10
196.91689469971399
 20
196.1708255457217
 30
0.0
 42
-0.2223672984220246
  0
VERTEX
  5
1A1A
  8
0
 10
197.72126179052401
 20
195.56355899836291
 30
0.0
  0
VERTEX
  5
1A1B
  8
0
 10
198.6330120827067
 20
193.8397531905409
 30
0.0
 42
-0.6485152997455652
  0
VERTEX
  5
1A1C
  8
0
 10
198.29831663149889
 20
193.41217723303649
 30
0.0
 42
0.0087400362380814
  0
VERTEX
  5
1A1D
  8
0
 10
196.42332159950209
 20
193.84434627367341
 30
0.0
  0
SEQEND
  5
1A1E
  8
0
  0
POLYLINE
  5
1A1F
  8
0
 66
     1
 10
0.0
 20
0.0
 30
0.0
  0
VERTEX
  5
1A20
  8
0
 10
190.73247667689961
 20
194.74344356316749
 30
0.0
 42
0.2744102252691183
  0
VERTEX
  5
1A21
  8
0
 10
195.42553276992919
 20
196.90316964009199
 30
0.0
 42
-0.2001169019235578
  0
VERTEX
  5
1A22
  8
0
 10
197.14072436143809
 20
197.22585684351111
 30
0.0
 42
-0.2001169019235578
  0
SEQEND
  5
1A23
  8
0
  0
POLYLINE
  5
1A24
  8
0
 66
     1
 10
0.0
 20
0.0
 30
0.0
  0
VERTEX
  5
1A25
  8
0
 10
202.009149586691
 20
192.34877966431
 30
0.0
 42
-0.2744102252691183
  0
VERTEX
  5
1A26
  8
0
 10
198.5987761857522
 20
196.22931383963149
 30
0.0
 42
0.2001169019235578
  0
VERTEX
  5
1A27
  8
0
 10
197.16273773907571
 20
197.22118218094511
 30
0.0
 42
0.2001169019235578
  0
SEQEND
  5
1A28
  8
0
  0
POLYLINE
  5
1A29
  8
0
 66
     1
 10
0.0
 20
0.0
 30
0.0
  0
VERTEX
  5
1A2A
  8
0
 10
196.93850223279711
 20
196.1662370664929
 30
0.0
 42
0.2223672984220246
  0
VERTEX
  5
1A2B
  8
0
 10
195.95676640213111
 20
195.93825935901771
 30
0.0
  0
VERTEX
  5
1A2C
  8
0
 10
194.42316933228651
 20
194.73373659636849
 30
0.0
 42
0.6485152997455652
  0
VERTEX
  5
1A2D
  8
0
 10
194.55522065537849
 20
194.20704437830869
 30
0.0
 42
-0.0087400362380814
  0
VERTEX
  5
1A2E
  8
0
 10
196.4440341933111
 20
193.83994783975211
 30
0.0
  0
SEQEND
  5
1A2F
  8
0
  0
POLYLINE
  5
1A30
  8
0
 66
     1
 10
0.0
 20
0.0
 30
0.0
  0
VERTEX
  5
1A31
  8
0
 10
184.9779106448822
 20
197.42101996509959
 30
0.0
 42
-0.2223672984220246
  0
VERTEX
  5
1A32
  8
0
 10
185.89095819950569
 20
196.99426097068309
 30
0.0
  0
VERTEX
  5
1A33
  8
0
 10
187.1411839404183
 20
195.4976880004823
 30
0.0
 42
-0.6485152997455652
  0
VERTEX
  5
1A34
  8
0
 10
186.9027004281206
 20
195.00986850634831
 30
0.0
 42
0.0087400362380814
  0
VERTEX
  5
1A35
  8
0
 10
184.97882554022721
 20
195.0427602291814
 30
0.0
  0
SEQEND
  5
1A36
  8
0
  0
POLYLINE
  5
1A37
  8
0
 66
     1
 10
0.0
 20
0.0
 30
0.0
  0
VERTEX
  5
1A38
  8
0
 10
179.22540639536709
 20
194.73901689568629
 30
0.0
 42
0.2744102252691183
  0
VERTEX
  5
1A39
  8
0
 10
183.36687565251651
 20
197.82728900347669
 30
0.0
 42
-0.2001169019235578
  0
VERTEX
  5
1A3A
  8
0
 10
184.97749575048161
 20
198.49953310115549
 30
0.0
 42
-0.2001169019235578
  0
SEQEND
  5
1A3B
  8
0
  0
POLYLINE
  5
1A3C
  8
0
 66
     1
 10
0.0
 20
0.0
 30
0.0
  0
VERTEX
  5
1A3D
  8
0
 10
190.75353556649111
 20
194.74123427992851
 30
0.0
 42
-0.2744102252691183
  0
VERTEX
  5
1A3E
  8
0
 10
186.6108785850893
 20
197.82791297297581
 30
0.0
 42
0.2001169019235578
  0
VERTEX
  5
1A3F
  8
0
 10
185.0
 20
198.49953742974759
 30
0.0
 42
0.2001169019235578
  0
SEQEND
  5
1A40
  8
0
  0
POLYLINE
  5
1A41
  8
0
 66
     1
 10
0.0
 20
0.0
 30
0.0
  0
VERTEX
  5
1A42
  8
0
 10
185.0
 20
197.42102421388859
 30
0.0
 42
0.2223672984220246
  0
VERTEX
  5
1A43
  8
0
 10
184.08711668330949
 20
196.99391400981079
 30
0.0
  0
VERTEX
  5
1A44
  8
0
 10
182.8374667531595
 20
195.4968601996716
 30
0.0
 42
0.6485152997455652
  0
VERTEX
  5
1A45
  8
0
 10
183.07613790761309
 20
195.0091324841101
 30
0.0
 42
-0.0087400362380814
  0
VERTEX
  5
1A46
  8
0
 10
185.0
 20
195.04276430199431
 30
0.0
  0
SEQEND
  5
1A47
  8
0
  0
POLYLINE
  5
1A48
  8
0
 66
     1
 10
0.0
 20
0.0
 30
0.0
  0
VERTEX
  5
1A49
  8
0
 10
173.03989200086559
 20
196.16164027537849
 30
0.0
 42
-0.2223672984220246
  0
VERTEX
  5
1A4A
  8
0
 10
174.02171545987721
 20
195.9340402497773
 30
0.0
  0
VERTEX
  5
1A4B
  8
0
 10
175.55577578539311
 20
194.73010753734931
 30
0.0
 42
-0.6485152997455652
  0
VERTEX
  5
1A4C
  8
0
 10
175.4239270858638
 20
194.203364559297
 30
0.0
 42
0.0087400362380814
  0
VERTEX
  5
1A4D
  8
0
 10
173.53525490645069
 20
193.83554143820641
 30
0.0
  0
SEQEND
  5
1A4E
  8
0
  0
POLYLINE
  5
1A4F
  8
0
 66
     1
 10
0.0
 20
0.0
 30
0.0
  0
VERTEX
  5
1A50
  8
0
 10
167.9707135639315
 20
192.34223252291821
 30
0.0
 42
0.2744102252691183
  0
VERTEX
  5
1A51
  8
0
 10
171.37959390568901
 20
196.22407835129019
 30
0.0
 42
-0.2001169019235578
  0
VERTEX
  5
1A52
  8
0
 10
172.8152506832165
 20
197.21649905037521
 30
0.0
 42
-0.2001169019235578
  0
SEQEND
  5
1A53
  8
0
  0
POLYLINE
  5
1A54
  8
0
 66
     1
 10
0.0
 20
0.0
 30
0.0
  0
VERTEX
  5
1A55
  8
0
 10
179.24646443350881
 20
194.74123427992851
 30
0.0
 42
-0.2744102252691183
  0
VERTEX
  5
1A56
  8
0
 10
174.55257786040491
 20
196.89915482028761
 30
0.0
 42
0.2001169019235578
  0
VERTEX
  5
1A57
  8
0
 10
172.83726226092429
 20
197.22118218094511
 30
0.0
 42
0.2001169019235578
  0
SEQEND
  5
1A58
  8
0
  0
POLYLINE
  5
1A59
  8
0
 66
     1
 10
0.0
 20
0.0
 30
0.0
  0
VERTEX
  5
1A5A
  8
0
 10
173.06149776720289
 20
196.1662370664929
 30
0.0
 42
0.2223672984220246
  0
VERTEX
  5
1A5B
  8
0
 10
172.2573643459275
 20
195.5586611312329
 30
0.0
  0
VERTEX
  5
1A5C
  8
0
 10
171.3462772539053
 20
193.83450470876801
 30
0.0
 42
0.6485152997455652
  0
VERTEX
  5
1A5D
  8
0
 10
171.68113716499951
 20
193.407057537252
 30
0.0
 42
-0.0087400362380814
  0
VERTEX
  5
1A5E
  8
0
 10
173.5559658066889
 20
193.83994783975211
 30
0.0
  0
SEQEND
  5
1A5F
  8
0
  0
POLYLINE
  5
1A60
  8
0
 66
     1
 10
0.0
 20
0.0
 30
0.0
  0
VERTEX
  5
1A61
  8
0
 10
161.6245874673767
 20
192.44772741217361
 30
0.0
 42
-0.2223672984220246
  0
VERTEX
  5
1A62
  8
0
 10
162.63227643430599
 20
192.42923356865231
 30
0.0
  0
VERTEX
  5
1A63
  8
0
 10
164.38312554696199
 20
191.57055875064049
 30
0.0
 42
-0.6485152997455652
  0
VERTEX
  5
1A64
  8
0
 10
164.36367408105079
 20
191.02791348440391
 30
0.0
 42
0.0087400362380814
  0
VERTEX
  5
1A65
  8
0
 10
162.592748647213
 20
190.27545115479251
 30
0.0
  0
SEQEND
  5
1A66
  8
0
  0
POLYLINE
  5
1A67
  8
0
 66
     1
 10
0.0
 20
0.0
 30
0.0
  0
VERTEX
  5
1A68
  8
0
 10
157.46028226533451
 20
187.65784142300049
 30
0.0
 42
0.2744102252691183
  0
VERTEX
  5
1A69
  8
0
 10
159.98758926314261
 20
192.1636056820912
 30
0.0
 42
-0.2001169019235578
  0
VERTEX
  5
1A6A
  8
0
 10
161.18553763000909
 20
193.43282943586959
 30
0.0
 42
-0.2001169019235578
  0
SEQEND
  5
1A6B
  8
0
  0
POLYLINE
  5
1A6C
  8
0
 66
     1
 10
0.0
 20
0.0
 30
0.0
  0
VERTEX
  5
1A6D
  8
0
 10
167.990850413309
 20
192.34877966431
 30
0.0
 42
-0.2744102252691183
  0
VERTEX
  5
1A6E
  8
0
 10
162.95087961551431
 20
193.4836305695155
 30
0.0
 42
0.2001169019235578
  0
VERTEX
  5
1A6F
  8
0
 10
161.2060945243372
 20
193.4419866931392
 30
0.0
 42
0.2001169019235578
  0
SEQEND
  5
1A70
  8
0
  0
POLYLINE
  5
1A71
  8
0
 66
     1
 10
0.0
 20
0.0
 30
0.0
  0
VERTEX
  5
1A72
  8
0
 10
161.64476536926861
 20
192.45671584378371
 30
0.0
 42
0.2223672984220246
  0
VERTEX
  5
1A73
  8
0
 10
160.98452633257841
 20
191.69522816118501
 30
0.0
  0
VERTEX
  5
1A74
  8
0
 10
160.4518209564863
 20
189.81932303547671
 30
0.0
 42
0.6485152997455652
  0
VERTEX
  5
1A75
  8
0
 10
160.86823463927021
 20
189.47083790052051
 30
0.0
 42
-0.0087400362380814
  0
VERTEX
  5
1A76
  8
0
 10
162.61209082219429
 20
190.28406730417919
 30
0.0
  0
SEQEND
  5
1A77
  8
0
  0
POLYLINE
  5
1A78
  8
0
 66
     1
 10
0.0
 20
0.0
 30
0.0
  0
VERTEX
  5
1A79
  8
0
 10
151.2309006292376
 20
186.44159718893789
 30
0.0
 42
-0.2223672984220246
  0
VERTEX
  5
1A7A
  8
0
 10
152.2204142608017
 20
186.63301779720189
 30
0.0
  0
VERTEX
  5
1A7B
  8
0
 10
154.11153165286859
 20
186.15712908353211
 30
0.0
 42
-0.6485152997455652
  0
VERTEX
  5
1A7C
  8
0
 10
154.20532754297429
 20
185.6222977311468
 30
0.0
 42
0.0087400362380814
  0
VERTEX
  5
1A7D
  8
0
 10
152.62954679401349
 20
184.51808240753351
 30
0.0
  0
SEQEND
  5
1A7E
  8
0
  0
POLYLINE
  5
1A7F
  8
0
 66
     1
 10
0.0
 20
0.0
 30
0.0
  0
VERTEX
  5
1A80
  8
0
 10
148.1534687819701
 20
180.8905739652019
 30
0.0
 42
0.2744102252691183
  0
VERTEX
  5
1A81
  8
0
 10
149.6887469926599
 20
185.82333313583351
 30
0.0
 42
-0.2001169019235578
  0
VERTEX
  5
1A82
  8
0
 10
150.59663085683931
 20
187.3138887758538
 30
0.0
 42
-0.2001169019235578
  0
SEQEND
  5
1A83
  8
0
  0
POLYLINE
  5
1A84
  8
0
 66
     1
 10
0.0
 20
0.0
 30
0.0
  0
VERTEX
  5
1A85
  8
0
 10
157.47861784900269
 20
187.6684321800463
 30
0.0
 42
-0.2744102252691183
  0
VERTEX
  5
1A86
  8
0
 10
152.31283373484411
 20
187.73061501992211
 30
0.0
 42
0.2001169019235578
  0
VERTEX
  5
1A87
  8
0
 10
150.61483463286271
 20
187.32711994373909
 30
0.0
 42
0.2001169019235578
  0
SEQEND
  5
1A88
  8
0
  0
POLYLINE
  5
1A89
  8
0
 66
     1
 10
0.0
 20
0.0
 30
0.0
  0
VERTEX
  5
1A8A
  8
0
 10
151.24876879554719
 20
186.45458442345119
 30
0.0
 42
0.2223672984220246
  0
VERTEX
  5
1A8B
  8
0
 10
150.76127975752379
 20
185.57246565926681
 30
0.0
  0
VERTEX
  5
1A8C
  8
0
 10
150.63023787850099
 20
183.6267978859
 30
0.0
 42
0.6485152997455652
  0
VERTEX
  5
1A8D
  8
0
 10
151.1100060568624
 20
183.3725052601184
 30
0.0
 42
-0.0087400362380814
  0
VERTEX
  5
1A8E
  8
0
 10
152.64667489787701
 20
184.53053173768799
 30
0.0
  0
SEQEND
  5
1A8F
  8
0
  0
POLYLINE
  5
1A90
  8
0
 66
     1
 10
0.0
 20
0.0
 30
0.0
  0
VERTEX
  5
1A91
  8
0
 10
142.31308547571791
 20
178.40574631703731
 30
0.0
 42
-0.2223672984220246
  0
VERTEX
  5
1A92
  8
0
 10
143.2411772780041
 20
178.7987153779674
 30
0.0
  0
VERTEX
  5
1A93
  8
0
 10
145.18991204486051
 20
178.72641138899459
 30
0.0
 42
-0.6485152997455652
  0
VERTEX
  5
1A94
  8
0
 10
145.39285596050291
 20
178.22276864696531
 30
0.0
 42
0.0087400362380814
  0
VERTEX
  5
1A95
  8
0
 10
144.08108907658379
 20
176.81505983760491
 30
0.0
  0
SEQEND
  5
1A96
  8
0
  0
POLYLINE
  5
1A97
  8
0
 66
     1
 10
0.0
 20
0.0
 30
0.0
  0
VERTEX
  5
1A98
  8
0
 10
140.4570255221069
 20
172.33619221038049
 30
0.0
 42
0.2744102252691183
  0
VERTEX
  5
1A99
  8
0
 10
140.9331759207893
 20
177.4803610467917
 30
0.0
 42
-0.2001169019235578
  0
VERTEX
  5
1A9A
  8
0
 10
141.51131640090671
 20
179.12710413910551
 30
0.0
 42
-0.2001169019235578
  0
SEQEND
  5
1A9B
  8
0
  0
POLYLINE
  5
1A9C
  8
0
 66
     1
 10
0.0
 20
0.0
 30
0.0
  0
VERTEX
  5
1A9D
  8
0
 10
148.16920174693871
 20
180.9047454709989
 30
0.0
 42
-0.2744102252691183
  0
VERTEX
  5
1A9E
  8
0
 10
143.1033738703872
 20
179.891542557056
 30
0.0
 42
0.2001169019235578
  0
VERTEX
  5
1A9F
  8
0
 10
141.52637146626179
 20
179.1438309520797
 30
0.0
 42
0.2001169019235578
  0
SEQEND
  5
1AA0
  8
0
  0
POLYLINE
  5
1AA1
  8
0
 66
     1
 10
0.0
 20
0.0
 30
0.0
  0
VERTEX
  5
1AA2
  8
0
 10
142.3278629818364
 20
178.42216474998591
 30
0.0
 42
0.2223672984220246
  0
VERTEX
  5
1AA3
  8
0
 10
142.03442955267349
 20
177.4579677270861
 30
0.0
  0
VERTEX
  5
1AA4
  8
0
 10
142.31077832964201
 20
175.5275723241067
 30
0.0
 42
0.6485152997455652
  0
VERTEX
  5
1AA5
  8
0
 10
142.83293283200339
 20
175.37858601547779
 30
0.0
 42
-0.0087400362380814
  0
VERTEX
  5
1AA6
  8
0
 10
144.09525452900101
 20
176.83079825306109
 30
0.0
  0
SEQEND
  5
1AA7
  8
0
  0
POLYLINE
  5
1AA8
  8
0
 66
     1
 10
0.0
 20
0.0
 30
0.0
  0
VERTEX
  5
1AA9
  8
0
 10
135.26089332145131
 20
168.69138003986461
 30
0.0
 42
-0.2223672984220246
  0
VERTEX
  5
1AAA
  8
0
 10
136.08700122922119
 20
169.2687229198234
 30
0.0
  0
VERTEX
  5
1AAB
  8
0
 10
138.0081843104885
 20
169.60316368681859
 30
0.0
 42
-0.6485152997455652
  0
VERTEX
  5
1AAC
  8
0
 10
138.3114066287211
 20
169.152721159718
 30
0.0
 42
0.0087400362380814
  0
VERTEX
  5
1AAD
  8
0
 10
137.3209841172266
 20
167.503042494516
 30
0.0
  0
SEQEND
  5
1AAE
  8
0
  0
POLYLINE
  5
1AAF
  8
0
 66
     1
 10
0.0
 20
0.0
 30
0.0
  0
VERTEX
  5
1AB0
  8
0
 10
134.70732398783349
 20
162.3685636896999
 30
0.0
 42
0.2744102252691183
  0
VERTEX
  5
1AB1
  8
0
 10
134.1035365172628
 20
167.49931732927871
 30
0.0
 42
-0.2001169019235578
  0
VERTEX
  5
1AB2
  8
0
 10
134.32666610011131
 20
169.2302772988017
 30
0.0
 42
-0.2001169019235578
  0
SEQEND
  5
1AB3
  8
0
  0
POLYLINE
  5
1AB4
  8
0
 66
     1
 10
0.0
 20
0.0
 30
0.0
  0
VERTEX
  5
1AB5
  8
0
 10
140.46946826231181
 20
172.3533251021228
 30
0.0
 42
-0.2744102252691183
  0
VERTEX
  5
1AB6
  8
0
 10
135.72499761011181
 20
170.30901826358749
 30
0.0
 42
0.2001169019235578
  0
VERTEX
  5
1AB7
  8
0
 10
134.33791447619981
 20
169.24976871487371
 30
0.0
 42
0.2001169019235578
  0
SEQEND
  5
1AB8
  8
0
  0
POLYLINE
  5
1AB9
  8
0
 66
     1
 10
0.0
 20
0.0
 30
0.0
  0
VERTEX
  5
1ABA
  8
0
 10
135.27193431945099
 20
168.71051210694429
 30
0.0
 42
0.2223672984220246
  0
VERTEX
  5
1ABB
  8
0
 10
135.18538094805271
 20
167.70637686196039
 30
0.0
  0
VERTEX
  5
1ABC
  8
0
 10
135.85704261339049
 20
165.8756213715435
 30
0.0
 42
0.6485152997455652
  0
VERTEX
  5
1ABD
  8
0
 10
136.39876278242329
 20
165.83845279667
 30
0.0
 42
-0.0087400362380814
  0
VERTEX
  5
1ABE
  8
0
 10
137.33156781995359
 20
167.52138215099711
 30
0.0
  0
SEQEND
  5
1ABF
  8
0
  0
POLYLINE
  5
1AC0
  8
0
 66
     1
 10
0.0
 20
0.0
 30
0.0
  0
VERTEX
  5
1AC1
  8
0
 10
130.3825388037516
 20
157.7230627784333
 30
0.0
 42
-0.2223672984220246
  0
VERTEX
  5
1AC2
  8
0
 10
131.07055793733011
 20
158.45954682316821
 30
0.0
  0
VERTEX
  5
1AC3
  8
0
 10
132.88022441349781
 20
159.18611567978891
 30
0.0
 42
-0.6485152997455652
  0
VERTEX
  5
1AC4
  8
0
 10
133.27047286399161
 20
158.80855986751439
 30
0.0
 42
0.0087400362380814
  0
VERTEX
  5
1AC5
  8
0
 10
132.64468094124871
 20
156.98901022017651
 30
0.0
  0
SEQEND
  5
1AC6
  8
0
  0
POLYLINE
  5
1AC7
  8
0
 66
     1
 10
0.0
 20
0.0
 30
0.0
  0
VERTEX
  5
1AC8
  8
0
 10
131.15565372632639
 20
151.42332159950189
 30
0.0
 42
0.2744102252691183
  0
VERTEX
  5
1AC9
  8
0
 10
129.49831679626041
 20
156.31642148811119
 30
0.0
 42
-0.2001169019235578
  0
VERTEX
  5
1ACA
  8
0
 10
129.356683648375
 20
158.05594707810801
 30
0.0
 42
-0.2001169019235578
  0
SEQEND
  5
1ACB
  8
0
  0
POLYLINE
  5
1ACC
  8
0
 66
     1
 10
0.0
 20
0.0
 30
0.0
  0
VERTEX
  5
1ACD
  8
0
 10
134.7159326958207
 20
162.3879091778056
 30
0.0
 42
-0.2744102252691183
  0
VERTEX
  5
1ACE
  8
0
 10
130.5001754019695
 20
159.40184443319441
 30
0.0
 42
0.2001169019235578
  0
VERTEX
  5
1ACF
  8
0
 10
129.3636337271862
 20
158.0773512288653
 30
0.0
 42
0.2001169019235578
  0
SEQEND
  5
1AD0
  8
0
  0
POLYLINE
  5
1AD1
  8
0
 66
     1
 10
0.0
 20
0.0
 30
0.0
  0
VERTEX
  5
1AD2
  8
0
 10
130.38936074903941
 20
157.74407231650679
 30
0.0
 42
0.2223672984220246
  0
VERTEX
  5
1AD3
  8
0
 10
130.51347023306491
 20
156.7438843780202
 30
0.0
  0
VERTEX
  5
1AD4
  8
0
 10
131.5510899490065
 20
155.09278160003649
 30
0.0
 42
0.6485152997455652
  0
VERTEX
  5
1AD5
  8
0
 10
132.08870001386231
 20
155.16905520399499
 30
0.0
 42
-0.0087400362380814
  0
VERTEX
  5
1AD6
  8
0
 10
132.65122033568991
 20
157.0091495866908
 30
0.0
  0
SEQEND
  5
1AD7
  8
0
  0
POLYLINE
  5
1AD8
  8
0
 66
     1
 10
0.0
 20
0.0
 30
0.0
  0
VERTEX
  5
1AD9
  8
0
 10
127.8912294239845
 20
145.98016262889379
 30
0.0
 42
-0.2223672984220246
  0
VERTEX
  5
1ADA
  8
0
 10
128.41109004575219
 20
146.84359995160719
 30
0.0
  0
VERTEX
  5
1ADB
  8
0
 10
130.03014880806839
 20
147.93054235235491
 30
0.0
 42
-0.6485152997455652
  0
VERTEX
  5
1ADC
  8
0
 10
130.49036766091709
 20
147.64237425561669
 30
0.0
 42
0.0087400362380814
  0
VERTEX
  5
1ADD
  8
0
 10
130.2565564368324
 20
145.73247667689949
 30
0.0
  0
SEQEND
  5
1ADE
  8
0
  0
POLYLINE
  5
1ADF
  8
0
 66
     1
 10
0.0
 20
0.0
 30
0.0
  0
VERTEX
  5
1AE0
  8
0
 10
129.95723977081849
 20
139.97882554022709
 30
0.0
 42
0.2744102252691183
  0
VERTEX
  5
1AE1
  8
0
 10
127.31878695788591
 20
144.4204197330364
 30
0.0
 42
-0.2001169019235578
  0
VERTEX
  5
1AE2
  8
0
 10
126.8185811274604
 20
146.09248532805401
 30
0.0
 42
-0.2001169019235578
  0
SEQEND
  5
1AE3
  8
0
  0
POLYLINE
  5
1AE4
  8
0
 66
     1
 10
0.0
 20
0.0
 30
0.0
  0
VERTEX
  5
1AE5
  8
0
 10
131.1600521602478
 20
151.4440341933109
 30
0.0
 42
-0.2744102252691183
  0
VERTEX
  5
1AE6
  8
0
 10
127.65725704793461
 20
147.64671690069181
 30
0.0
 42
0.2001169019235578
  0
VERTEX
  5
1AE7
  8
0
 10
126.8209291572
 20
146.11486674939999
 30
0.0
 42
0.2001169019235578
  0
SEQEND
  5
1AE8
  8
0
  0
POLYLINE
  5
1AE9
  8
0
 66
     1
 10
0.0
 20
0.0
 30
0.0
  0
VERTEX
  5
1AEA
  8
0
 10
127.8935341648159
 20
146.0021314203324
 30
0.0
 42
0.2223672984220246
  0
VERTEX
  5
1AEB
  8
0
 10
128.2228823242701
 20
145.04960380068911
 30
0.0
  0
VERTEX
  5
1AEC
  8
0
 10
129.58111113017691
 20
143.65031484940661
 30
0.0
 42
0.6485152997455652
  0
VERTEX
  5
1AED
  8
0
 10
130.09111495128221
 20
143.83669710970281
 30
0.0
 42
-0.0087400362380814
  0
VERTEX
  5
1AEE
  8
0
 10
130.25876572007141
 20
145.753535566491
 30
0.0
  0
SEQEND
  5
1AEF
  8
0
  0
TEXT
  5
1AF0
  8
0
 10
234.3256070518153
 20
151.12164682078031
 30
0.0
 40
3.4691629955947132
  1
R
 50
281.39577663450859
  7
ISO8
 72
     1
 11
234.55409200399089
 21
149.98805648081969
 31
0.0
  0
TEXT
  5
1AF1
  8
0
 10
234.80277172833161
 20
148.74016402660499
 30
0.0
 40
3.4691629955947132
  1
O
 50
278.64333232456642
  7
ISO8
 72
     1
 11
234.97655723860859
 21
147.5969094492512
 31
0.0
  0
TEXT
  5
1AF2
  8
0
 10
235.1650253509458
 20
146.33851485564551
 30
0.0
 40
3.4691629955947132
  1
L
 50
275.89088801462418
  7
ISO8
 72
     1
 11
235.2837104401126
 21
145.1882338978651
 31
0.0
  0
TEXT
  5
1AF3
  8
0
 10
235.4115320837372
 20
143.92224068698081
 30
0.0
 40
3.4691629955947132
  1
L
 50
273.138443704682
  7
ISO8
 72
     1
 11
235.4748429070217
 21
142.76758741786591
 31
0.0
  0
TEXT
  5
1AF4
  8
0
 10
235.5417231561841
 20
141.4969166442759
 30
0.0
 40
3.4691629955947132
  1
-
 50
270.38599939473983
  7
ISO8
 72
     1
 11
235.54951363510159
 21
140.34055522125061
 31
0.0
  0
TEXT
  5
1AF5
  8
0
 10
235.55529817550081
 20
139.06813873217311
 30
0.0
 40
3.4691629955947132
  1
R
 50
267.63355508479759
  7
ISO8
 72
     1
 11
235.50755033490429
 21
137.91273725392369
 31
0.0
  0
TEXT
  5
1AF6
  8
0
 10
235.40063782451739
 20
136.0656230996606
 30
0.0
 40
3.4691629955947132
  1
I
 50
264.88111077485547
  7
ISO8
 72
     1
 11
235.34904982929481
 21
135.48973527481581
 31
0.0
  0
TEXT
  5
1AF7
  8
0
 10
235.2327439100639
 20
134.22263223412179
 30
0.0
 40
3.4691629955947132
  1
N
 50
262.12866646491329
  7
ISO8
 72
     1
 11
235.07437783005
 21
133.07713993082001
 31
0.0
  0
TEXT
  5
1AF8
  8
0
 10
234.8973588620124
 20
131.81708379415821
 30
0.0
 40
3.4691629955947132
  1
G
 50
259.376222154971
  7
ISO8
 72
     1
 11
234.6841680940436
 21
130.6805178573664
 31
0.0
  0
CIRCLE
  5
1AF9
  8
0
 10
185.0
 20
139.99999999999989
 30
0.0
 40
49.0
  0
CIRCLE
  5
1AFA
  8
1
 10
185.0
 20
139.99999999999989
 30
0.0
 40
60.75
  0
LINE
  5
1AFB
  8
1
 10
250.75
 20
139.99999999999989
 30
0.0
 11
119.25
 21
140.0
 31
0.0
  0
LINE
  5
1AFC
  8
1
 10
185.0
 20
205.75
 30
0.0
 11
185.0
 21
74.249999999999972
 31
0.0
  0
TEXT
  5
1C8D
  8
0
 62
     3
 10
0.0
 20
0.0
 30
0.0
 40
10.0
  1
908-430-01
  7
STANDARD1
  0
ENDSEC
  0
EOF
