  0
SECTION
  2
HEADER
  9
$ACADVER
  1
AC1009
  9
$INSBASE
 10
0.0
 20
0.0
 30
0.0
  9
$EXTMIN
 10
0.0
 20
-2.960436562073669
 30
0.0
  9
$EXTMAX
 10
374.00000092387211
 20
134.00000184774399
 30
0.0
  9
$LIMMIN
 10
0.0
 20
0.0
  9
$LIMMAX
 10
275.0
 20
175.0
  9
$ORTHOMODE
 70
     1
  9
$REGENMODE
 70
     1
  9
$FILLMODE
 70
     1
  9
$QTEXTMODE
 70
     0
  9
$MIRRTEXT
 70
     0
  9
$DRAGMODE
 70
     2
  9
$LTSCALE
 40
5.0
  9
$OSMODE
 70
    37
  9
$ATTMODE
 70
     1
  9
$TEXTSIZE
 40
0.2
  9
$TRACEWID
 40
0.05
  9
$TEXTSTYLE
  7
STANDARD
  9
$CLAYER
  8
0
  9
$CELTYPE
  6
BYLAYER
  9
$CECOLOR
 62
   256
  9
$DIMSCALE
 40
1.0
  9
$DIMASZ
 40
3.0
  9
$DIMEXO
 40
1.0
  9
$DIMDLI
 40
6.0
  9
$DIMRND
 40
0.0
  9
$DIMDLE
 40
0.0
  9
$DIMEXE
 40
1.0
  9
$DIMTP
 40
495.0
  9
$DIMTM
 40
0.0
  9
$DIMTXT
 40
3.0
  9
$DIMCEN
 40
0.0
  9
$DIMTSZ
 40
0.0
  9
$DIMTOL
 70
     0
  9
$DIMLIM
 70
     0
  9
$DIMTIH
 70
     0
  9
$DIMTOH
 70
     0
  9
$DIMSE1
 70
     0
  9
$DIMSE2
 70
     0
  9
$DIMTAD
 70
     1
  9
$DIMZIN
 70
     8
  9
$DIMBLK
  1

  9
$DIMASO
 70
     0
  9
$DIMSHO
 70
     0
  9
$DIMPOST
  1

  9
$DIMAPOST
  1

  9
$DIMALT
 70
     0
  9
$DIMALTD
 70
     2
  9
$DIMALTF
 40
25.399999999999999
  9
$DIMLFAC
 40
1.0
  9
$DIMTOFL
 70
     1
  9
$DIMTVP
 40
0.0
  9
$DIMTIX
 70
     1
  9
$DIMSOXD
 70
     0
  9
$DIMSAH
 70
     0
  9
$DIMBLK1
  1

  9
$DIMBLK2
  1

  9
$DIMSTYLE
  2
STANDARD
  9
$DIMCLRD
 70
     0
  9
$DIMCLRE
 70
     0
  9
$DIMCLRT
 70
     0
  9
$DIMTFAC
 40
1.0
  9
$DIMGAP
 40
1.0
  9
$LUNITS
 70
     2
  9
$LUPREC
 70
     1
  9
$SKETCHINC
 40
0.1
  9
$FILLETRAD
 40
0.0
  9
$AUNITS
 70
     0
  9
$AUPREC
 70
     0
  9
$MENU
  1
E:\r13\win\SUPPORT\ACAD
  9
$ELEVATION
 40
0.0
  9
$PELEVATION
 40
0.0
  9
$THICKNESS
 40
0.0
  9
$LIMCHECK
 70
     0
  9
$BLIPMODE
 70
     0
  9
$CHAMFERA
 40
0.0
  9
$CHAMFERB
 40
0.0
  9
$SKPOLY
 70
     0
  9
$TDCREATE
 40
2450653.5278402781
  9
$TDUPDATE
 40
2459439.6129423962
  9
$TDINDWG
 40
0.3157693866
  9
$TDUSRTIMER
 40
0.3157693866
  9
$USRTIMER
 70
     1
  9
$ANGBASE
 50
0.0
  9
$ANGDIR
 70
     0
  9
$PDMODE
 70
     0
  9
$PDSIZE
 40
0.0
  9
$PLINEWID
 40
0.0
  9
$COORDS
 70
     1
  9
$SPLFRAME
 70
     0
  9
$SPLINETYPE
 70
     6
  9
$SPLINESEGS
 70
     8
  9
$ATTDIA
 70
     0
  9
$ATTREQ
 70
     1
  9
$HANDLING
 70
     1
  9
$HANDSEED
  5
5DCC
  9
$SURFTAB1
 70
     6
  9
$SURFTAB2
 70
     6
  9
$SURFTYPE
 70
     6
  9
$SURFU
 70
     6
  9
$SURFV
 70
     6
  9
$UCSNAME
  2

  9
$UCSORG
 10
0.0
 20
0.0
 30
0.0
  9
$UCSXDIR
 10
1.0
 20
0.0
 30
0.0
  9
$UCSYDIR
 10
0.0
 20
1.0
 30
0.0
  9
$PUCSNAME
  2

  9
$PUCSORG
 10
0.0
 20
0.0
 30
0.0
  9
$PUCSXDIR
 10
1.0
 20
0.0
 30
0.0
  9
$PUCSYDIR
 10
0.0
 20
1.0
 30
0.0
  9
$USERI1
 70
     4
  9
$USERI2
 70
     1
  9
$USERI3
 70
     1
  9
$USERI4
 70
     0
  9
$USERI5
 70
     0
  9
$USERR1
 40
1.0
  9
$USERR2
 40
3.0
  9
$USERR3
 40
3.0
  9
$USERR4
 40
3.0
  9
$USERR5
 40
10.0
  9
$WORLDVIEW
 70
     1
  9
$SHADEDGE
 70
     3
  9
$SHADEDIF
 70
    70
  9
$TILEMODE
 70
     1
  9
$MAXACTVP
 70
    16
  9
$PLIMCHECK
 70
     0
  9
$PEXTMIN
 10
1.0000000000000000E+020
 20
1.0000000000000000E+020
 30
1.0000000000000000E+020
  9
$PEXTMAX
 10
-1.0000000000000000E+020
 20
-1.0000000000000000E+020
 30
-1.0000000000000000E+020
  9
$PLIMMIN
 10
0.0
 20
0.0
  9
$PLIMMAX
 10
12.0
 20
9.0
  9
$UNITMODE
 70
     0
  9
$VISRETAIN
 70
     0
  9
$PLINEGEN
 70
     0
  9
$PSLTSCALE
 70
     0
  0
ENDSEC
  0
SECTION
  2
TABLES
  0
TABLE
  2
VPORT
 70
     1
  0
VPORT
  2
*ACTIVE
 70
     0
 10
0.0
 20
0.0
 11
1.0
 21
1.0
 12
390.29363784665583
 22
150.0
 13
0.0
 23
0.0
 14
5.0
 24
5.0
 15
10.0
 25
10.0
 16
0.0
 26
0.0
 36
1.0
 17
0.0
 27
0.0
 37
0.0
 40
300.0
 41
2.6019575856443709
 42
50.0
 43
0.0
 44
0.0
 50
0.0
 51
0.0
 71
     0
 72
   100
 73
     1
 74
     0
 75
     0
 76
     0
 77
     0
 78
     0
  0
ENDTAB
  0
TABLE
  2
LTYPE
 70
     3
  0
LTYPE
  2
CONTINUOUS
 70
     0
  3
Solid Line
 72
    65
 73
     0
 40
0.0
  0
LTYPE
  2
CENTER
 70
     0
  3
____ _ ____ _ ____ _ ____ _ ____ _ ____ _ ____ 
 72
    65
 73
     4
 40
2.0
 49
1.25
 49
-0.25
 49
0.25
 49
-0.25
  0
LTYPE
  2
PHANTOM2
 70
     0
  3
___ _ _ ___ _ _ ___ _ _ ___ _ _
 72
    65
 73
     6
 40
1.25
 49
0.625
 49
-0.125
 49
0.125
 49
-0.125
 49
0.125
 49
-0.125
  0
ENDTAB
  0
TABLE
  2
LAYER
 70
     4
  0
LAYER
  2
0
 70
     0
 62
     7
  6
CONTINUOUS
  0
LAYER
  2
1
 70
     0
 62
     1
  6
CENTER
  0
LAYER
  2
DEFPOINTS
 70
     0
 62
     7
  6
CONTINUOUS
  0
LAYER
  2
3
 70
     0
 62
     3
  6
CONTINUOUS
  0
ENDTAB
  0
TABLE
  2
STYLE
 70
     2
  0
STYLE
  2
STANDARD
 70
     0
 40
0.0
 41
1.0
 50
0.0
 71
     0
 42
0.2
  3
simplex
  4
bigfont
  0
STYLE
  2
STANDARD1
 70
     0
 40
0.0
 41
1.0
 50
0.0
 71
     0
 42
3.0
  3
txt
  4

  0
ENDTAB
  0
TABLE
  2
VIEW
 70
     0
  0
ENDTAB
  0
TABLE
  2
UCS
 70
     0
  0
ENDTAB
  0
TABLE
  2
APPID
 70
     9
  0
APPID
  2
ACAD
 70
     0
  0
APPID
  2
_CALL_MAC$
 70
     0
  0
APPID
  2
ACAD_MLEADERVER
 70
     0
  0
APPID
  2
ACAD_EXEMPT_FROM_CAD_STANDARDS
 70
     0
  0
APPID
  2
ACAD_NAV_VCDISPLAY
 70
     0
  0
APPID
  2
ACAD_DSTYLE_DIMJAG
 70
     0
  0
APPID
  2
ACAD_DSTYLE_DIMTALN
 70
     0
  0
APPID
  2
ACAECLAYERSTANDARD
 70
     0
  0
APPID
  2
ACCMTRANSPARENCY
 70
     0
  0
ENDTAB
  0
TABLE
  2
DIMSTYLE
 70
     1
  0
DIMSTYLE
  2
STANDARD
 70
     0
  3

  4

  5

  6

  7

 40
1.0
 41
0.18
 42
0.0625
 43
0.38
 44
0.18
 45
0.0
 46
0.0
 47
0.0
 48
0.0
140
0.18
141
0.09
142
0.0
143
25.399999999999999
144
1.0
145
0.0
146
1.0
147
0.09
 71
     0
 72
     0
 73
     1
 74
     1
 75
     0
 76
     0
 77
     0
 78
     0
170
     0
171
     2
172
     0
173
     0
174
     0
175
     0
176
     0
177
     0
178
     0
  0
ENDTAB
  0
ENDSEC
  0
SECTION
  2
BLOCKS
  0
BLOCK
  8
0
  2
$MODEL_SPACE
 70
     2
 10
0.0
 20
0.0
 30
0.0
  3
$MODEL_SPACE
  1

  0
ENDBLK
  5
7
  8
0
  0
BLOCK
 67
     1
  8
0
  2
$PAPER_SPACE
 70
     0
 10
0.0
 20
0.0
 30
0.0
  3
$PAPER_SPACE
  1

  0
ENDBLK
  5
A
 67
     1
  8
0
  0
ENDSEC
  0
SECTION
  2
ENTITIES
  0
TEXT
  5
2BF
  8
0
 62
     3
 10
0.0
 20
0.0
 30
0.0
 40
10.0
  1
ZCR-A-1.5-250
  7
STANDARD1
  0
LINE
  5
4F62
  8
0
 10
304.00000000000011
 20
50.0
 30
0.0
 11
304.00000000000023
 21
63.625000923872001
 31
0.0
  0
LINE
  5
4F63
  8
0
 10
50.0
 20
50.0
 30
0.0
 11
304.00000000000011
 21
50.0
 31
0.0
  0
LINE
  5
4F64
  8
0
 10
50.295002520084381
 20
63.625000923871987
 30
0.0
 11
50.0
 21
63.625000923872001
 31
0.0
  0
LINE
  5
4F65
  8
0
 10
50.0
 20
63.625000923872001
 30
0.0
 11
50.0
 21
50.0
 31
0.0
  0
LINE
  5
5180
  8
0
 10
50.0
 20
117.00000092387199
 30
0.0
 11
50.0
 21
134.00000184774399
 31
0.0
  0
LINE
  5
519F
  8
0
 10
304.00000000000011
 20
117.00000092387199
 30
0.0
 11
304.00000000000011
 21
134.00000184774399
 31
0.0
  0
LINE
  5
51A0
  8
0
 10
304.00000000000011
 20
117.00000092387199
 30
0.0
 11
50.000000000000107
 21
117.00000092387199
 31
0.0
  0
LINE
  5
51A1
  8
0
 10
304.00000000000011
 20
134.00000184774399
 30
0.0
 11
50.000000000000107
 21
134.00000184774399
 31
0.0
  0
LINE
  5
51F9
  8
0
 10
354.00000000000011
 20
49.999999999999972
 30
0.0
 11
354.00000000000011
 21
67.000000923871994
 31
0.0
  0
LINE
  5
51FA
  8
0
 10
371.00000092387211
 20
49.999999999999972
 30
0.0
 11
371.00000092387211
 21
67.000000923871994
 31
0.0
  0
LINE
  5
51FB
  8
0
 10
358.50000027194631
 20
54.499999806284869
 30
0.0
 11
366.50000065192592
 21
54.499999806284869
 31
0.0
  0
LINE
  5
51FC
  8
0
 10
366.50000065192592
 20
62.500000186264479
 30
0.0
 11
358.50000027194631
 21
62.500000186264479
 31
0.0
  0
LINE
  5
51FD
  8
0
 10
358.50000027194631
 20
62.500000186264479
 30
0.0
 11
358.50000027194631
 21
54.499999806284869
 31
0.0
  0
LINE
  5
51FE
  8
0
 10
354.00000000000011
 20
49.999999999999972
 30
0.0
 11
371.00000092387211
 21
49.999999999999972
 31
0.0
  0
LINE
  5
51FF
  8
0
 10
354.00000000000011
 20
63.625000923871987
 30
0.0
 11
371.00000092387211
 21
63.625000923871987
 31
0.0
  0
LINE
  5
5200
  8
0
 10
366.50000065192592
 20
54.499999806284869
 30
0.0
 11
366.50000065192592
 21
62.500000186264479
 31
0.0
  0
LINE
  5
5205
  8
0
 10
354.00000000000011
 20
67.000000923871966
 30
0.0
 11
371.00000092387211
 21
67.000000923871966
 31
0.0
  0
LINE
  5
527D
  8
1
 10
362.50000046193611
 20
72.000000923871966
 30
0.0
 11
362.50000046193611
 21
44.999999999999972
 31
0.0
  0
LINE
  5
527E
  8
1
 10
309.00000000000011
 20
125.50000138580801
 30
0.0
 11
45.0
 21
125.50000138580801
 31
0.0
  0
LINE
  5
527F
  8
1
 10
47.295002520084367
 20
65.500000923871994
 30
0.0
 11
305.12499856948858
 21
65.500000923871994
 31
0.0
  0
LINE
  5
528B
  8
1
 10
351.00000000000011
 20
65.500000923871966
 30
0.0
 11
374.00000092387211
 21
65.500000923871966
 31
0.0
  0
LINE
  5
53A3
  8
0
 10
52.787491357934101
 20
67.000000923871994
 30
0.0
 11
51.523402060732373
 21
67.000000923871994
 31
0.0
  0
LINE
  5
53A4
  8
0
 10
57.49949135793409
 20
67.000000923871994
 30
0.0
 11
56.235402060732362
 21
67.000000923871994
 31
0.0
  0
LINE
  5
53A5
  8
0
 10
62.211491357934079
 20
67.000000923871994
 30
0.0
 11
60.947402060732337
 21
67.000000923871994
 31
0.0
  0
LINE
  5
53A6
  8
0
 10
66.923491357934054
 20
67.000000923871994
 30
0.0
 11
65.659402060732333
 21
67.000000923871994
 31
0.0
  0
LINE
  5
53A7
  8
0
 10
52.787491357934101
 20
67.000000923871994
 30
0.0
 11
54.01589089858259
 21
63.625000923871987
 31
0.0
  0
LINE
  5
53A8
  8
0
 10
50.295002520084381
 20
63.625000923871987
 30
0.0
 11
51.523402060732373
 21
67.000000923871994
 31
0.0
  0
LINE
  5
53A9
  8
0
 10
66.923491357934054
 20
67.000000923871994
 30
0.0
 11
68.151890898582565
 21
63.625000923871987
 31
0.0
  0
LINE
  5
53AA
  8
0
 10
64.431002520084334
 20
63.625000923871987
 30
0.0
 11
65.659402060732333
 21
67.000000923871994
 31
0.0
  0
LINE
  5
53AB
  8
0
 10
62.211491357934079
 20
67.000000923871994
 30
0.0
 11
63.439890898582583
 21
63.625000923871987
 31
0.0
  0
LINE
  5
53AC
  8
0
 10
59.719002520084359
 20
63.625000923871987
 30
0.0
 11
60.947402060732337
 21
67.000000923871994
 31
0.0
  0
LINE
  5
53AD
  8
0
 10
57.49949135793409
 20
67.000000923871994
 30
0.0
 11
58.727890898582579
 21
63.625000923871987
 31
0.0
  0
LINE
  5
53AE
  8
0
 10
55.00700252008437
 20
63.625000923871987
 30
0.0
 11
56.235402060732362
 21
67.000000923871994
 31
0.0
  0
LINE
  5
53B0
  8
0
 10
64.431002520084334
 20
63.625000923871987
 30
0.0
 11
63.439890898582583
 21
63.625000923871987
 31
0.0
  0
LINE
  5
53B1
  8
0
 10
59.719002520084359
 20
63.625000923871987
 30
0.0
 11
58.727890898582579
 21
63.625000923871987
 31
0.0
  0
LINE
  5
53B2
  8
0
 10
55.00700252008437
 20
63.625000923871987
 30
0.0
 11
54.01589089858259
 21
63.625000923871987
 31
0.0
  0
LINE
  5
53B3
  8
0
 10
71.635491357934058
 20
67.000000923871994
 30
0.0
 11
70.371402060732322
 21
67.000000923871994
 31
0.0
  0
LINE
  5
53B4
  8
0
 10
76.347491357934047
 20
67.000000923871994
 30
0.0
 11
75.083402060732311
 21
67.000000923871994
 31
0.0
  0
LINE
  5
53B5
  8
0
 10
81.059491357934036
 20
67.000000923871994
 30
0.0
 11
79.7954020607323
 21
67.000000923871994
 31
0.0
  0
LINE
  5
53B6
  8
0
 10
81.059491357934036
 20
67.000000923871994
 30
0.0
 11
82.287890898582532
 21
63.625000923871987
 31
0.0
  0
LINE
  5
53B7
  8
0
 10
78.567002520084316
 20
63.625000923871987
 30
0.0
 11
79.7954020607323
 21
67.000000923871994
 31
0.0
  0
LINE
  5
53B8
  8
0
 10
76.347491357934047
 20
67.000000923871994
 30
0.0
 11
77.575890898582543
 21
63.625000923871987
 31
0.0
  0
LINE
  5
53B9
  8
0
 10
73.855002520084327
 20
63.625000923871987
 30
0.0
 11
75.083402060732311
 21
67.000000923871994
 31
0.0
  0
LINE
  5
53BA
  8
0
 10
71.635491357934058
 20
67.000000923871994
 30
0.0
 11
72.863890898582554
 21
63.625000923871987
 31
0.0
  0
LINE
  5
53BB
  8
0
 10
69.143002520084337
 20
63.625000923871987
 30
0.0
 11
70.371402060732322
 21
67.000000923871994
 31
0.0
  0
LINE
  5
53BC
  8
0
 10
78.567002520084316
 20
63.625000923871987
 30
0.0
 11
77.575890898582543
 21
63.625000923871987
 31
0.0
  0
LINE
  5
53BD
  8
0
 10
73.855002520084327
 20
63.625000923871987
 30
0.0
 11
72.863890898582554
 21
63.625000923871987
 31
0.0
  0
LINE
  5
53BE
  8
0
 10
69.143002520084337
 20
63.625000923871987
 30
0.0
 11
68.151890898582565
 21
63.625000923871987
 31
0.0
  0
LINE
  5
53BF
  8
0
 10
85.771491357934025
 20
67.000000923871994
 30
0.0
 11
84.507402060732289
 21
67.000000923871994
 31
0.0
  0
LINE
  5
53C0
  8
0
 10
90.483491357934014
 20
67.000000923871994
 30
0.0
 11
89.219402060732278
 21
67.000000923871994
 31
0.0
  0
LINE
  5
53C1
  8
0
 10
95.195491357934003
 20
67.000000923871994
 30
0.0
 11
93.931402060732253
 21
67.000000923871994
 31
0.0
  0
LINE
  5
53C2
  8
0
 10
95.195491357934003
 20
67.000000923871994
 30
0.0
 11
96.423890898582499
 21
63.625000923871987
 31
0.0
  0
LINE
  5
53C3
  8
0
 10
92.703002520084283
 20
63.625000923871987
 30
0.0
 11
93.931402060732253
 21
67.000000923871994
 31
0.0
  0
LINE
  5
53C4
  8
0
 10
90.483491357934014
 20
67.000000923871994
 30
0.0
 11
91.711890898582496
 21
63.625000923871987
 31
0.0
  0
LINE
  5
53C5
  8
0
 10
87.991002520084294
 20
63.625000923871987
 30
0.0
 11
89.219402060732278
 21
67.000000923871994
 31
0.0
  0
LINE
  5
53C6
  8
0
 10
85.771491357934025
 20
67.000000923871994
 30
0.0
 11
86.999890898582521
 21
63.625000923871987
 31
0.0
  0
LINE
  5
53C7
  8
0
 10
83.279002520084305
 20
63.625000923871987
 30
0.0
 11
84.507402060732289
 21
67.000000923871994
 31
0.0
  0
LINE
  5
53C8
  8
0
 10
92.703002520084283
 20
63.625000923871987
 30
0.0
 11
91.711890898582496
 21
63.625000923871987
 31
0.0
  0
LINE
  5
53C9
  8
0
 10
87.991002520084294
 20
63.625000923871987
 30
0.0
 11
86.999890898582521
 21
63.625000923871987
 31
0.0
  0
LINE
  5
53CA
  8
0
 10
83.279002520084305
 20
63.625000923871987
 30
0.0
 11
82.287890898582532
 21
63.625000923871987
 31
0.0
  0
LINE
  5
53CB
  8
0
 10
99.907491357934006
 20
67.000000923871994
 30
0.0
 11
98.643402060732257
 21
67.000000923871994
 31
0.0
  0
LINE
  5
53CC
  8
0
 10
104.619491357934
 20
67.000000923871994
 30
0.0
 11
103.3554020607322
 21
67.000000923871994
 31
0.0
  0
LINE
  5
53CD
  8
0
 10
109.3314913579339
 20
67.000000923871994
 30
0.0
 11
108.06740206073221
 21
67.000000923871994
 31
0.0
  0
LINE
  5
53CE
  8
0
 10
109.3314913579339
 20
67.000000923871994
 30
0.0
 11
110.5598908985824
 21
63.625000923871987
 31
0.0
  0
LINE
  5
53CF
  8
0
 10
106.83900252008419
 20
63.625000923871987
 30
0.0
 11
108.06740206073221
 21
67.000000923871994
 31
0.0
  0
LINE
  5
53D0
  8
0
 10
104.619491357934
 20
67.000000923871994
 30
0.0
 11
105.84789089858251
 21
63.625000923871987
 31
0.0
  0
LINE
  5
53D1
  8
0
 10
102.1270025200842
 20
63.625000923871987
 30
0.0
 11
103.3554020607322
 21
67.000000923871994
 31
0.0
  0
LINE
  5
53D2
  8
0
 10
99.907491357934006
 20
67.000000923871994
 30
0.0
 11
101.1358908985825
 21
63.625000923871987
 31
0.0
  0
LINE
  5
53D3
  8
0
 10
97.415002520084286
 20
63.625000923871987
 30
0.0
 11
98.643402060732257
 21
67.000000923871994
 31
0.0
  0
LINE
  5
53D4
  8
0
 10
106.83900252008419
 20
63.625000923871987
 30
0.0
 11
105.84789089858251
 21
63.625000923871987
 31
0.0
  0
LINE
  5
53D5
  8
0
 10
102.1270025200842
 20
63.625000923871987
 30
0.0
 11
101.1358908985825
 21
63.625000923871987
 31
0.0
  0
LINE
  5
53D6
  8
0
 10
97.415002520084286
 20
63.625000923871987
 30
0.0
 11
96.423890898582499
 21
63.625000923871987
 31
0.0
  0
LINE
  5
53D7
  8
0
 10
114.0434913579339
 20
67.000000923871994
 30
0.0
 11
112.7794020607322
 21
67.000000923871994
 31
0.0
  0
LINE
  5
53D8
  8
0
 10
118.75549135793391
 20
67.000000923871994
 30
0.0
 11
117.4914020607322
 21
67.000000923871994
 31
0.0
  0
LINE
  5
53D9
  8
0
 10
123.46749135793389
 20
67.000000923871994
 30
0.0
 11
122.2034020607322
 21
67.000000923871994
 31
0.0
  0
LINE
  5
53DA
  8
0
 10
123.46749135793389
 20
67.000000923871994
 30
0.0
 11
124.69589089858241
 21
63.625000923871987
 31
0.0
  0
LINE
  5
53DB
  8
0
 10
120.9750025200842
 20
63.625000923871987
 30
0.0
 11
122.2034020607322
 21
67.000000923871994
 31
0.0
  0
LINE
  5
53DC
  8
0
 10
118.75549135793391
 20
67.000000923871994
 30
0.0
 11
119.9838908985824
 21
63.625000923871987
 31
0.0
  0
LINE
  5
53DD
  8
0
 10
116.2630025200842
 20
63.625000923871987
 30
0.0
 11
117.4914020607322
 21
67.000000923871994
 31
0.0
  0
LINE
  5
53DE
  8
0
 10
114.0434913579339
 20
67.000000923871994
 30
0.0
 11
115.2718908985824
 21
63.625000923871987
 31
0.0
  0
LINE
  5
53DF
  8
0
 10
111.5510025200842
 20
63.625000923871987
 30
0.0
 11
112.7794020607322
 21
67.000000923871994
 31
0.0
  0
LINE
  5
53E0
  8
0
 10
120.9750025200842
 20
63.625000923871987
 30
0.0
 11
119.9838908985824
 21
63.625000923871987
 31
0.0
  0
LINE
  5
53E1
  8
0
 10
116.2630025200842
 20
63.625000923871987
 30
0.0
 11
115.2718908985824
 21
63.625000923871987
 31
0.0
  0
LINE
  5
53E2
  8
0
 10
111.5510025200842
 20
63.625000923871987
 30
0.0
 11
110.5598908985824
 21
63.625000923871987
 31
0.0
  0
LINE
  5
53E3
  8
0
 10
128.1794913579339
 20
67.000000923871994
 30
0.0
 11
126.91540206073221
 21
67.000000923871994
 31
0.0
  0
LINE
  5
53E4
  8
0
 10
132.89149135793389
 20
67.000000923871994
 30
0.0
 11
131.62740206073221
 21
67.000000923871994
 31
0.0
  0
LINE
  5
53E5
  8
0
 10
137.6034913579339
 20
67.000000923871994
 30
0.0
 11
136.33940206073211
 21
67.000000923871994
 31
0.0
  0
LINE
  5
53E6
  8
0
 10
137.6034913579339
 20
67.000000923871994
 30
0.0
 11
138.8318908985824
 21
63.625000923871987
 31
0.0
  0
LINE
  5
53E7
  8
0
 10
135.11100252008421
 20
63.625000923871987
 30
0.0
 11
136.33940206073211
 21
67.000000923871994
 31
0.0
  0
LINE
  5
53E8
  8
0
 10
132.89149135793389
 20
67.000000923871994
 30
0.0
 11
134.11989089858241
 21
63.625000923871987
 31
0.0
  0
LINE
  5
53E9
  8
0
 10
130.3990025200842
 20
63.625000923871987
 30
0.0
 11
131.62740206073221
 21
67.000000923871994
 31
0.0
  0
LINE
  5
53EA
  8
0
 10
128.1794913579339
 20
67.000000923871994
 30
0.0
 11
129.40789089858239
 21
63.625000923871987
 31
0.0
  0
LINE
  5
53EB
  8
0
 10
125.68700252008421
 20
63.625000923871987
 30
0.0
 11
126.91540206073221
 21
67.000000923871994
 31
0.0
  0
LINE
  5
53EC
  8
0
 10
135.11100252008421
 20
63.625000923871987
 30
0.0
 11
134.11989089858241
 21
63.625000923871987
 31
0.0
  0
LINE
  5
53ED
  8
0
 10
130.3990025200842
 20
63.625000923871987
 30
0.0
 11
129.40789089858239
 21
63.625000923871987
 31
0.0
  0
LINE
  5
53EE
  8
0
 10
125.68700252008421
 20
63.625000923871987
 30
0.0
 11
124.69589089858241
 21
63.625000923871987
 31
0.0
  0
LINE
  5
53EF
  8
0
 10
142.31549135793389
 20
67.000000923871994
 30
0.0
 11
141.0514020607321
 21
67.000000923871994
 31
0.0
  0
LINE
  5
53F0
  8
0
 10
147.02749135793391
 20
67.000000923871994
 30
0.0
 11
145.76340206073209
 21
67.000000923871994
 31
0.0
  0
LINE
  5
53F1
  8
0
 10
151.73949135793379
 20
67.000000923871994
 30
0.0
 11
150.47540206073211
 21
67.000000923871994
 31
0.0
  0
LINE
  5
53F2
  8
0
 10
151.73949135793379
 20
67.000000923871994
 30
0.0
 11
152.9678908985824
 21
63.625000923871987
 31
0.0
  0
LINE
  5
53F3
  8
0
 10
149.2470025200841
 20
63.625000923871987
 30
0.0
 11
150.47540206073211
 21
67.000000923871994
 31
0.0
  0
LINE
  5
53F4
  8
0
 10
147.02749135793391
 20
67.000000923871994
 30
0.0
 11
148.25589089858229
 21
63.625000923871987
 31
0.0
  0
LINE
  5
53F5
  8
0
 10
144.53500252008411
 20
63.625000923871987
 30
0.0
 11
145.76340206073209
 21
67.000000923871994
 31
0.0
  0
LINE
  5
53F6
  8
0
 10
142.31549135793389
 20
67.000000923871994
 30
0.0
 11
143.54389089858239
 21
63.625000923871987
 31
0.0
  0
LINE
  5
53F7
  8
0
 10
139.82300252008409
 20
63.625000923871987
 30
0.0
 11
141.0514020607321
 21
67.000000923871994
 31
0.0
  0
LINE
  5
53F8
  8
0
 10
149.2470025200841
 20
63.625000923871987
 30
0.0
 11
148.25589089858229
 21
63.625000923871987
 31
0.0
  0
LINE
  5
53F9
  8
0
 10
144.53500252008411
 20
63.625000923871987
 30
0.0
 11
143.54389089858239
 21
63.625000923871987
 31
0.0
  0
LINE
  5
53FA
  8
0
 10
139.82300252008409
 20
63.625000923871987
 30
0.0
 11
138.8318908985824
 21
63.625000923871987
 31
0.0
  0
LINE
  5
53FB
  8
0
 10
156.4514913579338
 20
67.000000923871994
 30
0.0
 11
155.1874020607321
 21
67.000000923871994
 31
0.0
  0
LINE
  5
53FC
  8
0
 10
161.16349135793379
 20
67.000000923871994
 30
0.0
 11
159.89940206073209
 21
67.000000923871994
 31
0.0
  0
LINE
  5
53FD
  8
0
 10
165.87549135793381
 20
67.000000923871994
 30
0.0
 11
164.6114020607321
 21
67.000000923871994
 31
0.0
  0
LINE
  5
53FE
  8
0
 10
165.87549135793381
 20
67.000000923871994
 30
0.0
 11
167.10389089858231
 21
63.625000923871987
 31
0.0
  0
LINE
  5
53FF
  8
0
 10
163.38300252008409
 20
63.625000923871987
 30
0.0
 11
164.6114020607321
 21
67.000000923871994
 31
0.0
  0
LINE
  5
5400
  8
0
 10
161.16349135793379
 20
67.000000923871994
 30
0.0
 11
162.39189089858229
 21
63.625000923871987
 31
0.0
  0
LINE
  5
5401
  8
0
 10
158.6710025200841
 20
63.625000923871987
 30
0.0
 11
159.89940206073209
 21
67.000000923871994
 31
0.0
  0
LINE
  5
5402
  8
0
 10
156.4514913579338
 20
67.000000923871994
 30
0.0
 11
157.6798908985823
 21
63.625000923871987
 31
0.0
  0
LINE
  5
5403
  8
0
 10
153.95900252008411
 20
63.625000923871987
 30
0.0
 11
155.1874020607321
 21
67.000000923871994
 31
0.0
  0
LINE
  5
5404
  8
0
 10
163.38300252008409
 20
63.625000923871987
 30
0.0
 11
162.39189089858229
 21
63.625000923871987
 31
0.0
  0
LINE
  5
5405
  8
0
 10
158.6710025200841
 20
63.625000923871987
 30
0.0
 11
157.6798908985823
 21
63.625000923871987
 31
0.0
  0
LINE
  5
5406
  8
0
 10
153.95900252008411
 20
63.625000923871987
 30
0.0
 11
152.9678908985824
 21
63.625000923871987
 31
0.0
  0
LINE
  5
5407
  8
0
 10
170.5874913579338
 20
67.000000923871994
 30
0.0
 11
169.32340206073209
 21
67.000000923871994
 31
0.0
  0
LINE
  5
5408
  8
0
 10
175.29949135793379
 20
67.000000923871994
 30
0.0
 11
174.03540206073211
 21
67.000000923871994
 31
0.0
  0
LINE
  5
5409
  8
0
 10
180.01149135793381
 20
67.000000923871994
 30
0.0
 11
178.74740206073201
 21
67.000000923871994
 31
0.0
  0
LINE
  5
540A
  8
0
 10
180.01149135793381
 20
67.000000923871994
 30
0.0
 11
181.2398908985823
 21
63.625000923871987
 31
0.0
  0
LINE
  5
540B
  8
0
 10
177.519002520084
 20
63.625000923871987
 30
0.0
 11
178.74740206073201
 21
67.000000923871994
 31
0.0
  0
LINE
  5
540C
  8
0
 10
175.29949135793379
 20
67.000000923871994
 30
0.0
 11
176.52789089858231
 21
63.625000923871987
 31
0.0
  0
LINE
  5
540D
  8
0
 10
172.8070025200841
 20
63.625000923871987
 30
0.0
 11
174.03540206073211
 21
67.000000923871994
 31
0.0
  0
LINE
  5
540E
  8
0
 10
170.5874913579338
 20
67.000000923871994
 30
0.0
 11
171.8158908985823
 21
63.625000923871987
 31
0.0
  0
LINE
  5
540F
  8
0
 10
168.09500252008411
 20
63.625000923871987
 30
0.0
 11
169.32340206073209
 21
67.000000923871994
 31
0.0
  0
LINE
  5
5410
  8
0
 10
177.519002520084
 20
63.625000923871987
 30
0.0
 11
176.52789089858231
 21
63.625000923871987
 31
0.0
  0
LINE
  5
5411
  8
0
 10
172.8070025200841
 20
63.625000923871987
 30
0.0
 11
171.8158908985823
 21
63.625000923871987
 31
0.0
  0
LINE
  5
5412
  8
0
 10
168.09500252008411
 20
63.625000923871987
 30
0.0
 11
167.10389089858231
 21
63.625000923871987
 31
0.0
  0
LINE
  5
5413
  8
0
 10
184.7234913579338
 20
67.000000923871994
 30
0.0
 11
183.459402060732
 21
67.000000923871994
 31
0.0
  0
LINE
  5
5414
  8
0
 10
189.43549135793381
 20
67.000000923871994
 30
0.0
 11
188.17140206073199
 21
67.000000923871994
 31
0.0
  0
LINE
  5
5415
  8
0
 10
194.1474913579338
 20
67.000000923871994
 30
0.0
 11
192.88340206073201
 21
67.000000923871994
 31
0.0
  0
LINE
  5
5416
  8
0
 10
194.1474913579338
 20
67.000000923871994
 30
0.0
 11
195.37589089858221
 21
63.625000923871987
 31
0.0
  0
LINE
  5
5417
  8
0
 10
191.655002520084
 20
63.625000923871987
 30
0.0
 11
192.88340206073201
 21
67.000000923871994
 31
0.0
  0
LINE
  5
5418
  8
0
 10
189.43549135793381
 20
67.000000923871994
 30
0.0
 11
190.66389089858231
 21
63.625000923871987
 31
0.0
  0
LINE
  5
5419
  8
0
 10
186.94300252008401
 20
63.625000923871987
 30
0.0
 11
188.17140206073199
 21
67.000000923871994
 31
0.0
  0
LINE
  5
541A
  8
0
 10
184.7234913579338
 20
67.000000923871994
 30
0.0
 11
185.95189089858229
 21
63.625000923871987
 31
0.0
  0
LINE
  5
541B
  8
0
 10
182.2310025200841
 20
63.625000923871987
 30
0.0
 11
183.459402060732
 21
67.000000923871994
 31
0.0
  0
LINE
  5
541C
  8
0
 10
191.655002520084
 20
63.625000923871987
 30
0.0
 11
190.66389089858231
 21
63.625000923871987
 31
0.0
  0
LINE
  5
541D
  8
0
 10
186.94300252008401
 20
63.625000923871987
 30
0.0
 11
185.95189089858229
 21
63.625000923871987
 31
0.0
  0
LINE
  5
541E
  8
0
 10
182.2310025200841
 20
63.625000923871987
 30
0.0
 11
181.2398908985823
 21
63.625000923871987
 31
0.0
  0
LINE
  5
541F
  8
0
 10
198.85949135793371
 20
67.000000923871994
 30
0.0
 11
197.595402060732
 21
67.000000923871994
 31
0.0
  0
LINE
  5
5420
  8
0
 10
203.5714913579337
 20
67.000000923871994
 30
0.0
 11
202.30740206073199
 21
67.000000923871994
 31
0.0
  0
LINE
  5
5421
  8
0
 10
208.2834913579338
 20
67.000000923871994
 30
0.0
 11
207.01940206073201
 21
67.000000923871994
 31
0.0
  0
LINE
  5
5422
  8
0
 10
208.2834913579338
 20
67.000000923871994
 30
0.0
 11
209.51189089858221
 21
63.625000923871987
 31
0.0
  0
LINE
  5
5423
  8
0
 10
205.79100252008399
 20
63.625000923871987
 30
0.0
 11
207.01940206073201
 21
67.000000923871994
 31
0.0
  0
LINE
  5
5424
  8
0
 10
203.5714913579337
 20
67.000000923871994
 30
0.0
 11
204.79989089858219
 21
63.625000923871987
 31
0.0
  0
LINE
  5
5425
  8
0
 10
201.079002520084
 20
63.625000923871987
 30
0.0
 11
202.30740206073199
 21
67.000000923871994
 31
0.0
  0
LINE
  5
5426
  8
0
 10
198.85949135793371
 20
67.000000923871994
 30
0.0
 11
200.08789089858229
 21
63.625000923871987
 31
0.0
  0
LINE
  5
5427
  8
0
 10
196.36700252008399
 20
63.625000923871987
 30
0.0
 11
197.595402060732
 21
67.000000923871994
 31
0.0
  0
LINE
  5
5428
  8
0
 10
205.79100252008399
 20
63.625000923871987
 30
0.0
 11
204.79989089858219
 21
63.625000923871987
 31
0.0
  0
LINE
  5
5429
  8
0
 10
201.079002520084
 20
63.625000923871987
 30
0.0
 11
200.08789089858229
 21
63.625000923871987
 31
0.0
  0
LINE
  5
542A
  8
0
 10
196.36700252008399
 20
63.625000923871987
 30
0.0
 11
195.37589089858221
 21
63.625000923871987
 31
0.0
  0
LINE
  5
542B
  8
0
 10
212.9954913579337
 20
67.000000923871994
 30
0.0
 11
211.73140206073199
 21
67.000000923871994
 31
0.0
  0
LINE
  5
542C
  8
0
 10
217.70749135793369
 20
67.000000923871994
 30
0.0
 11
216.44340206073201
 21
67.000000923871994
 31
0.0
  0
LINE
  5
542D
  8
0
 10
222.41949135793371
 20
67.000000923871994
 30
0.0
 11
221.155402060732
 21
67.000000923871994
 31
0.0
  0
LINE
  5
542E
  8
0
 10
222.41949135793371
 20
67.000000923871994
 30
0.0
 11
223.6478908985822
 21
63.625000923871987
 31
0.0
  0
LINE
  5
542F
  8
0
 10
219.92700252008399
 20
63.625000923871987
 30
0.0
 11
221.155402060732
 21
67.000000923871994
 31
0.0
  0
LINE
  5
5430
  8
0
 10
217.70749135793369
 20
67.000000923871994
 30
0.0
 11
218.93589089858219
 21
63.625000923871987
 31
0.0
  0
LINE
  5
5431
  8
0
 10
215.215002520084
 20
63.625000923871987
 30
0.0
 11
216.44340206073201
 21
67.000000923871994
 31
0.0
  0
LINE
  5
5432
  8
0
 10
212.9954913579337
 20
67.000000923871994
 30
0.0
 11
214.2238908985822
 21
63.625000923871987
 31
0.0
  0
LINE
  5
5433
  8
0
 10
210.50300252008401
 20
63.625000923871987
 30
0.0
 11
211.73140206073199
 21
67.000000923871994
 31
0.0
  0
LINE
  5
5434
  8
0
 10
219.92700252008399
 20
63.625000923871987
 30
0.0
 11
218.93589089858219
 21
63.625000923871987
 31
0.0
  0
LINE
  5
5435
  8
0
 10
215.215002520084
 20
63.625000923871987
 30
0.0
 11
214.2238908985822
 21
63.625000923871987
 31
0.0
  0
LINE
  5
5436
  8
0
 10
210.50300252008401
 20
63.625000923871987
 30
0.0
 11
209.51189089858221
 21
63.625000923871987
 31
0.0
  0
LINE
  5
5437
  8
0
 10
227.1314913579337
 20
67.000000923871994
 30
0.0
 11
225.86740206073191
 21
67.000000923871994
 31
0.0
  0
LINE
  5
5438
  8
0
 10
231.84349135793369
 20
67.000000923871994
 30
0.0
 11
230.57940206073189
 21
67.000000923871994
 31
0.0
  0
LINE
  5
5439
  8
0
 10
236.5554913579337
 20
67.000000923871994
 30
0.0
 11
235.291402060732
 21
67.000000923871994
 31
0.0
  0
LINE
  5
543A
  8
0
 10
236.5554913579337
 20
67.000000923871994
 30
0.0
 11
237.7838908985822
 21
63.625000923871987
 31
0.0
  0
LINE
  5
543B
  8
0
 10
234.06300252008401
 20
63.625000923871987
 30
0.0
 11
235.291402060732
 21
67.000000923871994
 31
0.0
  0
LINE
  5
543C
  8
0
 10
231.84349135793369
 20
67.000000923871994
 30
0.0
 11
233.07189089858221
 21
63.625000923871987
 31
0.0
  0
LINE
  5
543D
  8
0
 10
229.35100252008399
 20
63.625000923871987
 30
0.0
 11
230.57940206073189
 21
67.000000923871994
 31
0.0
  0
LINE
  5
543E
  8
0
 10
227.1314913579337
 20
67.000000923871994
 30
0.0
 11
228.35989089858219
 21
63.625000923871987
 31
0.0
  0
LINE
  5
543F
  8
0
 10
224.63900252008401
 20
63.625000923871987
 30
0.0
 11
225.86740206073191
 21
67.000000923871994
 31
0.0
  0
LINE
  5
5440
  8
0
 10
234.06300252008401
 20
63.625000923871987
 30
0.0
 11
233.07189089858221
 21
63.625000923871987
 31
0.0
  0
LINE
  5
5441
  8
0
 10
229.35100252008399
 20
63.625000923871987
 30
0.0
 11
228.35989089858219
 21
63.625000923871987
 31
0.0
  0
LINE
  5
5442
  8
0
 10
224.63900252008401
 20
63.625000923871987
 30
0.0
 11
223.6478908985822
 21
63.625000923871987
 31
0.0
  0
LINE
  5
5443
  8
0
 10
241.26749135793369
 20
67.000000923871994
 30
0.0
 11
240.0034020607319
 21
67.000000923871994
 31
0.0
  0
LINE
  5
5444
  8
0
 10
245.97949135793371
 20
67.000000923871994
 30
0.0
 11
244.71540206073189
 21
67.000000923871994
 31
0.0
  0
LINE
  5
5445
  8
0
 10
250.69149135793359
 20
67.000000923871994
 30
0.0
 11
249.42740206073191
 21
67.000000923871994
 31
0.0
  0
LINE
  5
5446
  8
0
 10
250.69149135793359
 20
67.000000923871994
 30
0.0
 11
251.91989089858211
 21
63.625000923871987
 31
0.0
  0
LINE
  5
5447
  8
0
 10
248.19900252008389
 20
63.625000923871987
 30
0.0
 11
249.42740206073191
 21
67.000000923871994
 31
0.0
  0
LINE
  5
5448
  8
0
 10
245.97949135793371
 20
67.000000923871994
 30
0.0
 11
247.20789089858209
 21
63.625000923871987
 31
0.0
  0
LINE
  5
5449
  8
0
 10
243.48700252008391
 20
63.625000923871987
 30
0.0
 11
244.71540206073189
 21
67.000000923871994
 31
0.0
  0
LINE
  5
544A
  8
0
 10
241.26749135793369
 20
67.000000923871994
 30
0.0
 11
242.4958908985821
 21
63.625000923871987
 31
0.0
  0
LINE
  5
544B
  8
0
 10
238.775002520084
 20
63.625000923871987
 30
0.0
 11
240.0034020607319
 21
67.000000923871994
 31
0.0
  0
LINE
  5
544C
  8
0
 10
248.19900252008389
 20
63.625000923871987
 30
0.0
 11
247.20789089858209
 21
63.625000923871987
 31
0.0
  0
LINE
  5
544D
  8
0
 10
243.48700252008391
 20
63.625000923871987
 30
0.0
 11
242.4958908985821
 21
63.625000923871987
 31
0.0
  0
LINE
  5
544E
  8
0
 10
238.775002520084
 20
63.625000923871987
 30
0.0
 11
237.7838908985822
 21
63.625000923871987
 31
0.0
  0
LINE
  5
544F
  8
0
 10
255.4034913579336
 20
67.000000923871994
 30
0.0
 11
254.1394020607319
 21
67.000000923871994
 31
0.0
  0
LINE
  5
5450
  8
0
 10
260.11549135793359
 20
67.000000923871994
 30
0.0
 11
258.8514020607318
 21
67.000000923871994
 31
0.0
  0
LINE
  5
5451
  8
0
 10
264.82749135793358
 20
67.000000923871994
 30
0.0
 11
263.56340206073179
 21
67.000000923871994
 31
0.0
  0
LINE
  5
5452
  8
0
 10
264.82749135793358
 20
67.000000923871994
 30
0.0
 11
266.05589089858211
 21
63.625000923871987
 31
0.0
  0
LINE
  5
5453
  8
0
 10
262.33500252008389
 20
63.625000923871987
 30
0.0
 11
263.56340206073179
 21
67.000000923871994
 31
0.0
  0
LINE
  5
5454
  8
0
 10
260.11549135793359
 20
67.000000923871994
 30
0.0
 11
261.34389089858212
 21
63.625000923871987
 31
0.0
  0
LINE
  5
5455
  8
0
 10
257.6230025200839
 20
63.625000923871987
 30
0.0
 11
258.8514020607318
 21
67.000000923871994
 31
0.0
  0
LINE
  5
5456
  8
0
 10
255.4034913579336
 20
67.000000923871994
 30
0.0
 11
256.63189089858213
 21
63.625000923871987
 31
0.0
  0
LINE
  5
5457
  8
0
 10
252.91100252008391
 20
63.625000923871987
 30
0.0
 11
254.1394020607319
 21
67.000000923871994
 31
0.0
  0
LINE
  5
5458
  8
0
 10
262.33500252008389
 20
63.625000923871987
 30
0.0
 11
261.34389089858212
 21
63.625000923871987
 31
0.0
  0
LINE
  5
5459
  8
0
 10
257.6230025200839
 20
63.625000923871987
 30
0.0
 11
256.63189089858213
 21
63.625000923871987
 31
0.0
  0
LINE
  5
545A
  8
0
 10
252.91100252008391
 20
63.625000923871987
 30
0.0
 11
251.91989089858211
 21
63.625000923871987
 31
0.0
  0
LINE
  5
545B
  8
0
 10
269.53949135793363
 20
67.000000923871994
 30
0.0
 11
268.27540206073189
 21
67.000000923871994
 31
0.0
  0
LINE
  5
545C
  8
0
 10
274.25149135793362
 20
67.000000923871994
 30
0.0
 11
272.98740206073182
 21
67.000000923871994
 31
0.0
  0
LINE
  5
545D
  8
0
 10
278.96349135793361
 20
67.000000923871994
 30
0.0
 11
277.69940206073181
 21
67.000000923871994
 31
0.0
  0
LINE
  5
545E
  8
0
 10
278.96349135793361
 20
67.000000923871994
 30
0.0
 11
280.19189089858207
 21
63.625000923871987
 31
0.0
  0
LINE
  5
545F
  8
0
 10
276.47100252008391
 20
63.625000923871987
 30
0.0
 11
277.69940206073181
 21
67.000000923871994
 31
0.0
  0
LINE
  5
5460
  8
0
 10
274.25149135793362
 20
67.000000923871994
 30
0.0
 11
275.47989089858208
 21
63.625000923871987
 31
0.0
  0
LINE
  5
5461
  8
0
 10
271.75900252008392
 20
63.625000923871987
 30
0.0
 11
272.98740206073182
 21
67.000000923871994
 31
0.0
  0
LINE
  5
5462
  8
0
 10
269.53949135793363
 20
67.000000923871994
 30
0.0
 11
270.7678908985821
 21
63.625000923871987
 31
0.0
  0
LINE
  5
5463
  8
0
 10
267.04700252008388
 20
63.625000923871987
 30
0.0
 11
268.27540206073189
 21
67.000000923871994
 31
0.0
  0
LINE
  5
5464
  8
0
 10
276.47100252008391
 20
63.625000923871987
 30
0.0
 11
275.47989089858208
 21
63.625000923871987
 31
0.0
  0
LINE
  5
5465
  8
0
 10
271.75900252008392
 20
63.625000923871987
 30
0.0
 11
270.7678908985821
 21
63.625000923871987
 31
0.0
  0
LINE
  5
5466
  8
0
 10
267.04700252008388
 20
63.625000923871987
 30
0.0
 11
266.05589089858211
 21
63.625000923871987
 31
0.0
  0
LINE
  5
5467
  8
0
 10
283.67549135793348
 20
67.000000923871994
 30
0.0
 11
282.4114020607318
 21
67.000000923871994
 31
0.0
  0
LINE
  5
5468
  8
0
 10
288.38749135793353
 20
67.000000923871994
 30
0.0
 11
287.12340206073179
 21
67.000000923871994
 31
0.0
  0
LINE
  5
5469
  8
0
 10
293.09949135793352
 20
67.000000923871994
 30
0.0
 11
291.83540206073178
 21
67.000000923871994
 31
0.0
  0
LINE
  5
546A
  8
0
 10
293.09949135793352
 20
67.000000923871994
 30
0.0
 11
294.3278908985821
 21
63.625000923871987
 31
0.0
  0
LINE
  5
546B
  8
0
 10
290.60700252008382
 20
63.625000923871987
 30
0.0
 11
291.83540206073178
 21
67.000000923871994
 31
0.0
  0
LINE
  5
546C
  8
0
 10
288.38749135793353
 20
67.000000923871994
 30
0.0
 11
289.61589089858211
 21
63.625000923871987
 31
0.0
  0
LINE
  5
546D
  8
0
 10
285.89500252008378
 20
63.625000923871987
 30
0.0
 11
287.12340206073179
 21
67.000000923871994
 31
0.0
  0
LINE
  5
546E
  8
0
 10
283.67549135793348
 20
67.000000923871994
 30
0.0
 11
284.90389089858212
 21
63.625000923871987
 31
0.0
  0
LINE
  5
546F
  8
0
 10
281.18300252008379
 20
63.625000923871987
 30
0.0
 11
282.4114020607318
 21
67.000000923871994
 31
0.0
  0
LINE
  5
5470
  8
0
 10
290.60700252008382
 20
63.625000923871987
 30
0.0
 11
289.61589089858211
 21
63.625000923871987
 31
0.0
  0
LINE
  5
5471
  8
0
 10
285.89500252008378
 20
63.625000923871987
 30
0.0
 11
284.90389089858212
 21
63.625000923871987
 31
0.0
  0
LINE
  5
5472
  8
0
 10
281.18300252008379
 20
63.625000923871987
 30
0.0
 11
280.19189089858207
 21
63.625000923871987
 31
0.0
  0
LINE
  5
5473
  8
0
 10
297.81149135793351
 20
67.000000923871994
 30
0.0
 11
296.54740206073183
 21
67.000000923871994
 31
0.0
  0
LINE
  5
5474
  8
0
 10
302.52349135793349
 20
67.000000923871994
 30
0.0
 11
301.25940206073182
 21
67.000000923871994
 31
0.0
  0
LINE
  5
5478
  8
0
 10
302.52349135793349
 20
67.000000923871994
 30
0.0
 11
303.75189089858202
 21
63.625000923871987
 31
0.0
  0
LINE
  5
5479
  8
0
 10
300.0310025200838
 20
63.625000923871987
 30
0.0
 11
301.25940206073182
 21
67.000000923871994
 31
0.0
  0
LINE
  5
547A
  8
0
 10
297.81149135793351
 20
67.000000923871994
 30
0.0
 11
299.03989089858197
 21
63.625000923871987
 31
0.0
  0
LINE
  5
547B
  8
0
 10
295.31900252008381
 20
63.625000923871987
 30
0.0
 11
296.54740206073183
 21
67.000000923871994
 31
0.0
  0
LINE
  5
547C
  8
0
 10
304.00000000000011
 20
63.625000923871987
 30
0.0
 11
303.75189089858202
 21
63.625000923871987
 31
0.0
  0
LINE
  5
547D
  8
0
 10
300.0310025200838
 20
63.625000923871987
 30
0.0
 11
299.03989089858197
 21
63.625000923871987
 31
0.0
  0
LINE
  5
547E
  8
0
 10
295.31900252008381
 20
63.625000923871987
 30
0.0
 11
294.3278908985821
 21
63.625000923871987
 31
0.0
  0
LINE
  5
548A
  8
3
 10
51.523402060732373
 20
134.00000184774399
 30
0.0
 11
51.523402060732373
 21
117.00000092387199
 31
0.0
  0
LINE
  5
548B
  8
3
 10
52.787491357934101
 20
134.00000184774399
 30
0.0
 11
52.787491357934101
 21
117.00000092387199
 31
0.0
  0
LINE
  5
548C
  8
3
 10
56.235402060732362
 20
134.00000184774399
 30
0.0
 11
56.235402060732362
 21
117.00000092387199
 31
0.0
  0
LINE
  5
548D
  8
3
 10
57.49949135793409
 20
134.00000184774399
 30
0.0
 11
57.49949135793409
 21
117.00000092387199
 31
0.0
  0
LINE
  5
548E
  8
3
 10
60.947402060732337
 20
134.00000184774399
 30
0.0
 11
60.947402060732337
 21
117.00000092387199
 31
0.0
  0
LINE
  5
548F
  8
3
 10
62.211491357934079
 20
134.00000184774399
 30
0.0
 11
62.211491357934079
 21
117.00000092387199
 31
0.0
  0
LINE
  5
5490
  8
3
 10
65.659402060732333
 20
134.00000184774399
 30
0.0
 11
65.659402060732333
 21
117.00000092387199
 31
0.0
  0
LINE
  5
5491
  8
3
 10
66.923491357934054
 20
134.00000184774399
 30
0.0
 11
66.923491357934054
 21
117.00000092387199
 31
0.0
  0
LINE
  5
5492
  8
3
 10
70.371402060732322
 20
134.00000184774399
 30
0.0
 11
70.371402060732322
 21
117.00000092387199
 31
0.0
  0
LINE
  5
5493
  8
3
 10
71.635491357934058
 20
134.00000184774399
 30
0.0
 11
71.635491357934058
 21
117.00000092387199
 31
0.0
  0
LINE
  5
5494
  8
3
 10
75.083402060732311
 20
134.00000184774399
 30
0.0
 11
75.083402060732311
 21
117.00000092387199
 31
0.0
  0
LINE
  5
5495
  8
3
 10
76.347491357934047
 20
134.00000184774399
 30
0.0
 11
76.347491357934047
 21
117.00000092387199
 31
0.0
  0
LINE
  5
5496
  8
3
 10
79.7954020607323
 20
134.00000184774399
 30
0.0
 11
79.7954020607323
 21
117.00000092387199
 31
0.0
  0
LINE
  5
5497
  8
3
 10
81.059491357934036
 20
134.00000184774399
 30
0.0
 11
81.059491357934036
 21
117.00000092387199
 31
0.0
  0
LINE
  5
5498
  8
3
 10
84.507402060732289
 20
134.00000184774399
 30
0.0
 11
84.507402060732289
 21
117.00000092387199
 31
0.0
  0
LINE
  5
5499
  8
3
 10
85.771491357934025
 20
134.00000184774399
 30
0.0
 11
85.771491357934025
 21
117.00000092387199
 31
0.0
  0
LINE
  5
549A
  8
3
 10
89.219402060732278
 20
134.00000184774399
 30
0.0
 11
89.219402060732278
 21
117.00000092387199
 31
0.0
  0
LINE
  5
549B
  8
3
 10
90.483491357934014
 20
134.00000184774399
 30
0.0
 11
90.483491357934014
 21
117.00000092387199
 31
0.0
  0
LINE
  5
549C
  8
3
 10
93.931402060732253
 20
134.00000184774399
 30
0.0
 11
93.931402060732253
 21
117.00000092387199
 31
0.0
  0
LINE
  5
549D
  8
3
 10
95.195491357934003
 20
134.00000184774399
 30
0.0
 11
95.195491357934003
 21
117.00000092387199
 31
0.0
  0
LINE
  5
549E
  8
3
 10
98.643402060732257
 20
134.00000184774399
 30
0.0
 11
98.643402060732257
 21
117.00000092387199
 31
0.0
  0
LINE
  5
549F
  8
3
 10
99.907491357934006
 20
134.00000184774399
 30
0.0
 11
99.907491357934006
 21
117.00000092387199
 31
0.0
  0
LINE
  5
54A0
  8
3
 10
103.3554020607322
 20
134.00000184774399
 30
0.0
 11
103.3554020607322
 21
117.00000092387199
 31
0.0
  0
LINE
  5
54A1
  8
3
 10
104.619491357934
 20
134.00000184774399
 30
0.0
 11
104.619491357934
 21
117.00000092387199
 31
0.0
  0
LINE
  5
54A2
  8
3
 10
108.06740206073221
 20
134.00000184774399
 30
0.0
 11
108.06740206073221
 21
117.00000092387199
 31
0.0
  0
LINE
  5
54A3
  8
3
 10
109.3314913579339
 20
134.00000184774399
 30
0.0
 11
109.3314913579339
 21
117.00000092387199
 31
0.0
  0
LINE
  5
54A4
  8
3
 10
112.7794020607322
 20
134.00000184774399
 30
0.0
 11
112.7794020607322
 21
117.00000092387199
 31
0.0
  0
LINE
  5
54A5
  8
3
 10
114.0434913579339
 20
134.00000184774399
 30
0.0
 11
114.0434913579339
 21
117.00000092387199
 31
0.0
  0
LINE
  5
54A6
  8
3
 10
117.4914020607322
 20
134.00000184774399
 30
0.0
 11
117.4914020607322
 21
117.00000092387199
 31
0.0
  0
LINE
  5
54A7
  8
3
 10
118.75549135793391
 20
134.00000184774399
 30
0.0
 11
118.75549135793391
 21
117.00000092387199
 31
0.0
  0
LINE
  5
54A8
  8
3
 10
122.2034020607322
 20
134.00000184774399
 30
0.0
 11
122.2034020607322
 21
117.00000092387199
 31
0.0
  0
LINE
  5
54A9
  8
3
 10
123.46749135793389
 20
134.00000184774399
 30
0.0
 11
123.46749135793389
 21
117.00000092387199
 31
0.0
  0
LINE
  5
54AA
  8
3
 10
126.91540206073221
 20
134.00000184774399
 30
0.0
 11
126.91540206073221
 21
117.00000092387199
 31
0.0
  0
LINE
  5
54AB
  8
3
 10
128.1794913579339
 20
134.00000184774399
 30
0.0
 11
128.1794913579339
 21
117.00000092387199
 31
0.0
  0
LINE
  5
54AC
  8
3
 10
131.62740206073221
 20
134.00000184774399
 30
0.0
 11
131.62740206073221
 21
117.00000092387199
 31
0.0
  0
LINE
  5
54AD
  8
3
 10
132.89149135793389
 20
134.00000184774399
 30
0.0
 11
132.89149135793389
 21
117.00000092387199
 31
0.0
  0
LINE
  5
54AE
  8
3
 10
136.33940206073211
 20
134.00000184774399
 30
0.0
 11
136.33940206073211
 21
117.00000092387199
 31
0.0
  0
LINE
  5
54AF
  8
3
 10
137.6034913579339
 20
134.00000184774399
 30
0.0
 11
137.6034913579339
 21
117.00000092387199
 31
0.0
  0
LINE
  5
54B0
  8
3
 10
141.0514020607321
 20
134.00000184774399
 30
0.0
 11
141.0514020607321
 21
117.00000092387199
 31
0.0
  0
LINE
  5
54B1
  8
3
 10
142.31549135793389
 20
134.00000184774399
 30
0.0
 11
142.31549135793389
 21
117.00000092387199
 31
0.0
  0
LINE
  5
54B2
  8
3
 10
145.76340206073209
 20
134.00000184774399
 30
0.0
 11
145.76340206073209
 21
117.00000092387199
 31
0.0
  0
LINE
  5
54B3
  8
3
 10
147.02749135793391
 20
134.00000184774399
 30
0.0
 11
147.02749135793391
 21
117.00000092387199
 31
0.0
  0
LINE
  5
54B4
  8
3
 10
150.47540206073211
 20
134.00000184774399
 30
0.0
 11
150.47540206073211
 21
117.00000092387199
 31
0.0
  0
LINE
  5
54B5
  8
3
 10
151.73949135793379
 20
134.00000184774399
 30
0.0
 11
151.73949135793379
 21
117.00000092387199
 31
0.0
  0
LINE
  5
54B6
  8
3
 10
155.1874020607321
 20
134.00000184774399
 30
0.0
 11
155.1874020607321
 21
117.00000092387199
 31
0.0
  0
LINE
  5
54B7
  8
3
 10
156.4514913579338
 20
134.00000184774399
 30
0.0
 11
156.4514913579338
 21
117.00000092387199
 31
0.0
  0
LINE
  5
54B8
  8
3
 10
159.89940206073209
 20
134.00000184774399
 30
0.0
 11
159.89940206073209
 21
117.00000092387199
 31
0.0
  0
LINE
  5
54B9
  8
3
 10
161.16349135793379
 20
134.00000184774399
 30
0.0
 11
161.16349135793379
 21
117.00000092387199
 31
0.0
  0
LINE
  5
54BA
  8
3
 10
164.6114020607321
 20
134.00000184774399
 30
0.0
 11
164.6114020607321
 21
117.00000092387199
 31
0.0
  0
LINE
  5
54BB
  8
3
 10
165.87549135793381
 20
134.00000184774399
 30
0.0
 11
165.87549135793381
 21
117.00000092387199
 31
0.0
  0
LINE
  5
54BC
  8
3
 10
169.32340206073209
 20
134.00000184774399
 30
0.0
 11
169.32340206073209
 21
117.00000092387199
 31
0.0
  0
LINE
  5
54BD
  8
3
 10
170.5874913579338
 20
134.00000184774399
 30
0.0
 11
170.5874913579338
 21
117.00000092387199
 31
0.0
  0
LINE
  5
54BE
  8
3
 10
174.03540206073211
 20
134.00000184774399
 30
0.0
 11
174.03540206073211
 21
117.00000092387199
 31
0.0
  0
LINE
  5
54BF
  8
3
 10
175.29949135793379
 20
134.00000184774399
 30
0.0
 11
175.29949135793379
 21
117.00000092387199
 31
0.0
  0
LINE
  5
54C0
  8
3
 10
178.74740206073201
 20
134.00000184774399
 30
0.0
 11
178.74740206073201
 21
117.00000092387199
 31
0.0
  0
LINE
  5
54C1
  8
3
 10
180.01149135793381
 20
134.00000184774399
 30
0.0
 11
180.01149135793381
 21
117.00000092387199
 31
0.0
  0
LINE
  5
54C2
  8
3
 10
183.459402060732
 20
134.00000184774399
 30
0.0
 11
183.459402060732
 21
117.00000092387199
 31
0.0
  0
LINE
  5
54C3
  8
3
 10
184.7234913579338
 20
134.00000184774399
 30
0.0
 11
184.7234913579338
 21
117.00000092387199
 31
0.0
  0
LINE
  5
54C4
  8
3
 10
188.17140206073199
 20
134.00000184774399
 30
0.0
 11
188.17140206073199
 21
117.00000092387199
 31
0.0
  0
LINE
  5
54C5
  8
3
 10
189.43549135793381
 20
134.00000184774399
 30
0.0
 11
189.43549135793381
 21
117.00000092387199
 31
0.0
  0
LINE
  5
54C6
  8
3
 10
192.88340206073201
 20
134.00000184774399
 30
0.0
 11
192.88340206073201
 21
117.00000092387199
 31
0.0
  0
LINE
  5
54C7
  8
3
 10
194.1474913579338
 20
134.00000184774399
 30
0.0
 11
194.1474913579338
 21
117.00000092387199
 31
0.0
  0
LINE
  5
54C8
  8
3
 10
197.595402060732
 20
134.00000184774399
 30
0.0
 11
197.595402060732
 21
117.00000092387199
 31
0.0
  0
LINE
  5
54C9
  8
3
 10
198.85949135793371
 20
134.00000184774399
 30
0.0
 11
198.85949135793371
 21
117.00000092387199
 31
0.0
  0
LINE
  5
54CA
  8
3
 10
202.30740206073199
 20
134.00000184774399
 30
0.0
 11
202.30740206073199
 21
117.00000092387199
 31
0.0
  0
LINE
  5
54CB
  8
3
 10
203.5714913579337
 20
134.00000184774399
 30
0.0
 11
203.5714913579337
 21
117.00000092387199
 31
0.0
  0
LINE
  5
54CC
  8
3
 10
207.01940206073201
 20
134.00000184774399
 30
0.0
 11
207.01940206073201
 21
117.00000092387199
 31
0.0
  0
LINE
  5
54CD
  8
3
 10
208.2834913579338
 20
134.00000184774399
 30
0.0
 11
208.2834913579338
 21
117.00000092387199
 31
0.0
  0
LINE
  5
54CE
  8
3
 10
211.73140206073199
 20
134.00000184774399
 30
0.0
 11
211.73140206073199
 21
117.00000092387199
 31
0.0
  0
LINE
  5
54CF
  8
3
 10
212.9954913579337
 20
134.00000184774399
 30
0.0
 11
212.9954913579337
 21
117.00000092387199
 31
0.0
  0
LINE
  5
54D0
  8
3
 10
216.44340206073201
 20
134.00000184774399
 30
0.0
 11
216.44340206073201
 21
117.00000092387199
 31
0.0
  0
LINE
  5
54D1
  8
3
 10
217.70749135793369
 20
134.00000184774399
 30
0.0
 11
217.70749135793369
 21
117.00000092387199
 31
0.0
  0
LINE
  5
54D2
  8
3
 10
221.155402060732
 20
134.00000184774399
 30
0.0
 11
221.155402060732
 21
117.00000092387199
 31
0.0
  0
LINE
  5
54D3
  8
3
 10
222.41949135793371
 20
134.00000184774399
 30
0.0
 11
222.41949135793371
 21
117.00000092387199
 31
0.0
  0
LINE
  5
54D4
  8
3
 10
225.86740206073191
 20
134.00000184774399
 30
0.0
 11
225.86740206073191
 21
117.00000092387199
 31
0.0
  0
LINE
  5
54D5
  8
3
 10
227.1314913579337
 20
134.00000184774399
 30
0.0
 11
227.1314913579337
 21
117.00000092387199
 31
0.0
  0
LINE
  5
54D6
  8
3
 10
230.57940206073189
 20
134.00000184774399
 30
0.0
 11
230.57940206073189
 21
117.00000092387199
 31
0.0
  0
LINE
  5
54D7
  8
3
 10
231.84349135793369
 20
134.00000184774399
 30
0.0
 11
231.84349135793369
 21
117.00000092387199
 31
0.0
  0
LINE
  5
54D8
  8
3
 10
235.291402060732
 20
134.00000184774399
 30
0.0
 11
235.291402060732
 21
117.00000092387199
 31
0.0
  0
LINE
  5
54D9
  8
3
 10
236.5554913579337
 20
134.00000184774399
 30
0.0
 11
236.5554913579337
 21
117.00000092387199
 31
0.0
  0
LINE
  5
54DA
  8
3
 10
240.0034020607319
 20
134.00000184774399
 30
0.0
 11
240.0034020607319
 21
117.00000092387199
 31
0.0
  0
LINE
  5
54DB
  8
3
 10
241.26749135793369
 20
134.00000184774399
 30
0.0
 11
241.26749135793369
 21
117.00000092387199
 31
0.0
  0
LINE
  5
54DC
  8
3
 10
244.71540206073189
 20
134.00000184774399
 30
0.0
 11
244.71540206073189
 21
117.00000092387199
 31
0.0
  0
LINE
  5
54DD
  8
3
 10
245.97949135793371
 20
134.00000184774399
 30
0.0
 11
245.97949135793371
 21
117.00000092387199
 31
0.0
  0
LINE
  5
54DE
  8
3
 10
249.42740206073191
 20
134.00000184774399
 30
0.0
 11
249.42740206073191
 21
117.00000092387199
 31
0.0
  0
LINE
  5
54DF
  8
3
 10
250.69149135793359
 20
134.00000184774399
 30
0.0
 11
250.69149135793359
 21
117.00000092387199
 31
0.0
  0
LINE
  5
54E0
  8
3
 10
254.1394020607319
 20
134.00000184774399
 30
0.0
 11
254.1394020607319
 21
117.00000092387199
 31
0.0
  0
LINE
  5
54E1
  8
3
 10
255.4034913579336
 20
134.00000184774399
 30
0.0
 11
255.4034913579336
 21
117.00000092387199
 31
0.0
  0
LINE
  5
54E2
  8
3
 10
258.8514020607318
 20
134.00000184774399
 30
0.0
 11
258.8514020607318
 21
117.00000092387199
 31
0.0
  0
LINE
  5
54E3
  8
3
 10
260.11549135793359
 20
134.00000184774399
 30
0.0
 11
260.11549135793359
 21
117.00000092387199
 31
0.0
  0
LINE
  5
54E4
  8
3
 10
263.56340206073179
 20
134.00000184774399
 30
0.0
 11
263.56340206073179
 21
117.00000092387199
 31
0.0
  0
LINE
  5
54E5
  8
3
 10
264.82749135793358
 20
134.00000184774399
 30
0.0
 11
264.82749135793358
 21
117.00000092387199
 31
0.0
  0
LINE
  5
54E6
  8
3
 10
268.27540206073189
 20
134.00000184774399
 30
0.0
 11
268.27540206073189
 21
117.00000092387199
 31
0.0
  0
LINE
  5
54E7
  8
3
 10
269.53949135793363
 20
134.00000184774399
 30
0.0
 11
269.53949135793363
 21
117.00000092387199
 31
0.0
  0
LINE
  5
54E8
  8
3
 10
272.98740206073182
 20
134.00000184774399
 30
0.0
 11
272.98740206073182
 21
117.00000092387199
 31
0.0
  0
LINE
  5
54E9
  8
3
 10
274.25149135793362
 20
134.00000184774399
 30
0.0
 11
274.25149135793362
 21
117.00000092387199
 31
0.0
  0
LINE
  5
54EA
  8
3
 10
277.69940206073181
 20
134.00000184774399
 30
0.0
 11
277.69940206073181
 21
117.00000092387199
 31
0.0
  0
LINE
  5
54EB
  8
3
 10
278.96349135793361
 20
134.00000184774399
 30
0.0
 11
278.96349135793361
 21
117.00000092387199
 31
0.0
  0
LINE
  5
54EC
  8
3
 10
282.4114020607318
 20
134.00000184774399
 30
0.0
 11
282.4114020607318
 21
117.00000092387199
 31
0.0
  0
LINE
  5
54ED
  8
3
 10
283.67549135793348
 20
134.00000184774399
 30
0.0
 11
283.67549135793348
 21
117.00000092387199
 31
0.0
  0
LINE
  5
54EE
  8
3
 10
287.12340206073179
 20
134.00000184774399
 30
0.0
 11
287.12340206073179
 21
117.00000092387199
 31
0.0
  0
LINE
  5
54EF
  8
3
 10
288.38749135793353
 20
134.00000184774399
 30
0.0
 11
288.38749135793353
 21
117.00000092387199
 31
0.0
  0
LINE
  5
54F0
  8
3
 10
291.83540206073178
 20
134.00000184774399
 30
0.0
 11
291.83540206073178
 21
117.00000092387199
 31
0.0
  0
LINE
  5
54F1
  8
3
 10
293.09949135793352
 20
134.00000184774399
 30
0.0
 11
293.09949135793352
 21
117.00000092387199
 31
0.0
  0
LINE
  5
54F2
  8
3
 10
296.54740206073183
 20
134.00000184774399
 30
0.0
 11
296.54740206073183
 21
117.00000092387199
 31
0.0
  0
LINE
  5
54F3
  8
3
 10
297.81149135793351
 20
134.00000184774399
 30
0.0
 11
297.81149135793351
 21
117.00000092387199
 31
0.0
  0
LINE
  5
54F4
  8
3
 10
301.25940206073182
 20
134.00000184774399
 30
0.0
 11
301.25940206073182
 21
117.00000092387199
 31
0.0
  0
LINE
  5
54F5
  8
3
 10
302.52349135793349
 20
134.00000184774399
 30
0.0
 11
302.52349135793349
 21
117.00000092387199
 31
0.0
  0
ENDSEC
  0
EOF
