  0
SECTION
  2
HEADER
  9
$ACADVER
  1
AC1009
  9
$INSBASE
 10
0.0
 20
0.0
 30
0.0
  9
$EXTMIN
 10
0.0
 20
-2.960436562073669
 30
0.0
  9
$EXTMAX
 10
268.99999275058508
 20
127.9999999329448
 30
0.0
  9
$LIMMIN
 10
0.0
 20
0.0
  9
$LIMMAX
 10
275.0
 20
175.0
  9
$ORTHOMODE
 70
     1
  9
$REGENMODE
 70
     1
  9
$FILLMODE
 70
     1
  9
$QTEXTMODE
 70
     0
  9
$MIRRTEXT
 70
     0
  9
$DRAGMODE
 70
     2
  9
$LTSCALE
 40
5.0
  9
$OSMODE
 70
    37
  9
$ATTMODE
 70
     1
  9
$TEXTSIZE
 40
0.2
  9
$TRACEWID
 40
0.05
  9
$TEXTSTYLE
  7
STANDARD
  9
$CLAYER
  8
0
  9
$CELTYPE
  6
BYLAYER
  9
$CECOLOR
 62
   256
  9
$DIMSCALE
 40
1.0
  9
$DIMASZ
 40
3.0
  9
$DIMEXO
 40
1.0
  9
$DIMDLI
 40
6.0
  9
$DIMRND
 40
0.0
  9
$DIMDLE
 40
0.0
  9
$DIMEXE
 40
1.0
  9
$DIMTP
 40
495.0
  9
$DIMTM
 40
0.0
  9
$DIMTXT
 40
3.0
  9
$DIMCEN
 40
0.0
  9
$DIMTSZ
 40
0.0
  9
$DIMTOL
 70
     0
  9
$DIMLIM
 70
     0
  9
$DIMTIH
 70
     0
  9
$DIMTOH
 70
     0
  9
$DIMSE1
 70
     0
  9
$DIMSE2
 70
     0
  9
$DIMTAD
 70
     1
  9
$DIMZIN
 70
     8
  9
$DIMBLK
  1

  9
$DIMASO
 70
     0
  9
$DIMSHO
 70
     0
  9
$DIMPOST
  1

  9
$DIMAPOST
  1

  9
$DIMALT
 70
     0
  9
$DIMALTD
 70
     2
  9
$DIMALTF
 40
25.399999999999999
  9
$DIMLFAC
 40
1.0
  9
$DIMTOFL
 70
     1
  9
$DIMTVP
 40
0.0
  9
$DIMTIX
 70
     1
  9
$DIMSOXD
 70
     0
  9
$DIMSAH
 70
     0
  9
$DIMBLK1
  1

  9
$DIMBLK2
  1

  9
$DIMSTYLE
  2
STANDARD
  9
$DIMCLRD
 70
     0
  9
$DIMCLRE
 70
     0
  9
$DIMCLRT
 70
     0
  9
$DIMTFAC
 40
1.0
  9
$DIMGAP
 40
1.0
  9
$LUNITS
 70
     2
  9
$LUPREC
 70
     1
  9
$SKETCHINC
 40
0.1
  9
$FILLETRAD
 40
0.0
  9
$AUNITS
 70
     0
  9
$AUPREC
 70
     0
  9
$MENU
  1
E:\r13\win\SUPPORT\ACAD
  9
$ELEVATION
 40
0.0
  9
$PELEVATION
 40
0.0
  9
$THICKNESS
 40
0.0
  9
$LIMCHECK
 70
     0
  9
$BLIPMODE
 70
     0
  9
$CHAMFERA
 40
0.0
  9
$CHAMFERB
 40
0.0
  9
$SKPOLY
 70
     0
  9
$TDCREATE
 40
2450653.5278402781
  9
$TDUPDATE
 40
2459439.6129115052
  9
$TDINDWG
 40
0.4024317593
  9
$TDUSRTIMER
 40
0.4024317593
  9
$USRTIMER
 70
     1
  9
$ANGBASE
 50
0.0
  9
$ANGDIR
 70
     0
  9
$PDMODE
 70
     0
  9
$PDSIZE
 40
0.0
  9
$PLINEWID
 40
0.0
  9
$COORDS
 70
     1
  9
$SPLFRAME
 70
     0
  9
$SPLINETYPE
 70
     6
  9
$SPLINESEGS
 70
     8
  9
$ATTDIA
 70
     0
  9
$ATTREQ
 70
     1
  9
$HANDLING
 70
     1
  9
$HANDSEED
  5
3B14
  9
$SURFTAB1
 70
     6
  9
$SURFTAB2
 70
     6
  9
$SURFTYPE
 70
     6
  9
$SURFU
 70
     6
  9
$SURFV
 70
     6
  9
$UCSNAME
  2

  9
$UCSORG
 10
0.0
 20
0.0
 30
0.0
  9
$UCSXDIR
 10
1.0
 20
0.0
 30
0.0
  9
$UCSYDIR
 10
0.0
 20
1.0
 30
0.0
  9
$PUCSNAME
  2

  9
$PUCSORG
 10
0.0
 20
0.0
 30
0.0
  9
$PUCSXDIR
 10
1.0
 20
0.0
 30
0.0
  9
$PUCSYDIR
 10
0.0
 20
1.0
 30
0.0
  9
$USERI1
 70
     4
  9
$USERI2
 70
     1
  9
$USERI3
 70
     1
  9
$USERI4
 70
     0
  9
$USERI5
 70
     0
  9
$USERR1
 40
1.0
  9
$USERR2
 40
3.0
  9
$USERR3
 40
3.0
  9
$USERR4
 40
3.0
  9
$USERR5
 40
10.0
  9
$WORLDVIEW
 70
     1
  9
$SHADEDGE
 70
     3
  9
$SHADEDIF
 70
    70
  9
$TILEMODE
 70
     1
  9
$MAXACTVP
 70
    16
  9
$PLIMCHECK
 70
     0
  9
$PEXTMIN
 10
1.0000000000000000E+020
 20
1.0000000000000000E+020
 30
1.0000000000000000E+020
  9
$PEXTMAX
 10
-1.0000000000000000E+020
 20
-1.0000000000000000E+020
 30
-1.0000000000000000E+020
  9
$PLIMMIN
 10
0.0
 20
0.0
  9
$PLIMMAX
 10
12.0
 20
9.0
  9
$UNITMODE
 70
     0
  9
$VISRETAIN
 70
     0
  9
$PLINEGEN
 70
     0
  9
$PSLTSCALE
 70
     0
  0
ENDSEC
  0
SECTION
  2
TABLES
  0
TABLE
  2
VPORT
 70
     1
  0
VPORT
  2
*ACTIVE
 70
     0
 10
0.0
 20
0.0
 11
1.0
 21
1.0
 12
260.1957585644372
 22
100.0
 13
0.0
 23
0.0
 14
5.0
 24
5.0
 15
10.0
 25
10.0
 16
0.0
 26
0.0
 36
1.0
 17
0.0
 27
0.0
 37
0.0
 40
200.0
 41
2.6019575856443722
 42
50.0
 43
0.0
 44
0.0
 50
0.0
 51
0.0
 71
     0
 72
   100
 73
     1
 74
     0
 75
     0
 76
     0
 77
     0
 78
     0
  0
ENDTAB
  0
TABLE
  2
LTYPE
 70
     4
  0
LTYPE
  2
CONTINUOUS
 70
     0
  3
Solid Line
 72
    65
 73
     0
 40
0.0
  0
LTYPE
  2
CENTER
 70
     0
  3
____ _ ____ _ ____ _ ____ _ ____ _ ____ _ ____ 
 72
    65
 73
     4
 40
2.0
 49
1.25
 49
-0.25
 49
0.25
 49
-0.25
  0
LTYPE
  2
PHANTOM2
 70
     0
  3
___ _ _ ___ _ _ ___ _ _ ___ _ _
 72
    65
 73
     6
 40
1.25
 49
0.625
 49
-0.125
 49
0.125
 49
-0.125
 49
0.125
 49
-0.125
  0
LTYPE
  2
HIDDEN
 70
     0
  3
__ __ __ __ __ __ __ __ __ __ __ __ __ __ __ __
 72
    65
 73
     2
 40
0.375
 49
0.25
 49
-0.125
  0
ENDTAB
  0
TABLE
  2
LAYER
 70
     5
  0
LAYER
  2
0
 70
     0
 62
     7
  6
CONTINUOUS
  0
LAYER
  2
1
 70
     0
 62
     1
  6
CENTER
  0
LAYER
  2
DEFPOINTS
 70
     0
 62
     7
  6
CONTINUOUS
  0
LAYER
  2
3
 70
     0
 62
     3
  6
CONTINUOUS
  0
LAYER
  2
2
 70
     0
 62
     2
  6
HIDDEN
  0
ENDTAB
  0
TABLE
  2
STYLE
 70
     2
  0
STYLE
  2
STANDARD
 70
     0
 40
0.0
 41
1.0
 50
0.0
 71
     0
 42
0.2
  3
simplex
  4
bigfont
  0
STYLE
  2
STANDARD1
 70
     0
 40
0.0
 41
1.0
 50
0.0
 71
     0
 42
3.0
  3
txt
  4

  0
ENDTAB
  0
TABLE
  2
VIEW
 70
     0
  0
ENDTAB
  0
TABLE
  2
UCS
 70
     0
  0
ENDTAB
  0
TABLE
  2
APPID
 70
     9
  0
APPID
  2
ACAD
 70
     0
  0
APPID
  2
_CALL_MAC$
 70
     0
  0
APPID
  2
ACAD_MLEADERVER
 70
     0
  0
APPID
  2
ACAD_EXEMPT_FROM_CAD_STANDARDS
 70
     0
  0
APPID
  2
ACAD_NAV_VCDISPLAY
 70
     0
  0
APPID
  2
ACAD_DSTYLE_DIMJAG
 70
     0
  0
APPID
  2
ACAD_DSTYLE_DIMTALN
 70
     0
  0
APPID
  2
ACAECLAYERSTANDARD
 70
     0
  0
APPID
  2
ACCMTRANSPARENCY
 70
     0
  0
ENDTAB
  0
TABLE
  2
DIMSTYLE
 70
     1
  0
DIMSTYLE
  2
STANDARD
 70
     0
  3

  4

  5

  6

  7

 40
1.0
 41
0.18
 42
0.0625
 43
0.38
 44
0.18
 45
0.0
 46
0.0
 47
0.0
 48
0.0
140
0.18
141
0.09
142
0.0
143
25.399999999999999
144
1.0
145
0.0
146
1.0
147
0.09
 71
     0
 72
     0
 73
     1
 74
     1
 75
     0
 76
     0
 77
     0
 78
     0
170
     0
171
     2
172
     0
173
     0
174
     0
175
     0
176
     0
177
     0
178
     0
  0
ENDTAB
  0
ENDSEC
  0
SECTION
  2
BLOCKS
  0
BLOCK
  8
0
  2
$MODEL_SPACE
 70
     2
 10
0.0
 20
0.0
 30
0.0
  3
$MODEL_SPACE
  1

  0
ENDBLK
  5
7
  8
0
  0
BLOCK
 67
     1
  8
0
  2
$PAPER_SPACE
 70
     0
 10
0.0
 20
0.0
 30
0.0
  3
$PAPER_SPACE
  1

  0
ENDBLK
  5
A
 67
     1
  8
0
  0
ENDSEC
  0
SECTION
  2
ENTITIES
  0
TEXT
  5
2BF
  8
0
 62
     3
 10
0.0
 20
0.0
 30
0.0
 40
10.0
  1
ZCR-1.0-150-T
  7
STANDARD1
  0
LINE
  5
35F0
  8
0
 10
50.0
 20
50.0
 30
0.0
 11
200.99999308586121
 21
50.0
 31
0.0
  0
LINE
  5
35F1
  8
0
 10
200.99999308586121
 20
54.000000189989798
 30
0.0
 11
50.0
 21
54.000000189989798
 31
0.0
  0
LINE
  5
36B5
  8
0
 10
50.0
 20
58.00000037997961
 30
0.0
 11
200.99999308586121
 21
58.00000037997961
 31
0.0
  0
LINE
  5
36B6
  8
0
 10
200.99999308586121
 20
50.0
 30
0.0
 11
200.99999308586121
 21
60.75000026822088
 31
0.0
  0
LINE
  5
36B7
  8
0
 10
50.0
 20
60.750000268220901
 30
0.0
 11
50.0
 21
50.0
 31
0.0
  0
LINE
  5
38FE
  8
0
 10
261.49999294430017
 20
58.00000037997961
 30
0.0
 11
261.49999294430017
 21
54.000000189989798
 31
0.0
  0
LINE
  5
38FF
  8
0
 10
261.49999294430017
 20
54.000000189989798
 30
0.0
 11
265.99999275058508
 21
54.000000189989798
 31
0.0
  0
LINE
  5
3900
  8
0
 10
265.99999275058508
 20
50.0
 30
0.0
 11
265.99999275058508
 21
54.000000189989798
 31
0.0
  0
LINE
  5
3901
  8
0
 10
250.99999308586121
 20
50.0
 30
0.0
 11
265.99999275058508
 21
50.0
 31
0.0
  0
LINE
  5
3902
  8
0
 10
250.99999308586121
 20
50.0
 30
0.0
 11
250.99999308586121
 21
54.000000189989798
 31
0.0
  0
LINE
  5
3903
  8
0
 10
250.99999308586121
 20
54.000000189989798
 30
0.0
 11
255.49999289214611
 21
54.000000189989798
 31
0.0
  0
LINE
  5
3904
  8
0
 10
255.49999289214611
 20
54.000000189989798
 30
0.0
 11
255.49999289214611
 21
58.00000037997961
 31
0.0
  0
LINE
  5
3905
  8
0
 10
255.49999289214611
 20
58.00000037997961
 30
0.0
 11
250.99999308586121
 21
58.00000037997961
 31
0.0
  0
LINE
  5
3906
  8
0
 10
250.99999308586121
 20
58.00000037997961
 30
0.0
 11
250.99999308586121
 21
63.000000268220901
 31
0.0
  0
LINE
  5
3907
  8
0
 10
250.99999308586121
 20
60.750000268220901
 30
0.0
 11
265.99999275058508
 21
60.750000268220901
 31
0.0
  0
LINE
  5
3908
  8
0
 10
265.99999275058508
 20
58.00000037997961
 30
0.0
 11
265.99999275058508
 21
63.000000268220901
 31
0.0
  0
LINE
  5
3909
  8
0
 10
265.99999275058508
 20
58.00000037997961
 30
0.0
 11
261.49999294430017
 21
58.00000037997961
 31
0.0
  0
LINE
  5
390A
  8
0
 10
250.99999308586121
 20
63.000000268220901
 30
0.0
 11
265.99999275058508
 21
63.000000268220901
 31
0.0
  0
LINE
  5
390F
  8
0
 10
49.999999999999979
 20
127.9999999329447
 30
0.0
 11
200.99999308586121
 21
127.9999999329447
 31
0.0
  0
LINE
  5
3910
  8
0
 10
200.99999308586121
 20
127.9999999329447
 30
0.0
 11
200.99999308586121
 21
113.0000002682209
 31
0.0
  0
LINE
  5
3911
  8
0
 10
200.99999308586121
 20
113.0000002682209
 30
0.0
 11
49.999999999999979
 21
113.0000002682209
 31
0.0
  0
LINE
  5
3912
  8
0
 10
49.999999999999979
 20
113.0000002682209
 30
0.0
 11
49.999999999999979
 21
127.9999999329447
 31
0.0
  0
LINE
  5
391D
  8
0
 10
50.139996409416199
 20
60.75000026822088
 30
0.0
 11
50.0
 21
60.75000026822088
 31
0.0
  0
LINE
  5
391E
  8
1
 10
203.29492199508229
 20
61.999999932944789
 30
0.0
 11
47.139996409416199
 21
61.999999932944803
 31
0.0
  0
LINE
  5
391F
  8
0
 10
51.80198896798283
 20
63.000000268220901
 30
0.0
 11
50.958929436515241
 21
63.000000268220901
 31
0.0
  0
LINE
  5
3920
  8
0
 10
54.94398896798311
 20
63.000000268220901
 30
0.0
 11
54.100929436515521
 21
63.000000268220901
 31
0.0
  0
LINE
  5
3921
  8
0
 10
58.085988967982942
 20
63.000000268220901
 30
0.0
 11
57.24292943651534
 21
63.000000268220901
 31
0.0
  0
LINE
  5
3922
  8
0
 10
61.22798896798276
 20
63.000000268220901
 30
0.0
 11
60.384929436515172
 21
63.000000268220901
 31
0.0
  0
LINE
  5
3923
  8
0
 10
64.369988967983033
 20
63.000000268220901
 30
0.0
 11
63.526929436515452
 21
63.000000268220901
 31
0.0
  0
LINE
  5
3924
  8
0
 10
67.511988967982845
 20
63.000000268220901
 30
0.0
 11
66.66892943651527
 21
63.000000268220901
 31
0.0
  0
LINE
  5
3925
  8
0
 10
51.80198896798283
 20
63.000000268220901
 30
0.0
 11
52.620921995081808
 21
60.750000268220901
 31
0.0
  0
LINE
  5
3926
  8
0
 10
50.139996409416199
 20
60.750000268220901
 30
0.0
 11
50.958929436515241
 21
63.000000268220901
 31
0.0
  0
LINE
  5
3927
  8
0
 10
67.511988967982845
 20
63.000000268220901
 30
0.0
 11
68.330921995081823
 21
60.750000268220901
 31
0.0
  0
LINE
  5
3928
  8
0
 10
65.849996409416235
 20
60.750000268220901
 30
0.0
 11
66.66892943651527
 21
63.000000268220901
 31
0.0
  0
LINE
  5
3929
  8
0
 10
64.369988967983033
 20
63.000000268220901
 30
0.0
 11
65.188921995082012
 21
60.750000268220901
 31
0.0
  0
LINE
  5
392A
  8
0
 10
62.707996409416417
 20
60.750000268220901
 30
0.0
 11
63.526929436515452
 21
63.000000268220901
 31
0.0
  0
LINE
  5
392B
  8
0
 10
61.22798896798276
 20
63.000000268220901
 30
0.0
 11
62.046921995081739
 21
60.750000268220901
 31
0.0
  0
LINE
  5
392C
  8
0
 10
59.565996409416137
 20
60.750000268220901
 30
0.0
 11
60.384929436515172
 21
63.000000268220901
 31
0.0
  0
LINE
  5
392D
  8
0
 10
58.085988967982942
 20
63.000000268220901
 30
0.0
 11
58.904921995081907
 21
60.750000268220901
 31
0.0
  0
LINE
  5
392E
  8
0
 10
56.423996409416311
 20
60.750000268220901
 30
0.0
 11
57.24292943651534
 21
63.000000268220901
 31
0.0
  0
LINE
  5
392F
  8
0
 10
54.94398896798311
 20
63.000000268220901
 30
0.0
 11
55.762921995081577
 21
60.750000268220901
 31
0.0
  0
LINE
  5
3930
  8
0
 10
53.281996409416479
 20
60.750000268220901
 30
0.0
 11
54.100929436515521
 21
63.000000268220901
 31
0.0
  0
LINE
  5
3931
  8
0
 10
65.849996409416235
 20
60.750000268220901
 30
0.0
 11
65.188921995082012
 21
60.750000268220873
 31
0.0
  0
LINE
  5
3932
  8
0
 10
62.707996409416417
 20
60.75000026822088
 30
0.0
 11
62.046921995081739
 21
60.75000026822088
 31
0.0
  0
LINE
  5
3933
  8
0
 10
59.565996409416137
 20
60.75000026822088
 30
0.0
 11
58.904921995081907
 21
60.75000026822088
 31
0.0
  0
LINE
  5
3934
  8
0
 10
56.423996409416311
 20
60.75000026822088
 30
0.0
 11
55.762921995081577
 21
60.75000026822088
 31
0.0
  0
LINE
  5
3935
  8
0
 10
53.281996409416479
 20
60.75000026822088
 30
0.0
 11
52.620921995081808
 21
60.750000268220901
 31
0.0
  0
LINE
  5
3936
  8
0
 10
70.653988967983125
 20
63.000000268220901
 30
0.0
 11
69.810929436515551
 21
63.000000268220901
 31
0.0
  0
LINE
  5
3937
  8
0
 10
73.795988967982964
 20
63.000000268220901
 30
0.0
 11
72.952929436515376
 21
63.000000268220901
 31
0.0
  0
LINE
  5
3938
  8
0
 10
76.93798896798279
 20
63.000000268220901
 30
0.0
 11
76.094929436515201
 21
63.000000268220901
 31
0.0
  0
LINE
  5
3939
  8
0
 10
80.07998896798307
 20
63.000000268220901
 30
0.0
 11
79.236929436515481
 21
63.000000268220901
 31
0.0
  0
LINE
  5
393A
  8
0
 10
83.221988967982895
 20
63.000000268220901
 30
0.0
 11
82.378929436515307
 21
63.000000268220901
 31
0.0
  0
LINE
  5
393B
  8
0
 10
83.221988967982895
 20
63.000000268220901
 30
0.0
 11
84.040921995081874
 21
60.750000268220901
 31
0.0
  0
LINE
  5
393C
  8
0
 10
81.559996409416286
 20
60.750000268220901
 30
0.0
 11
82.378929436515307
 21
63.000000268220901
 31
0.0
  0
LINE
  5
393D
  8
0
 10
80.07998896798307
 20
63.000000268220901
 30
0.0
 11
80.898921995082034
 21
60.750000268220901
 31
0.0
  0
LINE
  5
393E
  8
0
 10
78.417996409416446
 20
60.750000268220901
 30
0.0
 11
79.236929436515481
 21
63.000000268220901
 31
0.0
  0
LINE
  5
393F
  8
0
 10
76.93798896798279
 20
63.000000268220901
 30
0.0
 11
77.756921995081768
 21
60.750000268220901
 31
0.0
  0
LINE
  5
3940
  8
0
 10
75.275996409416166
 20
60.750000268220901
 30
0.0
 11
76.094929436515201
 21
63.000000268220901
 31
0.0
  0
LINE
  5
3941
  8
0
 10
73.795988967982964
 20
63.000000268220901
 30
0.0
 11
74.614921995081943
 21
60.750000268220901
 31
0.0
  0
LINE
  5
3942
  8
0
 10
72.133996409416341
 20
60.750000268220901
 30
0.0
 11
72.952929436515376
 21
63.000000268220901
 31
0.0
  0
LINE
  5
3943
  8
0
 10
70.653988967983125
 20
63.000000268220901
 30
0.0
 11
71.472921995081606
 21
60.750000268220901
 31
0.0
  0
LINE
  5
3944
  8
0
 10
68.991996409416515
 20
60.750000268220901
 30
0.0
 11
69.810929436515551
 21
63.000000268220901
 31
0.0
  0
LINE
  5
3945
  8
0
 10
81.559996409416286
 20
60.750000268220901
 30
0.0
 11
80.898921995082034
 21
60.750000268220873
 31
0.0
  0
LINE
  5
3946
  8
0
 10
78.417996409416446
 20
60.75000026822088
 30
0.0
 11
77.756921995081768
 21
60.75000026822088
 31
0.0
  0
LINE
  5
3947
  8
0
 10
75.275996409416166
 20
60.75000026822088
 30
0.0
 11
74.614921995081943
 21
60.75000026822088
 31
0.0
  0
LINE
  5
3948
  8
0
 10
72.133996409416341
 20
60.75000026822088
 30
0.0
 11
71.472921995081606
 21
60.75000026822088
 31
0.0
  0
LINE
  5
3949
  8
0
 10
68.991996409416515
 20
60.75000026822088
 30
0.0
 11
68.330921995081823
 21
60.750000268220901
 31
0.0
  0
LINE
  5
394A
  8
0
 10
86.363988967983175
 20
63.000000268220901
 30
0.0
 11
85.520929436515587
 21
63.000000268220901
 31
0.0
  0
LINE
  5
394B
  8
0
 10
89.505988967983001
 20
63.000000268220901
 30
0.0
 11
88.662929436515427
 21
63.000000268220901
 31
0.0
  0
LINE
  5
394C
  8
0
 10
92.647988967982826
 20
63.000000268220901
 30
0.0
 11
91.804929436515238
 21
63.000000268220901
 31
0.0
  0
LINE
  5
394D
  8
0
 10
95.789988967983106
 20
63.000000268220901
 30
0.0
 11
94.946929436515518
 21
63.000000268220901
 31
0.0
  0
LINE
  5
394E
  8
0
 10
98.931988967982946
 20
63.000000268220901
 30
0.0
 11
98.088929436515343
 21
63.000000268220901
 31
0.0
  0
LINE
  5
394F
  8
0
 10
98.931988967982946
 20
63.000000268220901
 30
0.0
 11
99.75092199508191
 21
60.750000268220901
 31
0.0
  0
LINE
  5
3950
  8
0
 10
97.269996409416308
 20
60.750000268220901
 30
0.0
 11
98.088929436515343
 21
63.000000268220901
 31
0.0
  0
LINE
  5
3951
  8
0
 10
95.789988967983106
 20
63.000000268220901
 30
0.0
 11
96.608921995082085
 21
60.750000268220901
 31
0.0
  0
LINE
  5
3952
  8
0
 10
94.127996409416468
 20
60.750000268220901
 30
0.0
 11
94.946929436515518
 21
63.000000268220901
 31
0.0
  0
LINE
  5
3953
  8
0
 10
92.647988967982826
 20
63.000000268220901
 30
0.0
 11
93.466921995081805
 21
60.750000268220901
 31
0.0
  0
LINE
  5
3954
  8
0
 10
90.985996409416188
 20
60.750000268220901
 30
0.0
 11
91.804929436515238
 21
63.000000268220901
 31
0.0
  0
LINE
  5
3955
  8
0
 10
89.505988967983001
 20
63.000000268220901
 30
0.0
 11
90.324921995081965
 21
60.750000268220901
 31
0.0
  0
LINE
  5
3956
  8
0
 10
87.843996409416377
 20
60.750000268220901
 30
0.0
 11
88.662929436515427
 21
63.000000268220901
 31
0.0
  0
LINE
  5
3957
  8
0
 10
86.363988967983175
 20
63.000000268220901
 30
0.0
 11
87.182921995081642
 21
60.750000268220901
 31
0.0
  0
LINE
  5
3958
  8
0
 10
84.701996409416566
 20
60.750000268220901
 30
0.0
 11
85.520929436515587
 21
63.000000268220901
 31
0.0
  0
LINE
  5
3959
  8
0
 10
97.269996409416308
 20
60.750000268220901
 30
0.0
 11
96.608921995082085
 21
60.750000268220873
 31
0.0
  0
LINE
  5
395A
  8
0
 10
94.127996409416468
 20
60.75000026822088
 30
0.0
 11
93.466921995081805
 21
60.75000026822088
 31
0.0
  0
LINE
  5
395B
  8
0
 10
90.985996409416188
 20
60.75000026822088
 30
0.0
 11
90.324921995081965
 21
60.75000026822088
 31
0.0
  0
LINE
  5
395C
  8
0
 10
87.843996409416377
 20
60.75000026822088
 30
0.0
 11
87.182921995081642
 21
60.75000026822088
 31
0.0
  0
LINE
  5
395D
  8
0
 10
84.701996409416566
 20
60.75000026822088
 30
0.0
 11
84.040921995081874
 21
60.750000268220901
 31
0.0
  0
LINE
  5
395E
  8
0
 10
102.0739889679832
 20
63.000000268220901
 30
0.0
 11
101.23092943651559
 21
63.000000268220901
 31
0.0
  0
LINE
  5
395F
  8
0
 10
105.21598896798299
 20
63.000000268220901
 30
0.0
 11
104.37292943651541
 21
63.000000268220901
 31
0.0
  0
LINE
  5
3960
  8
0
 10
108.35798896798281
 20
63.000000268220901
 30
0.0
 11
107.5149294365153
 21
63.000000268220901
 31
0.0
  0
LINE
  5
3961
  8
0
 10
111.4999889679831
 20
63.000000268220901
 30
0.0
 11
110.6569294365155
 21
63.000000268220901
 31
0.0
  0
LINE
  5
3962
  8
0
 10
114.6419889679829
 20
63.000000268220901
 30
0.0
 11
113.79892943651529
 21
63.000000268220901
 31
0.0
  0
LINE
  5
3963
  8
0
 10
114.6419889679829
 20
63.000000268220901
 30
0.0
 11
115.4609219950819
 21
60.750000268220901
 31
0.0
  0
LINE
  5
3964
  8
0
 10
112.9799964094163
 20
60.750000268220901
 30
0.0
 11
113.79892943651529
 21
63.000000268220901
 31
0.0
  0
LINE
  5
3965
  8
0
 10
111.4999889679831
 20
63.000000268220901
 30
0.0
 11
112.31892199508211
 21
60.750000268220901
 31
0.0
  0
LINE
  5
3966
  8
0
 10
109.8379964094165
 20
60.750000268220901
 30
0.0
 11
110.6569294365155
 21
63.000000268220901
 31
0.0
  0
LINE
  5
3967
  8
0
 10
108.35798896798281
 20
63.000000268220901
 30
0.0
 11
109.1769219950818
 21
60.750000268220901
 31
0.0
  0
LINE
  5
3968
  8
0
 10
106.6959964094162
 20
60.750000268220901
 30
0.0
 11
107.5149294365153
 21
63.000000268220901
 31
0.0
  0
LINE
  5
3969
  8
0
 10
105.21598896798299
 20
63.000000268220901
 30
0.0
 11
106.034921995082
 21
60.750000268220901
 31
0.0
  0
LINE
  5
396A
  8
0
 10
103.5539964094164
 20
60.750000268220901
 30
0.0
 11
104.37292943651541
 21
63.000000268220901
 31
0.0
  0
LINE
  5
396B
  8
0
 10
102.0739889679832
 20
63.000000268220901
 30
0.0
 11
102.89292199508169
 21
60.750000268220901
 31
0.0
  0
LINE
  5
396C
  8
0
 10
100.4119964094166
 20
60.750000268220901
 30
0.0
 11
101.23092943651559
 21
63.000000268220901
 31
0.0
  0
LINE
  5
396D
  8
0
 10
112.9799964094163
 20
60.750000268220901
 30
0.0
 11
112.31892199508211
 21
60.750000268220873
 31
0.0
  0
LINE
  5
396E
  8
0
 10
109.8379964094165
 20
60.75000026822088
 30
0.0
 11
109.1769219950818
 21
60.75000026822088
 31
0.0
  0
LINE
  5
396F
  8
0
 10
106.6959964094162
 20
60.75000026822088
 30
0.0
 11
106.034921995082
 21
60.75000026822088
 31
0.0
  0
LINE
  5
3970
  8
0
 10
103.5539964094164
 20
60.75000026822088
 30
0.0
 11
102.89292199508169
 21
60.75000026822088
 31
0.0
  0
LINE
  5
3971
  8
0
 10
100.4119964094166
 20
60.75000026822088
 30
0.0
 11
99.75092199508191
 21
60.750000268220901
 31
0.0
  0
LINE
  5
3972
  8
0
 10
117.78398896798321
 20
63.000000268220901
 30
0.0
 11
116.9409294365156
 21
63.000000268220901
 31
0.0
  0
LINE
  5
3973
  8
0
 10
120.925988967983
 20
63.000000268220901
 30
0.0
 11
120.0829294365154
 21
63.000000268220901
 31
0.0
  0
LINE
  5
3974
  8
0
 10
124.0679889679828
 20
63.000000268220901
 30
0.0
 11
123.2249294365152
 21
63.000000268220901
 31
0.0
  0
LINE
  5
3975
  8
0
 10
127.20998896798309
 20
63.000000268220901
 30
0.0
 11
126.36692943651551
 21
63.000000268220901
 31
0.0
  0
LINE
  5
3976
  8
0
 10
130.35198896798289
 20
63.000000268220901
 30
0.0
 11
129.5089294365153
 21
63.000000268220901
 31
0.0
  0
LINE
  5
3977
  8
0
 10
130.35198896798289
 20
63.000000268220901
 30
0.0
 11
131.17092199508201
 21
60.750000268220901
 31
0.0
  0
LINE
  5
3978
  8
0
 10
128.68999640941641
 20
60.750000268220901
 30
0.0
 11
129.5089294365153
 21
63.000000268220901
 31
0.0
  0
LINE
  5
3979
  8
0
 10
127.20998896798309
 20
63.000000268220901
 30
0.0
 11
128.02892199508219
 21
60.750000268220901
 31
0.0
  0
LINE
  5
397A
  8
0
 10
125.5479964094165
 20
60.750000268220901
 30
0.0
 11
126.36692943651551
 21
63.000000268220901
 31
0.0
  0
LINE
  5
397B
  8
0
 10
124.0679889679828
 20
63.000000268220901
 30
0.0
 11
124.88692199508191
 21
60.750000268220901
 31
0.0
  0
LINE
  5
397C
  8
0
 10
122.4059964094162
 20
60.750000268220901
 30
0.0
 11
123.2249294365152
 21
63.000000268220901
 31
0.0
  0
LINE
  5
397D
  8
0
 10
120.925988967983
 20
63.000000268220901
 30
0.0
 11
121.74492199508209
 21
60.750000268220901
 31
0.0
  0
LINE
  5
397E
  8
0
 10
119.26399640941639
 20
60.750000268220901
 30
0.0
 11
120.0829294365154
 21
63.000000268220901
 31
0.0
  0
LINE
  5
397F
  8
0
 10
117.78398896798321
 20
63.000000268220901
 30
0.0
 11
118.6029219950817
 21
60.750000268220901
 31
0.0
  0
LINE
  5
3980
  8
0
 10
116.1219964094166
 20
60.750000268220901
 30
0.0
 11
116.9409294365156
 21
63.000000268220901
 31
0.0
  0
LINE
  5
3981
  8
0
 10
128.68999640941641
 20
60.750000268220901
 30
0.0
 11
128.02892199508219
 21
60.750000268220873
 31
0.0
  0
LINE
  5
3982
  8
0
 10
125.5479964094165
 20
60.75000026822088
 30
0.0
 11
124.88692199508191
 21
60.75000026822088
 31
0.0
  0
LINE
  5
3983
  8
0
 10
122.4059964094162
 20
60.75000026822088
 30
0.0
 11
121.74492199508209
 21
60.75000026822088
 31
0.0
  0
LINE
  5
3984
  8
0
 10
119.26399640941639
 20
60.75000026822088
 30
0.0
 11
118.6029219950817
 21
60.75000026822088
 31
0.0
  0
LINE
  5
3985
  8
0
 10
116.1219964094166
 20
60.75000026822088
 30
0.0
 11
115.4609219950819
 21
60.750000268220901
 31
0.0
  0
LINE
  5
3986
  8
0
 10
133.4939889679832
 20
63.000000268220901
 30
0.0
 11
132.65092943651561
 21
63.000000268220901
 31
0.0
  0
LINE
  5
3987
  8
0
 10
136.635988967983
 20
63.000000268220901
 30
0.0
 11
135.79292943651541
 21
63.000000268220901
 31
0.0
  0
LINE
  5
3988
  8
0
 10
139.77798896798291
 20
63.000000268220901
 30
0.0
 11
138.93492943651529
 21
63.000000268220901
 31
0.0
  0
LINE
  5
3989
  8
0
 10
142.9199889679831
 20
63.000000268220901
 30
0.0
 11
142.0769294365156
 21
63.000000268220901
 31
0.0
  0
LINE
  5
398A
  8
0
 10
146.06198896798301
 20
63.000000268220901
 30
0.0
 11
145.2189294365154
 21
63.000000268220901
 31
0.0
  0
LINE
  5
398B
  8
0
 10
146.06198896798301
 20
63.000000268220901
 30
0.0
 11
146.88092199508199
 21
60.750000268220901
 31
0.0
  0
LINE
  5
398C
  8
0
 10
144.39999640941639
 20
60.750000268220901
 30
0.0
 11
145.2189294365154
 21
63.000000268220901
 31
0.0
  0
LINE
  5
398D
  8
0
 10
142.9199889679831
 20
63.000000268220901
 30
0.0
 11
143.73892199508219
 21
60.750000268220901
 31
0.0
  0
LINE
  5
398E
  8
0
 10
141.25799640941659
 20
60.750000268220901
 30
0.0
 11
142.0769294365156
 21
63.000000268220901
 31
0.0
  0
LINE
  5
398F
  8
0
 10
139.77798896798291
 20
63.000000268220901
 30
0.0
 11
140.596921995082
 21
60.750000268220901
 31
0.0
  0
LINE
  5
3990
  8
0
 10
138.11599640941631
 20
60.750000268220901
 30
0.0
 11
138.93492943651529
 21
63.000000268220901
 31
0.0
  0
LINE
  5
3991
  8
0
 10
136.635988967983
 20
63.000000268220901
 30
0.0
 11
137.45492199508209
 21
60.750000268220901
 31
0.0
  0
LINE
  5
3992
  8
0
 10
134.97399640941649
 20
60.750000268220901
 30
0.0
 11
135.79292943651541
 21
63.000000268220901
 31
0.0
  0
LINE
  5
3993
  8
0
 10
133.4939889679832
 20
63.000000268220901
 30
0.0
 11
134.31292199508169
 21
60.750000268220901
 31
0.0
  0
LINE
  5
3994
  8
0
 10
131.8319964094166
 20
60.750000268220901
 30
0.0
 11
132.65092943651561
 21
63.000000268220901
 31
0.0
  0
LINE
  5
3995
  8
0
 10
144.39999640941639
 20
60.750000268220901
 30
0.0
 11
143.73892199508219
 21
60.750000268220873
 31
0.0
  0
LINE
  5
3996
  8
0
 10
141.25799640941659
 20
60.75000026822088
 30
0.0
 11
140.596921995082
 21
60.75000026822088
 31
0.0
  0
LINE
  5
3997
  8
0
 10
138.11599640941631
 20
60.75000026822088
 30
0.0
 11
137.45492199508209
 21
60.75000026822088
 31
0.0
  0
LINE
  5
3998
  8
0
 10
134.97399640941649
 20
60.75000026822088
 30
0.0
 11
134.31292199508169
 21
60.75000026822088
 31
0.0
  0
LINE
  5
3999
  8
0
 10
131.8319964094166
 20
60.75000026822088
 30
0.0
 11
131.17092199508201
 21
60.750000268220901
 31
0.0
  0
LINE
  5
399A
  8
0
 10
149.20398896798321
 20
63.000000268220901
 30
0.0
 11
148.3609294365157
 21
63.000000268220901
 31
0.0
  0
LINE
  5
399B
  8
0
 10
152.34598896798309
 20
63.000000268220901
 30
0.0
 11
151.5029294365155
 21
63.000000268220901
 31
0.0
  0
LINE
  5
399C
  8
0
 10
155.48798896798289
 20
63.000000268220901
 30
0.0
 11
154.6449294365153
 21
63.000000268220901
 31
0.0
  0
LINE
  5
399D
  8
0
 10
158.62998896798319
 20
63.000000268220901
 30
0.0
 11
157.78692943651561
 21
63.000000268220901
 31
0.0
  0
LINE
  5
399E
  8
0
 10
161.77198896798299
 20
63.000000268220901
 30
0.0
 11
160.9289294365154
 21
63.000000268220901
 31
0.0
  0
LINE
  5
399F
  8
0
 10
161.77198896798299
 20
63.000000268220901
 30
0.0
 11
162.59092199508211
 21
60.750000268220901
 31
0.0
  0
LINE
  5
39A0
  8
0
 10
160.1099964094164
 20
60.750000268220901
 30
0.0
 11
160.9289294365154
 21
63.000000268220901
 31
0.0
  0
LINE
  5
39A1
  8
0
 10
158.62998896798319
 20
63.000000268220901
 30
0.0
 11
159.44892199508229
 21
60.750000268220901
 31
0.0
  0
LINE
  5
39A2
  8
0
 10
156.9679964094166
 20
60.750000268220901
 30
0.0
 11
157.78692943651561
 21
63.000000268220901
 31
0.0
  0
LINE
  5
39A3
  8
0
 10
155.48798896798289
 20
63.000000268220901
 30
0.0
 11
156.30692199508201
 21
60.750000268220901
 31
0.0
  0
LINE
  5
39A4
  8
0
 10
153.82599640941629
 20
60.750000268220901
 30
0.0
 11
154.6449294365153
 21
63.000000268220901
 31
0.0
  0
LINE
  5
39A5
  8
0
 10
152.34598896798309
 20
63.000000268220901
 30
0.0
 11
153.1649219950821
 21
60.750000268220901
 31
0.0
  0
LINE
  5
39A6
  8
0
 10
150.68399640941649
 20
60.750000268220901
 30
0.0
 11
151.5029294365155
 21
63.000000268220901
 31
0.0
  0
LINE
  5
39A7
  8
0
 10
149.20398896798321
 20
63.000000268220901
 30
0.0
 11
150.02292199508179
 21
60.750000268220901
 31
0.0
  0
LINE
  5
39A8
  8
0
 10
147.5419964094167
 20
60.750000268220901
 30
0.0
 11
148.3609294365157
 21
63.000000268220901
 31
0.0
  0
LINE
  5
39A9
  8
0
 10
160.1099964094164
 20
60.750000268220901
 30
0.0
 11
159.44892199508229
 21
60.750000268220873
 31
0.0
  0
LINE
  5
39AA
  8
0
 10
156.9679964094166
 20
60.75000026822088
 30
0.0
 11
156.30692199508201
 21
60.75000026822088
 31
0.0
  0
LINE
  5
39AB
  8
0
 10
153.82599640941629
 20
60.75000026822088
 30
0.0
 11
153.1649219950821
 21
60.75000026822088
 31
0.0
  0
LINE
  5
39AC
  8
0
 10
150.68399640941649
 20
60.75000026822088
 30
0.0
 11
150.02292199508179
 21
60.75000026822088
 31
0.0
  0
LINE
  5
39AD
  8
0
 10
147.5419964094167
 20
60.75000026822088
 30
0.0
 11
146.88092199508199
 21
60.750000268220901
 31
0.0
  0
LINE
  5
39AE
  8
0
 10
164.9139889679833
 20
63.000000268220901
 30
0.0
 11
164.07092943651571
 21
63.000000268220901
 31
0.0
  0
LINE
  5
39AF
  8
0
 10
168.0559889679831
 20
63.000000268220901
 30
0.0
 11
167.21292943651551
 21
63.000000268220901
 31
0.0
  0
LINE
  5
39B0
  8
0
 10
171.19798896798289
 20
63.000000268220901
 30
0.0
 11
170.35492943651531
 21
63.000000268220901
 31
0.0
  0
LINE
  5
39B1
  8
0
 10
174.3399889679832
 20
63.000000268220901
 30
0.0
 11
173.49692943651559
 21
63.000000268220901
 31
0.0
  0
LINE
  5
39B2
  8
0
 10
177.481988967983
 20
63.000000268220901
 30
0.0
 11
176.63892943651541
 21
63.000000268220901
 31
0.0
  0
LINE
  5
39B3
  8
0
 10
177.481988967983
 20
63.000000268220901
 30
0.0
 11
178.30092199508209
 21
60.750000268220901
 31
0.0
  0
LINE
  5
39B4
  8
0
 10
175.81999640941649
 20
60.750000268220901
 30
0.0
 11
176.63892943651541
 21
63.000000268220901
 31
0.0
  0
LINE
  5
39B5
  8
0
 10
174.3399889679832
 20
63.000000268220901
 30
0.0
 11
175.1589219950823
 21
60.750000268220901
 31
0.0
  0
LINE
  5
39B6
  8
0
 10
172.67799640941661
 20
60.750000268220901
 30
0.0
 11
173.49692943651559
 21
63.000000268220901
 31
0.0
  0
LINE
  5
39B7
  8
0
 10
171.19798896798289
 20
63.000000268220901
 30
0.0
 11
172.01692199508199
 21
60.750000268220901
 31
0.0
  0
LINE
  5
39B8
  8
0
 10
169.53599640941641
 20
60.750000268220901
 30
0.0
 11
170.35492943651531
 21
63.000000268220901
 31
0.0
  0
LINE
  5
39B9
  8
0
 10
168.0559889679831
 20
63.000000268220901
 30
0.0
 11
168.87492199508219
 21
60.750000268220901
 31
0.0
  0
LINE
  5
39BA
  8
0
 10
166.3939964094165
 20
60.750000268220901
 30
0.0
 11
167.21292943651551
 21
63.000000268220901
 31
0.0
  0
LINE
  5
39BB
  8
0
 10
164.9139889679833
 20
63.000000268220901
 30
0.0
 11
165.7329219950818
 21
60.750000268220901
 31
0.0
  0
LINE
  5
39BC
  8
0
 10
163.25199640941671
 20
60.750000268220901
 30
0.0
 11
164.07092943651571
 21
63.000000268220901
 31
0.0
  0
LINE
  5
39BD
  8
0
 10
175.81999640941649
 20
60.750000268220901
 30
0.0
 11
175.1589219950823
 21
60.750000268220873
 31
0.0
  0
LINE
  5
39BE
  8
0
 10
172.67799640941661
 20
60.75000026822088
 30
0.0
 11
172.01692199508199
 21
60.75000026822088
 31
0.0
  0
LINE
  5
39BF
  8
0
 10
169.53599640941641
 20
60.75000026822088
 30
0.0
 11
168.87492199508219
 21
60.75000026822088
 31
0.0
  0
LINE
  5
39C0
  8
0
 10
166.3939964094165
 20
60.75000026822088
 30
0.0
 11
165.7329219950818
 21
60.75000026822088
 31
0.0
  0
LINE
  5
39C1
  8
0
 10
163.25199640941671
 20
60.75000026822088
 30
0.0
 11
162.59092199508211
 21
60.750000268220901
 31
0.0
  0
LINE
  5
39C2
  8
0
 10
180.62398896798331
 20
63.000000268220901
 30
0.0
 11
179.78092943651569
 21
63.000000268220901
 31
0.0
  0
LINE
  5
39C3
  8
0
 10
183.76598896798319
 20
63.000000268220901
 30
0.0
 11
182.9229294365156
 21
63.000000268220901
 31
0.0
  0
LINE
  5
39C4
  8
0
 10
186.90798896798299
 20
63.000000268220901
 30
0.0
 11
186.0649294365154
 21
63.000000268220901
 31
0.0
  0
LINE
  5
39C5
  8
0
 10
190.04998896798321
 20
63.000000268220901
 30
0.0
 11
189.20692943651571
 21
63.000000268220901
 31
0.0
  0
LINE
  5
39C6
  8
0
 10
193.19198896798309
 20
63.000000268220901
 30
0.0
 11
192.3489294365155
 21
63.000000268220901
 31
0.0
  0
LINE
  5
39C7
  8
0
 10
193.19198896798309
 20
63.000000268220901
 30
0.0
 11
194.0109219950821
 21
60.750000268220901
 31
0.0
  0
LINE
  5
39C8
  8
0
 10
191.5299964094165
 20
60.750000268220901
 30
0.0
 11
192.3489294365155
 21
63.000000268220901
 31
0.0
  0
LINE
  5
39C9
  8
0
 10
190.04998896798321
 20
63.000000268220901
 30
0.0
 11
190.8689219950823
 21
60.750000268220901
 31
0.0
  0
LINE
  5
39CA
  8
0
 10
188.3879964094167
 20
60.750000268220901
 30
0.0
 11
189.20692943651571
 21
63.000000268220901
 31
0.0
  0
LINE
  5
39CB
  8
0
 10
186.90798896798299
 20
63.000000268220901
 30
0.0
 11
187.72692199508211
 21
60.750000268220901
 31
0.0
  0
LINE
  5
39CC
  8
0
 10
185.24599640941639
 20
60.750000268220901
 30
0.0
 11
186.0649294365154
 21
63.000000268220901
 31
0.0
  0
LINE
  5
39CD
  8
0
 10
183.76598896798319
 20
63.000000268220901
 30
0.0
 11
184.5849219950822
 21
60.750000268220901
 31
0.0
  0
LINE
  5
39CE
  8
0
 10
182.1039964094166
 20
60.750000268220901
 30
0.0
 11
182.9229294365156
 21
63.000000268220901
 31
0.0
  0
LINE
  5
39CF
  8
0
 10
180.62398896798331
 20
63.000000268220901
 30
0.0
 11
181.4429219950818
 21
60.750000268220901
 31
0.0
  0
LINE
  5
39D0
  8
0
 10
178.96199640941671
 20
60.750000268220901
 30
0.0
 11
179.78092943651569
 21
63.000000268220901
 31
0.0
  0
LINE
  5
39D1
  8
0
 10
191.5299964094165
 20
60.750000268220901
 30
0.0
 11
190.8689219950823
 21
60.750000268220873
 31
0.0
  0
LINE
  5
39D2
  8
0
 10
188.3879964094167
 20
60.75000026822088
 30
0.0
 11
187.72692199508211
 21
60.75000026822088
 31
0.0
  0
LINE
  5
39D3
  8
0
 10
185.24599640941639
 20
60.75000026822088
 30
0.0
 11
184.5849219950822
 21
60.75000026822088
 31
0.0
  0
LINE
  5
39D4
  8
0
 10
182.1039964094166
 20
60.75000026822088
 30
0.0
 11
181.4429219950818
 21
60.75000026822088
 31
0.0
  0
LINE
  5
39D5
  8
0
 10
178.96199640941671
 20
60.75000026822088
 30
0.0
 11
178.30092199508209
 21
60.750000268220901
 31
0.0
  0
LINE
  5
39D6
  8
0
 10
196.3339889679834
 20
63.000000268220901
 30
0.0
 11
195.4909294365157
 21
63.000000268220901
 31
0.0
  0
LINE
  5
39D7
  8
0
 10
199.4759889679832
 20
63.000000268220901
 30
0.0
 11
198.63292943651561
 21
63.000000268220901
 31
0.0
  0
LINE
  5
39DE
  8
0
 10
199.4759889679832
 20
63.000000268220901
 30
0.0
 11
200.29492199508229
 21
60.750000268220901
 31
0.0
  0
LINE
  5
39DF
  8
0
 10
197.8139964094166
 20
60.750000268220901
 30
0.0
 11
198.63292943651561
 21
63.000000268220901
 31
0.0
  0
LINE
  5
39E0
  8
0
 10
196.3339889679834
 20
63.000000268220901
 30
0.0
 11
197.1529219950819
 21
60.750000268220901
 31
0.0
  0
LINE
  5
39E1
  8
0
 10
194.67199640941681
 20
60.750000268220901
 30
0.0
 11
195.4909294365157
 21
63.000000268220901
 31
0.0
  0
LINE
  5
39E3
  8
0
 10
200.99999308586121
 20
60.75000026822088
 30
0.0
 11
200.29492199508229
 21
60.75000026822088
 31
0.0
  0
LINE
  5
39E4
  8
0
 10
197.8139964094166
 20
60.75000026822088
 30
0.0
 11
197.1529219950819
 21
60.75000026822088
 31
0.0
  0
LINE
  5
39E5
  8
0
 10
194.67199640941681
 20
60.75000026822088
 30
0.0
 11
194.0109219950821
 21
60.750000268220901
 31
0.0
  0
LINE
  5
39FA
  8
3
 10
50.958929436515213
 20
113.0000002682209
 30
0.0
 11
50.958929436515213
 21
127.9999999329448
 31
0.0
  0
LINE
  5
39FB
  8
3
 10
51.801988967982801
 20
113.0000002682209
 30
0.0
 11
51.801988967982801
 21
127.9999999329448
 31
0.0
  0
LINE
  5
39FC
  8
3
 10
54.100929436515038
 20
113.0000002682209
 30
0.0
 11
54.100929436515038
 21
127.9999999329448
 31
0.0
  0
LINE
  5
39FD
  8
3
 10
54.943988967982619
 20
113.0000002682209
 30
0.0
 11
54.943988967982619
 21
127.9999999329448
 31
0.0
  0
LINE
  5
39FE
  8
3
 10
57.242929436515318
 20
113.0000002682209
 30
0.0
 11
57.242929436515318
 21
127.9999999329448
 31
0.0
  0
LINE
  5
39FF
  8
3
 10
58.0859889679829
 20
113.0000002682209
 30
0.0
 11
58.0859889679829
 21
127.9999999329448
 31
0.0
  0
LINE
  5
3A00
  8
3
 10
60.384929436515137
 20
113.0000002682209
 30
0.0
 11
60.384929436515137
 21
127.9999999329448
 31
0.0
  0
LINE
  5
3A01
  8
3
 10
61.227988967982732
 20
113.0000002682209
 30
0.0
 11
61.227988967982732
 21
127.9999999329448
 31
0.0
  0
LINE
  5
3A02
  8
3
 10
63.526929436515417
 20
113.0000002682209
 30
0.0
 11
63.526929436515417
 21
127.9999999329448
 31
0.0
  0
LINE
  5
3A03
  8
3
 10
64.369988967983005
 20
113.0000002682209
 30
0.0
 11
64.369988967983005
 21
127.9999999329448
 31
0.0
  0
LINE
  5
3A04
  8
3
 10
66.668929436515697
 20
113.0000002682209
 30
0.0
 11
66.668929436515697
 21
127.9999999329448
 31
0.0
  0
LINE
  5
3A05
  8
3
 10
67.511988967983285
 20
113.0000002682209
 30
0.0
 11
67.511988967983285
 21
127.9999999329448
 31
0.0
  0
LINE
  5
3A06
  8
3
 10
69.810929436515522
 20
113.0000002682209
 30
0.0
 11
69.810929436515522
 21
127.9999999329448
 31
0.0
  0
LINE
  5
3A07
  8
3
 10
70.653988967983111
 20
113.0000002682209
 30
0.0
 11
70.653988967983111
 21
127.9999999329448
 31
0.0
  0
LINE
  5
3A08
  8
3
 10
72.952929436515348
 20
113.0000002682209
 30
0.0
 11
72.952929436515348
 21
127.9999999329448
 31
0.0
  0
LINE
  5
3A09
  8
3
 10
73.795988967982936
 20
113.0000002682209
 30
0.0
 11
73.795988967982936
 21
127.9999999329448
 31
0.0
  0
LINE
  5
3A0A
  8
3
 10
76.094929436515628
 20
113.0000002682209
 30
0.0
 11
76.094929436515628
 21
127.9999999329448
 31
0.0
  0
LINE
  5
3A0B
  8
3
 10
76.937988967983216
 20
113.0000002682209
 30
0.0
 11
76.937988967983216
 21
127.9999999329448
 31
0.0
  0
LINE
  5
3A0C
  8
3
 10
79.236929436515453
 20
113.0000002682209
 30
0.0
 11
79.236929436515453
 21
127.9999999329448
 31
0.0
  0
LINE
  5
3A0D
  8
3
 10
80.079988967983027
 20
113.0000002682209
 30
0.0
 11
80.079988967983027
 21
127.9999999329448
 31
0.0
  0
LINE
  5
3A0E
  8
3
 10
82.378929436515278
 20
113.0000002682209
 30
0.0
 11
82.378929436515278
 21
127.9999999329448
 31
0.0
  0
LINE
  5
3A0F
  8
3
 10
83.221988967982867
 20
113.0000002682209
 30
0.0
 11
83.221988967982867
 21
127.9999999329448
 31
0.0
  0
LINE
  5
3A10
  8
3
 10
85.520929436515559
 20
113.0000002682209
 30
0.0
 11
85.520929436515559
 21
127.9999999329448
 31
0.0
  0
LINE
  5
3A11
  8
3
 10
86.363988967983147
 20
113.0000002682209
 30
0.0
 11
86.363988967983147
 21
127.9999999329448
 31
0.0
  0
LINE
  5
3A12
  8
3
 10
88.662929436515384
 20
113.0000002682209
 30
0.0
 11
88.662929436515384
 21
127.9999999329448
 31
0.0
  0
LINE
  5
3A13
  8
3
 10
89.505988967982972
 20
113.0000002682209
 30
0.0
 11
89.505988967982972
 21
127.9999999329448
 31
0.0
  0
LINE
  5
3A14
  8
3
 10
91.804929436515195
 20
113.0000002682209
 30
0.0
 11
91.804929436515195
 21
127.9999999329448
 31
0.0
  0
LINE
  5
3A15
  8
3
 10
92.647988967982798
 20
113.0000002682209
 30
0.0
 11
92.647988967982798
 21
127.9999999329448
 31
0.0
  0
LINE
  5
3A16
  8
3
 10
94.946929436515475
 20
113.0000002682209
 30
0.0
 11
94.946929436515475
 21
127.9999999329448
 31
0.0
  0
LINE
  5
3A17
  8
3
 10
95.789988967983078
 20
113.0000002682209
 30
0.0
 11
95.789988967983078
 21
127.9999999329448
 31
0.0
  0
LINE
  5
3A18
  8
3
 10
98.088929436515315
 20
113.0000002682209
 30
0.0
 11
98.088929436515315
 21
127.9999999329448
 31
0.0
  0
LINE
  5
3A19
  8
3
 10
98.931988967982903
 20
113.0000002682209
 30
0.0
 11
98.931988967982903
 21
127.9999999329448
 31
0.0
  0
LINE
  5
3A1A
  8
3
 10
101.23092943651559
 20
113.0000002682209
 30
0.0
 11
101.23092943651559
 21
127.9999999329448
 31
0.0
  0
LINE
  5
3A1B
  8
3
 10
102.0739889679832
 20
113.0000002682209
 30
0.0
 11
102.0739889679832
 21
127.9999999329448
 31
0.0
  0
LINE
  5
3A1C
  8
3
 10
104.3729294365159
 20
113.0000002682209
 30
0.0
 11
104.3729294365159
 21
127.9999999329448
 31
0.0
  0
LINE
  5
3A1D
  8
3
 10
105.21598896798341
 20
113.0000002682209
 30
0.0
 11
105.21598896798341
 21
127.9999999329448
 31
0.0
  0
LINE
  5
3A1E
  8
3
 10
107.5149294365157
 20
113.0000002682209
 30
0.0
 11
107.5149294365157
 21
127.9999999329448
 31
0.0
  0
LINE
  5
3A1F
  8
3
 10
108.3579889679833
 20
113.0000002682209
 30
0.0
 11
108.3579889679833
 21
127.9999999329448
 31
0.0
  0
LINE
  5
3A20
  8
3
 10
110.6569294365155
 20
113.0000002682209
 30
0.0
 11
110.6569294365155
 21
127.9999999329448
 31
0.0
  0
LINE
  5
3A21
  8
3
 10
111.4999889679831
 20
113.0000002682209
 30
0.0
 11
111.4999889679831
 21
127.9999999329448
 31
0.0
  0
LINE
  5
3A22
  8
3
 10
113.79892943651581
 20
113.0000002682209
 30
0.0
 11
113.79892943651581
 21
127.9999999329448
 31
0.0
  0
LINE
  5
3A23
  8
3
 10
114.64198896798339
 20
113.0000002682209
 30
0.0
 11
114.64198896798339
 21
127.9999999329448
 31
0.0
  0
LINE
  5
3A24
  8
3
 10
116.9409294365156
 20
113.0000002682209
 30
0.0
 11
116.9409294365156
 21
127.9999999329448
 31
0.0
  0
LINE
  5
3A25
  8
3
 10
117.78398896798321
 20
113.0000002682209
 30
0.0
 11
117.78398896798321
 21
127.9999999329448
 31
0.0
  0
LINE
  5
3A26
  8
3
 10
120.0829294365154
 20
113.0000002682209
 30
0.0
 11
120.0829294365154
 21
127.9999999329448
 31
0.0
  0
LINE
  5
3A27
  8
3
 10
120.925988967983
 20
113.0000002682209
 30
0.0
 11
120.925988967983
 21
127.9999999329448
 31
0.0
  0
LINE
  5
3A28
  8
3
 10
123.22492943651569
 20
113.0000002682209
 30
0.0
 11
123.22492943651569
 21
127.9999999329448
 31
0.0
  0
LINE
  5
3A29
  8
3
 10
124.0679889679833
 20
113.0000002682209
 30
0.0
 11
124.0679889679833
 21
127.9999999329448
 31
0.0
  0
LINE
  5
3A2A
  8
3
 10
126.36692943651551
 20
113.0000002682209
 30
0.0
 11
126.36692943651551
 21
127.9999999329448
 31
0.0
  0
LINE
  5
3A2B
  8
3
 10
127.20998896798309
 20
113.0000002682209
 30
0.0
 11
127.20998896798309
 21
127.9999999329448
 31
0.0
  0
LINE
  5
3A2C
  8
3
 10
129.5089294365153
 20
113.0000002682209
 30
0.0
 11
129.5089294365153
 21
127.9999999329448
 31
0.0
  0
LINE
  5
3A2D
  8
3
 10
130.35198896798289
 20
113.0000002682209
 30
0.0
 11
130.35198896798289
 21
127.9999999329448
 31
0.0
  0
LINE
  5
3A2E
  8
3
 10
132.65092943651561
 20
113.0000002682209
 30
0.0
 11
132.65092943651561
 21
127.9999999329448
 31
0.0
  0
LINE
  5
3A2F
  8
3
 10
133.4939889679832
 20
113.0000002682209
 30
0.0
 11
133.4939889679832
 21
127.9999999329448
 31
0.0
  0
LINE
  5
3A30
  8
3
 10
135.79292943651541
 20
113.0000002682209
 30
0.0
 11
135.79292943651541
 21
127.9999999329448
 31
0.0
  0
LINE
  5
3A31
  8
3
 10
136.635988967983
 20
113.0000002682209
 30
0.0
 11
136.635988967983
 21
127.9999999329448
 31
0.0
  0
LINE
  5
3A32
  8
3
 10
138.93492943651569
 20
113.0000002682209
 30
0.0
 11
138.93492943651569
 21
127.9999999329448
 31
0.0
  0
LINE
  5
3A33
  8
3
 10
139.7779889679833
 20
113.0000002682209
 30
0.0
 11
139.7779889679833
 21
127.9999999329448
 31
0.0
  0
LINE
  5
3A34
  8
3
 10
142.076929436516
 20
113.0000002682209
 30
0.0
 11
142.076929436516
 21
127.9999999329448
 31
0.0
  0
LINE
  5
3A35
  8
3
 10
142.91998896798361
 20
113.0000002682209
 30
0.0
 11
142.91998896798361
 21
127.9999999329448
 31
0.0
  0
LINE
  5
3A36
  8
3
 10
145.21892943651579
 20
113.0000002682209
 30
0.0
 11
145.21892943651579
 21
127.9999999329448
 31
0.0
  0
LINE
  5
3A37
  8
3
 10
146.06198896798341
 20
113.0000002682209
 30
0.0
 11
146.06198896798341
 21
127.9999999329448
 31
0.0
  0
LINE
  5
3A38
  8
3
 10
148.36092943651559
 20
113.0000002682209
 30
0.0
 11
148.36092943651559
 21
127.9999999329448
 31
0.0
  0
LINE
  5
3A39
  8
3
 10
149.20398896798321
 20
113.0000002682209
 30
0.0
 11
149.20398896798321
 21
127.9999999329448
 31
0.0
  0
LINE
  5
3A3A
  8
3
 10
151.5029294365159
 20
113.0000002682209
 30
0.0
 11
151.5029294365159
 21
127.9999999329448
 31
0.0
  0
LINE
  5
3A3B
  8
3
 10
152.34598896798349
 20
113.0000002682209
 30
0.0
 11
152.34598896798349
 21
127.9999999329448
 31
0.0
  0
LINE
  5
3A3C
  8
3
 10
154.6449294365157
 20
113.0000002682209
 30
0.0
 11
154.6449294365157
 21
127.9999999329448
 31
0.0
  0
LINE
  5
3A3D
  8
3
 10
155.48798896798331
 20
113.0000002682209
 30
0.0
 11
155.48798896798331
 21
127.9999999329448
 31
0.0
  0
LINE
  5
3A3E
  8
3
 10
157.78692943651549
 20
113.0000002682209
 30
0.0
 11
157.78692943651549
 21
127.9999999329448
 31
0.0
  0
LINE
  5
3A3F
  8
3
 10
158.62998896798311
 20
113.0000002682209
 30
0.0
 11
158.62998896798311
 21
127.9999999329448
 31
0.0
  0
LINE
  5
3A40
  8
3
 10
160.9289294365158
 20
113.0000002682209
 30
0.0
 11
160.9289294365158
 21
127.9999999329448
 31
0.0
  0
LINE
  5
3A41
  8
3
 10
161.77198896798339
 20
113.0000002682209
 30
0.0
 11
161.77198896798339
 21
127.9999999329448
 31
0.0
  0
LINE
  5
3A42
  8
3
 10
164.07092943651571
 20
113.0000002682209
 30
0.0
 11
164.07092943651571
 21
127.9999999329448
 31
0.0
  0
LINE
  5
3A43
  8
3
 10
164.9139889679833
 20
113.0000002682209
 30
0.0
 11
164.9139889679833
 21
127.9999999329448
 31
0.0
  0
LINE
  5
3A44
  8
3
 10
167.21292943651551
 20
113.0000002682209
 30
0.0
 11
167.21292943651551
 21
127.9999999329448
 31
0.0
  0
LINE
  5
3A45
  8
3
 10
168.0559889679831
 20
113.0000002682209
 30
0.0
 11
168.0559889679831
 21
127.9999999329448
 31
0.0
  0
LINE
  5
3A46
  8
3
 10
170.35492943651579
 20
113.0000002682209
 30
0.0
 11
170.35492943651579
 21
127.9999999329448
 31
0.0
  0
LINE
  5
3A47
  8
3
 10
171.19798896798329
 20
113.0000002682209
 30
0.0
 11
171.19798896798329
 21
127.9999999329448
 31
0.0
  0
LINE
  5
3A48
  8
3
 10
173.49692943651559
 20
113.0000002682209
 30
0.0
 11
173.49692943651559
 21
127.9999999329448
 31
0.0
  0
LINE
  5
3A49
  8
3
 10
174.3399889679832
 20
113.0000002682209
 30
0.0
 11
174.3399889679832
 21
127.9999999329448
 31
0.0
  0
LINE
  5
3A4A
  8
3
 10
176.63892943651589
 20
113.0000002682209
 30
0.0
 11
176.63892943651589
 21
127.9999999329448
 31
0.0
  0
LINE
  5
3A4B
  8
3
 10
177.48198896798351
 20
113.0000002682209
 30
0.0
 11
177.48198896798351
 21
127.9999999329448
 31
0.0
  0
LINE
  5
3A4C
  8
3
 10
179.7809294365162
 20
113.0000002682209
 30
0.0
 11
179.7809294365162
 21
127.9999999329448
 31
0.0
  0
LINE
  5
3A4D
  8
3
 10
180.62398896798371
 20
113.0000002682209
 30
0.0
 11
180.62398896798371
 21
127.9999999329448
 31
0.0
  0
LINE
  5
3A4E
  8
3
 10
182.922929436516
 20
113.0000002682209
 30
0.0
 11
182.922929436516
 21
127.9999999329448
 31
0.0
  0
LINE
  5
3A4F
  8
3
 10
183.76598896798359
 20
113.0000002682209
 30
0.0
 11
183.76598896798359
 21
127.9999999329448
 31
0.0
  0
LINE
  5
3A50
  8
3
 10
186.0649294365158
 20
113.0000002682209
 30
0.0
 11
186.0649294365158
 21
127.9999999329448
 31
0.0
  0
LINE
  5
3A51
  8
3
 10
186.90798896798341
 20
113.0000002682209
 30
0.0
 11
186.90798896798341
 21
127.9999999329448
 31
0.0
  0
LINE
  5
3A52
  8
3
 10
189.20692943651611
 20
113.0000002682209
 30
0.0
 11
189.20692943651611
 21
127.9999999329448
 31
0.0
  0
LINE
  5
3A53
  8
3
 10
190.04998896798369
 20
113.0000002682209
 30
0.0
 11
190.04998896798369
 21
127.9999999329448
 31
0.0
  0
LINE
  5
3A54
  8
3
 10
192.34892943651641
 20
113.0000002682209
 30
0.0
 11
192.34892943651641
 21
127.9999999329448
 31
0.0
  0
LINE
  5
3A55
  8
3
 10
193.19198896798389
 20
113.0000002682209
 30
0.0
 11
193.19198896798389
 21
127.9999999329448
 31
0.0
  0
LINE
  5
3A56
  8
3
 10
195.49092943651621
 20
113.0000002682209
 30
0.0
 11
195.49092943651621
 21
127.9999999329448
 31
0.0
  0
LINE
  5
3A57
  8
3
 10
196.3339889679838
 20
113.0000002682209
 30
0.0
 11
196.3339889679838
 21
127.9999999329448
 31
0.0
  0
LINE
  5
3A58
  8
3
 10
198.63292943651601
 20
113.0000002682209
 30
0.0
 11
198.63292943651601
 21
127.9999999329448
 31
0.0
  0
LINE
  5
3A59
  8
3
 10
199.4759889679836
 20
113.0000002682209
 30
0.0
 11
199.4759889679836
 21
127.9999999329448
 31
0.0
  0
LINE
  5
3A64
  8
1
 10
268.99999275058508
 20
61.999999932944768
 30
0.0
 11
247.99999308586129
 21
61.999999932944789
 31
0.0
  0
LINE
  5
3A6E
  8
1
 10
258.49999291822309
 20
45.0
 30
0.0
 11
258.49999291822309
 21
68.000000268220901
 31
0.0
  0
LINE
  5
3A71
  8
1
 10
205.99999308586121
 20
120.5000001005828
 30
0.0
 11
44.999999999999979
 21
120.5000001005828
 31
0.0
  0
LINE
  5
3AA9
  8
2
 10
49.999999999999972
 20
123.5000001266598
 30
0.0
 11
200.99999308586121
 21
123.5000001266598
 31
0.0
  0
LINE
  5
3AAA
  8
2
 10
50.0
 20
117.50000007450581
 30
0.0
 11
200.99999308586121
 21
117.50000007450581
 31
0.0
  0
ENDSEC
  0
EOF
