  0
SECTION
  2
HEADER
  9
$ACADVER
  1
AC1009
  9
$INSBASE
 10
0.0
 20
0.0
 30
0.0
  9
$EXTMIN
 10
0.0
 20
-2.960436562073669
 30
0.0
  9
$EXTMAX
 10
213.00000014901161
 20
127.99911758303639
 30
0.0
  9
$LIMMIN
 10
0.0
 20
0.0
  9
$LIMMAX
 10
275.0
 20
175.0
  9
$ORTHOMODE
 70
     1
  9
$REGENMODE
 70
     1
  9
$FILLMODE
 70
     1
  9
$QTEXTMODE
 70
     0
  9
$MIRRTEXT
 70
     0
  9
$DRAGMODE
 70
     2
  9
$LTSCALE
 40
5.0
  9
$OSMODE
 70
    37
  9
$ATTMODE
 70
     1
  9
$TEXTSIZE
 40
0.2
  9
$TRACEWID
 40
0.05
  9
$TEXTSTYLE
  7
STANDARD
  9
$CLAYER
  8
0
  9
$CELTYPE
  6
BYLAYER
  9
$CECOLOR
 62
   256
  9
$DIMSCALE
 40
1.0
  9
$DIMASZ
 40
3.0
  9
$DIMEXO
 40
1.0
  9
$DIMDLI
 40
6.0
  9
$DIMRND
 40
0.0
  9
$DIMDLE
 40
0.0
  9
$DIMEXE
 40
1.0
  9
$DIMTP
 40
495.0
  9
$DIMTM
 40
0.0
  9
$DIMTXT
 40
3.0
  9
$DIMCEN
 40
0.0
  9
$DIMTSZ
 40
0.0
  9
$DIMTOL
 70
     0
  9
$DIMLIM
 70
     0
  9
$DIMTIH
 70
     0
  9
$DIMTOH
 70
     0
  9
$DIMSE1
 70
     0
  9
$DIMSE2
 70
     0
  9
$DIMTAD
 70
     1
  9
$DIMZIN
 70
     8
  9
$DIMBLK
  1

  9
$DIMASO
 70
     0
  9
$DIMSHO
 70
     0
  9
$DIMPOST
  1

  9
$DIMAPOST
  1

  9
$DIMALT
 70
     0
  9
$DIMALTD
 70
     2
  9
$DIMALTF
 40
25.399999999999999
  9
$DIMLFAC
 40
1.0
  9
$DIMTOFL
 70
     1
  9
$DIMTVP
 40
0.0
  9
$DIMTIX
 70
     1
  9
$DIMSOXD
 70
     0
  9
$DIMSAH
 70
     0
  9
$DIMBLK1
  1

  9
$DIMBLK2
  1

  9
$DIMSTYLE
  2
STANDARD
  9
$DIMCLRD
 70
     0
  9
$DIMCLRE
 70
     0
  9
$DIMCLRT
 70
     0
  9
$DIMTFAC
 40
1.0
  9
$DIMGAP
 40
1.0
  9
$LUNITS
 70
     2
  9
$LUPREC
 70
     1
  9
$SKETCHINC
 40
0.1
  9
$FILLETRAD
 40
0.0
  9
$AUNITS
 70
     0
  9
$AUPREC
 70
     0
  9
$MENU
  1
E:\r13\win\SUPPORT\ACAD
  9
$ELEVATION
 40
0.0
  9
$PELEVATION
 40
0.0
  9
$THICKNESS
 40
0.0
  9
$LIMCHECK
 70
     0
  9
$BLIPMODE
 70
     0
  9
$CHAMFERA
 40
0.0
  9
$CHAMFERB
 40
0.0
  9
$SKPOLY
 70
     0
  9
$TDCREATE
 40
2450653.5278402781
  9
$TDUPDATE
 40
2459439.6128225811
  9
$TDINDWG
 40
0.5210098264
  9
$TDUSRTIMER
 40
0.5210098264
  9
$USRTIMER
 70
     1
  9
$ANGBASE
 50
0.0
  9
$ANGDIR
 70
     0
  9
$PDMODE
 70
     0
  9
$PDSIZE
 40
0.0
  9
$PLINEWID
 40
0.0
  9
$COORDS
 70
     1
  9
$SPLFRAME
 70
     0
  9
$SPLINETYPE
 70
     6
  9
$SPLINESEGS
 70
     8
  9
$ATTDIA
 70
     0
  9
$ATTREQ
 70
     1
  9
$HANDLING
 70
     1
  9
$HANDSEED
  5
9CA8
  9
$SURFTAB1
 70
     6
  9
$SURFTAB2
 70
     6
  9
$SURFTYPE
 70
     6
  9
$SURFU
 70
     6
  9
$SURFV
 70
     6
  9
$UCSNAME
  2

  9
$UCSORG
 10
0.0
 20
0.0
 30
0.0
  9
$UCSXDIR
 10
1.0
 20
0.0
 30
0.0
  9
$UCSYDIR
 10
0.0
 20
1.0
 30
0.0
  9
$PUCSNAME
  2

  9
$PUCSORG
 10
0.0
 20
0.0
 30
0.0
  9
$PUCSXDIR
 10
1.0
 20
0.0
 30
0.0
  9
$PUCSYDIR
 10
0.0
 20
1.0
 30
0.0
  9
$USERI1
 70
     4
  9
$USERI2
 70
     1
  9
$USERI3
 70
     1
  9
$USERI4
 70
     0
  9
$USERI5
 70
     0
  9
$USERR1
 40
1.0
  9
$USERR2
 40
3.0
  9
$USERR3
 40
3.0
  9
$USERR4
 40
3.0
  9
$USERR5
 40
10.0
  9
$WORLDVIEW
 70
     1
  9
$SHADEDGE
 70
     3
  9
$SHADEDIF
 70
    70
  9
$TILEMODE
 70
     1
  9
$MAXACTVP
 70
    16
  9
$PLIMCHECK
 70
     0
  9
$PEXTMIN
 10
1.0000000000000000E+020
 20
1.0000000000000000E+020
 30
1.0000000000000000E+020
  9
$PEXTMAX
 10
-1.0000000000000000E+020
 20
-1.0000000000000000E+020
 30
-1.0000000000000000E+020
  9
$PLIMMIN
 10
0.0
 20
0.0
  9
$PLIMMAX
 10
12.0
 20
9.0
  9
$UNITMODE
 70
     0
  9
$VISRETAIN
 70
     0
  9
$PLINEGEN
 70
     0
  9
$PSLTSCALE
 70
     0
  0
ENDSEC
  0
SECTION
  2
TABLES
  0
TABLE
  2
VPORT
 70
     1
  0
VPORT
  2
*ACTIVE
 70
     0
 10
0.0
 20
0.0
 11
1.0
 21
1.0
 12
260.1957585644372
 22
100.0
 13
0.0
 23
0.0
 14
5.0
 24
5.0
 15
10.0
 25
10.0
 16
0.0
 26
0.0
 36
1.0
 17
0.0
 27
0.0
 37
0.0
 40
200.0
 41
2.6019575856443722
 42
50.0
 43
0.0
 44
0.0
 50
0.0
 51
0.0
 71
     0
 72
   100
 73
     1
 74
     0
 75
     0
 76
     0
 77
     0
 78
     0
  0
ENDTAB
  0
TABLE
  2
LTYPE
 70
     5
  0
LTYPE
  2
CONTINUOUS
 70
     0
  3
Solid Line
 72
    65
 73
     0
 40
0.0
  0
LTYPE
  2
CENTER
 70
     0
  3
____ _ ____ _ ____ _ ____ _ ____ _ ____ _ ____ 
 72
    65
 73
     4
 40
2.0
 49
1.25
 49
-0.25
 49
0.25
 49
-0.25
  0
LTYPE
  2
HIDDEN
 70
     0
  3
__ __ __ __ __ __ __ __ __ __ __ __ __ __ __ __
 72
    65
 73
     2
 40
0.375
 49
0.25
 49
-0.125
  0
LTYPE
  2
PHANTOM
 70
     0
  3
_____ _ _ _____ _ _ _____ _ _ _____ _ _ ____
 72
    65
 73
     6
 40
2.5
 49
1.25
 49
-0.25
 49
0.25
 49
-0.25
 49
0.25
 49
-0.25
  0
LTYPE
  2
PHANTOM2
 70
     0
  3
___ _ _ ___ _ _ ___ _ _ ___ _ _
 72
    65
 73
     6
 40
1.25
 49
0.625
 49
-0.125
 49
0.125
 49
-0.125
 49
0.125
 49
-0.125
  0
ENDTAB
  0
TABLE
  2
LAYER
 70
     6
  0
LAYER
  2
0
 70
     0
 62
     7
  6
CONTINUOUS
  0
LAYER
  2
1
 70
     0
 62
     1
  6
CENTER
  0
LAYER
  2
2
 70
     0
 62
     2
  6
HIDDEN
  0
LAYER
  2
5
 70
     0
 62
     3
  6
PHANTOM
  0
LAYER
  2
DEFPOINTS
 70
     0
 62
     7
  6
CONTINUOUS
  0
LAYER
  2
3
 70
     0
 62
     3
  6
CONTINUOUS
  0
ENDTAB
  0
TABLE
  2
STYLE
 70
     2
  0
STYLE
  2
STANDARD
 70
     0
 40
0.0
 41
1.0
 50
0.0
 71
     0
 42
0.2
  3
simplex
  4
bigfont
  0
STYLE
  2
STANDARD1
 70
     0
 40
0.0
 41
1.0
 50
0.0
 71
     0
 42
3.0
  3
txt
  4

  0
ENDTAB
  0
TABLE
  2
VIEW
 70
     0
  0
ENDTAB
  0
TABLE
  2
UCS
 70
     0
  0
ENDTAB
  0
TABLE
  2
APPID
 70
    11
  0
APPID
  2
ACAD
 70
     0
  0
APPID
  2
_CALL_MAC$
 70
     0
  0
APPID
  2
ACAD_MLEADERVER
 70
     0
  0
APPID
  2
ACAD_EXEMPT_FROM_CAD_STANDARDS
 70
     0
  0
APPID
  2
ACAD_NAV_VCDISPLAY
 70
     0
  0
APPID
  2
ACAD_DSTYLE_DIMJAG
 70
     0
  0
APPID
  2
ACAD_DSTYLE_DIMTALN
 70
     0
  0
APPID
  2
ACAECLAYERSTANDARD
 70
     0
  0
APPID
  2
ACCMTRANSPARENCY
 70
     0
  0
APPID
  2
GRADIENTCOLOR1ACI
 70
     0
  0
APPID
  2
GRADIENTCOLOR2ACI
 70
     0
  0
ENDTAB
  0
TABLE
  2
DIMSTYLE
 70
     1
  0
DIMSTYLE
  2
STANDARD
 70
     0
  3

  4

  5

  6

  7

 40
1.0
 41
0.18
 42
0.0625
 43
0.38
 44
0.18
 45
0.0
 46
0.0
 47
0.0
 48
0.0
140
0.18
141
0.09
142
0.0
143
25.399999999999999
144
1.0
145
0.0
146
1.0
147
0.09
 71
     0
 72
     0
 73
     1
 74
     1
 75
     0
 76
     0
 77
     0
 78
     0
170
     0
171
     2
172
     0
173
     0
174
     0
175
     0
176
     0
177
     0
178
     0
  0
ENDTAB
  0
ENDSEC
  0
SECTION
  2
BLOCKS
  0
BLOCK
  8
0
  2
$MODEL_SPACE
 70
     2
 10
0.0
 20
0.0
 30
0.0
  3
$MODEL_SPACE
  1

  0
ENDBLK
  5
7
  8
0
  0
BLOCK
 67
     1
  8
0
  2
$PAPER_SPACE
 70
     0
 10
0.0
 20
0.0
 30
0.0
  3
$PAPER_SPACE
  1

  0
ENDBLK
  5
A
 67
     1
  8
0
  0
ENDSEC
  0
SECTION
  2
ENTITIES
  0
TEXT
  5
2BF
  8
0
 62
     3
 10
0.0
 20
0.0
 30
0.0
 40
10.0
  1
ZCL-2.0-35-A20-K
  7
STANDARD1
  0
ARC
  5
98D4
  8
0
 10
172.00000014901161
 20
86.999117583036394
 30
0.0
 40
10.000000000000011
 50
107.45760312372281
 51
72.542396876277223
  0
LINE
  5
98D5
  8
0
 10
175.00000017508859
 20
96.538509428501115
 30
0.0
 11
175.00000017508859
 21
99.799117259681196
 31
0.0
  0
LINE
  5
98D6
  8
0
 10
175.00000017508859
 20
99.799117259681196
 30
0.0
 11
169.00000012293461
 21
99.799117259681196
 31
0.0
  0
LINE
  5
98D7
  8
0
 10
169.00000012293461
 20
99.799117259681196
 30
0.0
 11
169.00000012293461
 21
96.538509428501115
 31
0.0
  0
CIRCLE
  5
98D8
  8
0
 10
172.00000014901161
 20
86.999117583036394
 30
0.0
 40
22.5
  0
CIRCLE
  5
98D9
  8
0
 10
172.00000014901161
 20
86.999117583036394
 30
0.0
 40
25.5
  0
ARC
  5
98DA
  8
0
 10
204.98626614589679
 20
86.039060202156804
 30
0.0
 40
0.6239999999999843
 50
180.45851361603971
 51
233.6919358053471
  0
ARC
  5
98DB
  8
0
 10
205.49580718427379
 20
86.818918962091374
 30
0.0
 40
1.5550000000001221
 50
235.57747480698359
 51
261.50091049909361
  0
ARC
  5
98DC
  8
0
 10
202.296088658738
 20
73.800931967974975
 30
0.0
 40
11.857999999999761
 50
56.441506003265793
 51
75.495541965934933
  0
ARC
  5
98DD
  8
0
 10
204.429886124381
 20
93.348792922368474
 30
0.0
 40
11.858000000000031
 50
272.04485593831168
 51
291.09912939110347
  0
ARC
  5
98DE
  8
0
 10
204.7458361734123
 20
79.947041280253103
 30
0.0
 40
1.5549999999999271
 50
86.048217992563792
 51
111.9831691358483
  0
ARC
  5
98DF
  8
0
 10
204.41588131034931
 20
80.818190775580135
 30
0.0
 40
0.6239999999999949
 50
113.83237570061689
 51
166.9676464425448
  0
LINE
  5
98E0
  8
0
 10
203.6698925197125
 20
80.271066352725015
 30
0.0
 11
203.8079555034638
 21
80.958903487771735
 31
0.0
  0
ARC
  5
98E1
  8
0
 10
204.28473841597341
 20
80.164563491830776
 30
0.0
 40
0.6240000000000304
 50
170.1727993303588
 51
223.40622151962049
  0
ARC
  5
98E2
  8
0
 10
204.92534007879331
 20
80.840907535073143
 30
0.0
 40
1.555000000000107
 50
225.2917605212663
 51
251.21519621337839
  0
ARC
  5
98E3
  8
0
 10
199.4525910121329
 20
68.603456751719165
 30
0.0
 40
11.857999999999929
 50
46.155791717549903
 51
65.209827680222887
  0
ARC
  5
98E4
  8
0
 10
205.0425028266279
 20
87.456171288964214
 30
0.0
 40
11.857999999999819
 50
261.7591416525994
 51
280.81341510538778
  0
ARC
  5
98E5
  8
0
 10
202.9604002703104
 20
74.213376249570388
 30
0.0
 40
1.554999999999906
 50
75.762503706850509
 51
101.6974548501319
  0
ARC
  5
98E6
  8
0
 10
202.79129766643149
 20
75.129441729887674
 30
0.0
 40
0.6239999999999935
 50
103.5466614148945
 51
156.6819321568295
  0
LINE
  5
98E7
  8
0
 10
201.95960615575311
 20
74.724310263991313
 30
0.0
 11
202.21826423704621
 21
75.376442819833727
 31
0.0
  0
ARC
  5
98E8
  8
0
 10
202.5455526341789
 20
74.509734973485934
 30
0.0
 40
0.6239999999999882
 50
159.8870850446344
 51
213.1205072338976
  0
ARC
  5
98E9
  8
0
 10
203.29662545690951
 20
75.060826045988506
 30
0.0
 40
1.5549999999999069
 50
215.00604623554699
 51
240.92948192766869
  0
ARC
  5
98EA
  8
0
 10
195.72674450711969
 20
63.997233210581904
 30
0.0
 40
11.85800000000032
 50
35.870077431837373
 51
54.924113394506008
  0
ARC
  5
98EB
  8
0
 10
204.59310630535441
 20
81.548859573387006
 30
0.0
 40
11.858000000000191
 50
251.47342736688569
 51
270.52770081967282
  0
ARC
  5
98EC
  8
0
 10
200.17987163300779
 20
68.890655465488095
 30
0.0
 40
1.555000000000029
 50
65.476789421138918
 51
91.411740564418324
  0
ARC
  5
98ED
  8
0
 10
200.17705638513999
 20
69.8221938325172
 30
0.0
 40
0.6239999999999819
 50
93.260947129179016
 51
146.39621787112199
  0
LINE
  5
98EE
  8
0
 10
199.28639185428619
 20
69.572077319025965
 30
0.0
 11
199.65733577311039
 21
70.16754448413846
 31
0.0
  0
ARC
  5
98EF
  8
0
 10
199.8246076625467
 20
69.256325488510299
 30
0.0
 40
0.6240000000000108
 50
149.6013707589162
 51
202.8347929481773
  0
ARC
  5
98F0
  8
0
 10
200.66201154668099
 20
69.664451069763686
 30
0.0
 40
1.5549999999999979
 50
204.72033194982961
 51
230.64376764195219
  0
ARC
  5
98F1
  8
0
 10
191.2383009160072
 20
60.130309159189281
 30
0.0
 40
11.85800000000005
 50
25.58436314612128
 51
44.638399108790622
  0
ARC
  5
98F2
  8
0
 10
203.09614053451921
 20
75.816723634726856
 30
0.0
 40
11.858000000000271
 50
241.18771308116979
 51
260.24198653396041
  0
ARC
  5
98F3
  8
0
 10
196.49361873973399
 20
64.149955553556453
 30
0.0
 40
1.554999999999833
 50
55.191075135422807
 51
81.126026278703918
  0
ARC
  5
98F4
  8
0
 10
196.65718133226031
 20
65.067026397708361
 30
0.0
 40
0.6240000000000169
 50
82.975232843467381
 51
136.11050358541121
  0
LINE
  5
98F5
  8
0
 10
195.73616971075529
 20
64.979964122176142
 30
0.0
 11
196.2074785381555
 21
65.499627217650385
 31
0.0
  0
ARC
  5
98F6
  8
0
 10
196.20935691126601
 20
64.573183940270695
 30
0.0
 40
0.6240000000000486
 50
139.315656473232
 51
192.54907866245389
  0
ARC
  5
98F7
  8
0
 10
197.10617700694979
 20
64.825226538286586
 30
0.0
 40
1.5550000000000199
 50
194.43461766411249
 51
220.35805335624019
  0
ARC
  5
98F8
  8
0
 10
186.1315225089169
 20
57.12697071826824
 30
0.0
 40
11.8579999999998
 50
15.29864886040825
 51
34.352684823078739
  0
ARC
  5
98F9
  8
0
 10
200.59971922570401
 20
70.443999038469514
 30
0.0
 40
11.858000000000111
 50
230.90199879545651
 51
249.9562722482446
  0
ARC
  5
98FA
  8
0
 10
192.02012079153789
 20
60.143646509604899
 30
0.0
 40
1.5550000000001289
 50
44.905360849712402
 51
70.840311992993065
  0
ARC
  5
98FB
  8
0
 10
192.34480418815451
 20
61.016774419380681
 30
0.0
 40
0.6240000000000268
 50
72.689518557761758
 51
125.82478929970129
  0
LINE
  5
98FC
  8
0
 10
191.42304909229281
 20
61.095564812421777
 30
0.0
 11
191.9795720726251
 21
61.522719636559458
 31
0.0
  0
ARC
  5
98FD
  8
0
 10
191.81599751412159
 20
60.61083035142925
 30
0.0
 40
0.6240000000000076
 50
129.0299421875342
 51
182.2633643767474
  0
ARC
  5
98FE
  8
0
 10
192.74340928557331
 20
60.698689109726111
 30
0.0
 40
1.555000000000053
 50
184.1489033784035
 51
210.0723390705223
  0
ARC
  5
98FF
  8
0
 10
180.57054534572359
 20
55.083747656465007
 30
0.0
 40
11.85799999999994
 50
5.012934574692852
 51
24.066970537364679
  0
ARC
  5
9900
  8
0
 10
197.18407941383651
 20
65.603369573831401
 30
0.0
 40
11.857999999999871
 50
220.61628450974041
 51
239.67055796253109
  0
ARC
  5
9901
  8
0
 10
186.9031596932812
 20
57.000494402709201
 30
0.0
 40
1.5549999999998489
 50
34.619646563994458
 51
60.554597707274212
  0
ARC
  5
9902
  8
0
 10
187.37852830247039
 20
57.801616328676133
 30
0.0
 40
0.6239999999999971
 50
62.403804272038307
 51
115.5390750139826
  0
LINE
  5
9903
  8
0
 10
186.48565363883969
 20
58.043725043535211
 30
0.0
 11
187.10950565338129
 21
58.364645764231661
 31
0.0
  0
ARC
  5
9904
  8
0
 10
186.78573565700549
 20
57.496618026566701
 30
0.0
 40
0.6239999999999815
 50
118.74422790179651
 51
171.977650091036
  0
ARC
  5
9905
  8
0
 10
187.71393132681391
 20
57.417469092362339
 30
0.0
 40
1.555000000000001
 50
173.86318909268849
 51
199.78662478480771
  0
ARC
  5
9906
  8
0
 10
174.73410380804009
 20
54.066310844155652
 30
0.0
 40
11.85799999999996
 50
354.72722028897942
 51
13.781256251650481
  0
ARC
  5
9907
  8
0
 10
192.9590025728684
 20
61.450417054689503
 30
0.0
 40
11.85799999999985
 50
210.33057022402571
 51
229.38484367681761
  0
ARC
  5
9908
  8
0
 10
181.3071987849107
 20
54.821522727778287
 30
0.0
 40
1.5549999999999451
 50
24.333932278280049
 51
50.268883421555792
  0
ARC
  5
9909
  8
0
 10
181.91797386843879
 20
55.524889952070701
 30
0.0
 40
0.6240000000000093
 50
52.118089986315759
 51
105.2533607282727
  0
LINE
  5
990A
  8
0
 10
181.08267885446551
 20
55.9225372970104
 30
0.0
 11
181.75380666553971
 21
56.126906722784021
 31
0.0
  0
ARC
  5
990B
  8
0
 10
181.2802480949187
 20
55.330640312186603
 30
0.0
 40
0.623999999999986
 50
108.4585136161118
 51
161.69193580532081
  0
ARC
  5
990C
  8
0
 10
182.17939469053431
 20
55.08702759735035
 30
0.0
 40
1.555000000000063
 50
163.57747480697469
 51
189.5009104990971
  0
ARC
  5
990D
  8
0
 10
168.8097859291272
 20
54.10736153763753
 30
0.0
 40
11.85800000000008
 50
344.44150600326628
 51
3.4955419659354861
  0
ARC
  5
990E
  8
0
 10
188.06028614887299
 20
58.118620792069599
 30
0.0
 40
11.858000000000089
 50
200.0448559383116
 51
219.0991293911033
  0
ARC
  5
990F
  8
0
 10
175.41209685439421
 20
53.676765427308702
 30
0.0
 40
1.5549999999998001
 50
14.0482179925637
 51
39.983169135841237
  0
ARC
  5
9910
  8
0
 10
176.13864759852891
 20
54.259771148605303
 30
0.0
 40
0.6239999999999955
 50
41.832375700589658
 51
94.96764644255984
  0
LINE
  5
9911
  8
0
 10
175.38777844794089
 20
54.800174385309198
 30
0.0
 11
176.08461332321161
 21
54.881426692008951
 31
0.0
  0
ARC
  5
9912
  8
0
 10
175.4764857280372
 20
54.18251351420151
 30
0.0
 40
0.6239999999999736
 50
98.172799330391683
 51
151.40622151961111
  0
ARC
  5
9913
  8
0
 10
176.31768393805621
 20
53.782266931833391
 30
0.0
 40
1.554999999999928
 50
153.29176052125811
 51
179.21519621337899
  0
ARC
  5
9914
  8
0
 10
162.9880041601586
 20
55.205580333845653
 30
0.0
 40
11.85799999999999
 50
334.15579171755218
 51
353.20982768022162
  0
ARC
  5
9915
  8
0
 10
182.64537891839461
 20
55.715067459263139
 30
0.0
 40
11.85800000000018
 50
189.7591416525988
 51
208.8134151053886
  0
ARC
  5
9916
  8
0
 10
169.40732732828391
 20
53.603015942846802
 30
0.0
 40
1.5549999999999351
 50
3.7625037068481948
 51
29.69745485012556
  0
ARC
  5
9917
  8
0
 10
170.22630179430121
 20
54.046921877566497
 30
0.0
 40
0.6239999999999917
 50
31.546661414874951
 51
84.681932156833597
  0
LINE
  5
9918
  8
0
 10
169.58399246260521
 20
54.712715744972208
 30
0.0
 11
170.2841370254755
 21
54.668235778808572
 31
0.0
  0
ARC
  5
9919
  8
0
 10
169.5609862541838
 20
54.08913937258049
 30
0.0
 40
0.6240000000000046
 50
87.887085044610956
 51
141.12050723390379
  0
ARC
  5
991A
  8
0
 10
170.31719927599639
 20
53.545123177161891
 30
0.0
 40
1.555000000000001
 50
143.00604623555071
 51
168.9294819276646
  0
ARC
  5
991B
  8
0
 10
157.45587535736661
 20
57.325669577052338
 30
0.0
 40
11.858000000000089
 50
323.87007743183659
 51
342.92411339450689
  0
ARC
  5
991C
  8
0
 10
176.88832045522079
 20
54.317009238036839
 30
0.0
 40
11.85799999999969
 50
179.47342736688279
 51
198.52770081967441
  0
ARC
  5
991D
  8
0
 10
163.48588843989029
 20
54.602644643504547
 30
0.0
 40
1.5549999999998489
 50
353.47678942113521
 51
19.41174056441001
  0
ARC
  5
991E
  8
0
 10
164.37096411459751
 20
54.893183289658339
 30
0.0
 40
0.6240000000000504
 50
21.260947129164659
 51
74.396217871125344
  0
LINE
  5
991F
  8
0
 10
163.85785852372641
 20
55.662966519594171
 30
0.0
 11
164.53880992531771
 21
55.494184792041757
 31
0.0
  0
ARC
  5
9920
  8
0
 10
163.7238786937375
 20
55.053519009063791
 30
0.0
 40
0.6240000000000108
 50
77.601370758928596
 51
130.83479294818011
  0
ARC
  5
9921
  8
0
 10
164.37080121860839
 20
54.383218328733442
 30
0.0
 40
1.5549999999999
 50
132.72033194983081
 51
158.64376764194691
  0
ARC
  5
9922
  8
0
 10
152.3912066923242
 20
60.3994878545655
 30
0.0
 40
11.857999999999761
 50
313.58436314612362
 51
332.63839910879273
  0
ARC
  5
9923
  8
0
 10
170.97414735528301
 20
53.969380869947301
 30
0.0
 40
11.858000000000009
 50
169.1877130811682
 51
188.2419865339601
  0
ARC
  5
9924
  8
0
 10
157.83810010726219
 20
56.643522640345601
 30
0.0
 40
1.554999999999932
 50
343.1910751354223
 51
9.1260262786935353
  0
ARC
  5
9925
  8
0
 10
158.76082993023189
 20
56.771355846790193
 30
0.0
 40
0.6239999999999821
 50
10.975232843441979
 51
64.110503585438352
  0
LINE
  5
9926
  8
0
 10
158.3934201747179
 20
57.620386779308298
 30
0.0
 11
159.03329093754289
 21
57.332729175686808
 31
0.0
  0
ARC
  5
9927
  8
0
 10
158.15277248647931
 20
57.04465646864066
 30
0.0
 40
0.6240000000000449
 50
67.315656473227321
 51
120.54907866244029
  0
ARC
  5
9928
  8
0
 10
158.6696118921694
 20
56.269615318789597
 30
0.0
 40
1.5549999999999169
 50
122.4346176641036
 51
148.35805335623789
  0
ARC
  5
9929
  8
0
 10
147.9567807831481
 20
64.328240117800306
 30
0.0
 40
11.85800000000008
 50
303.29864886041031
 51
322.3526848230772
  0
ARC
  5
992A
  8
0
 10
165.09294600820951
 20
54.683355416774347
 30
0.0
 40
11.85799999999983
 50
158.90199879545489
 51
177.95627224824531
  0
ARC
  5
992B
  8
0
 10
152.64548689442611
 20
59.660054435311501
 30
0.0
 40
1.5550000000000179
 50
332.90536084970807
 51
358.84031199297658
  0
ARC
  5
992C
  8
0
 10
153.5762135699232
 20
59.621073537610201
 30
0.0
 40
0.6240000000000557
 50
0.6895185577185882
 51
53.824789299706161
  0
LINE
  5
992D
  8
0
 10
153.36630855500701
 20
60.522063821554163
 30
0.0
 11
153.94453321397299
 21
60.124776512384393
 31
0.0
  0
ARC
  5
992E
  8
0
 10
153.02672756983151
 20
59.998554955046991
 30
0.0
 40
0.623999999999962
 50
57.029942187491478
 51
110.2633643767528
  0
ARC
  5
992F
  8
0
 10
153.39687221258521
 20
59.143683795937342
 30
0.0
 40
1.554999999999912
 50
112.1489033784011
 51
138.07233907052239
  0
ARC
  5
9930
  8
0
 10
144.29512372721811
 20
68.985653036427536
 30
0.0
 40
11.857999999999929
 50
293.01293457469279
 51
312.06697053736571
  0
ARC
  5
9931
  8
0
 10
159.4337430643651
 20
56.435985149122537
 30
0.0
 40
11.858000000000191
 50
148.6162845097397
 51
167.67055796253001
  0
ARC
  5
9932
  8
0
 10
148.07494366253891
 20
63.555286214501344
 30
0.0
 40
1.555000000000091
 50
322.61964656399579
 51
348.55459770727288
  0
ARC
  5
9933
  8
0
 10
148.9837528694087
 20
63.350744090779848
 30
0.0
 40
0.6239999999999828
 50
350.4038042720299
 51
43.539075013990796
  0
LINE
  5
9934
  8
0
 10
148.93809881806371
 20
64.274735003709765
 30
0.0
 11
149.436093762517
 21
63.780586421489687
 31
0.0
  0
ARC
  5
9935
  8
0
 10
148.51049924513941
 20
63.820273740453651
 30
0.0
 40
0.6240000000000665
 50
46.744227901798922
 51
99.977650091031833
  0
ARC
  5
9936
  8
0
 10
148.72205237158261
 20
62.913048834529377
 30
0.0
 40
1.5550000000002899
 50
101.8631890926892
 51
127.7866247848067
  0
ARC
  5
9937
  8
0
 10
141.52392419513259
 20
74.222033527110909
 30
0.0
 40
11.85799999999985
 50
282.72722028897857
 51
301.78125625164972
  0
ARC
  5
9938
  8
0
 10
154.17842996277119
 20
59.170939105326148
 30
0.0
 40
11.8579999999998
 50
138.33057022402579
 51
157.3848436768163
  0
ARC
  5
9939
  8
0
 10
144.2733714317292
 20
68.204022023524544
 30
0.0
 40
1.554999999999942
 50
312.333932278276
 51
338.26888342155559
  0
ARC
  5
993A
  8
0
 10
145.1310532942918
 20
67.840492825937105
 30
0.0
 40
0.6240000000000318
 50
340.11808998631761
 51
33.253360728277499
  0
LINE
  5
993B
  8
0
 10
145.251117542386
 20
68.757786601781817
 30
0.0
 11
145.65287519991401
 21
68.182657659053774
 31
0.0
  0
ARC
  5
993C
  8
0
 10
144.74924280672349
 20
68.386979638577344
 30
0.0
 40
0.6240000000000047
 50
36.458513616058283
 51
89.691935805322316
  0
ARC
  5
993D
  8
0
 10
144.7954049253056
 20
67.456559940782341
 30
0.0
 40
1.555000000000073
 50
91.577474806976099
 51
117.500910499097
  0
ARC
  5
993E
  8
0
 10
139.7322508200036
 20
79.869080012371683
 30
0.0
 40
11.85799999999999
 50
272.44150600326498
 51
291.49554196593459
  0
ARC
  5
993F
  8
0
 10
149.4959167906004
 20
62.800313614904653
 30
0.0
 40
11.857999999999929
 50
128.0448559383114
 51
147.0991293911035
  0
ARC
  5
9940
  8
0
 10
141.36295586143859
 20
73.456847668486745
 30
0.0
 40
1.5550000000001001
 50
302.04821799256439
 51
327.98316913583977
  0
ARC
  5
9941
  8
0
 10
142.14194377892881
 20
72.946015524556543
 30
0.0
 40
0.6239999999999899
 50
329.83237570059538
 51
22.96764644254646
  0
LINE
  5
9942
  8
0
 10
142.4238680750131
 20
73.827129043638664
 30
0.0
 11
142.7164765894413
 21
73.189507424831362
 31
0.0
  0
ARC
  5
9943
  8
0
 10
141.8638481312864
 20
73.551894964353977
 30
0.0
 40
0.6239999999999871
 50
26.172799330346841
 51
79.406221519601374
  0
ARC
  5
9944
  8
0
 10
141.7431355535341
 20
72.628184929327261
 30
0.0
 40
1.554999999999914
 50
81.291760521257316
 51
107.21519621337841
  0
ARC
  5
9945
  8
0
 10
138.97768945830151
 20
85.745291771768123
 30
0.0
 40
11.85800000000018
 50
262.15579171755019
 51
281.20982768022191
  0
ARC
  5
9946
  8
0
 10
145.53670337399029
 20
67.207457594861097
 30
0.0
 40
11.85800000000007
 50
117.7591416525967
 51
136.81341510538741
  0
ARC
  5
9947
  8
0
 10
139.4372401027951
 20
79.14493301111915
 30
0.0
 40
1.5549999999999511
 50
291.76250370684812
 51
317.69745485012783
  0
ARC
  5
9948
  8
0
 10
140.11249676259081
 20
78.50321648626641
 30
0.0
 40
0.6240000000000425
 50
319.54666141488832
 51
12.68193215682347
  0
LINE
  5
9949
  8
0
 10
140.54721769690511
 20
79.319830238819094
 30
0.0
 11
140.7212744355202
 21
78.640208765864344
 31
0.0
  0
ARC
  5
994A
  8
0
 10
139.9470541778075
 20
79.14901508950669
 30
0.0
 40
0.6239999999999564
 50
15.88708504462258
 51
69.120507233896035
  0
ARC
  5
994B
  8
0
 10
139.66334670529241
 20
78.261703517804904
 30
0.0
 40
1.555000000000029
 50
71.006046235548325
 51
96.929481927663403
  0
ARC
  5
994C
  8
0
 10
139.28449233304659
 20
91.661802524389458
 30
0.0
 40
11.857999999999761
 50
251.8700774318358
 51
270.92411339450848
  0
ARC
  5
994D
  8
0
 10
142.42804208980229
 20
72.250721811469958
 30
0.0
 40
11.85799999999975
 50
107.4734273668835
 51
126.5277008196741
  0
ARC
  5
994E
  8
0
 10
138.55811824476501
 20
85.085458308337579
 30
0.0
 40
1.5549999999998549
 50
281.47678942113322
 51
307.4117405644123
  0
ARC
  5
994F
  8
0
 10
139.1079403422176
 20
84.333482699677177
 30
0.0
 40
0.6240000000000436
 50
309.26094712916017
 51
2.3962178711318192
  0
LINE
  5
9950
  8
0
 10
139.681490033865
 20
85.059350542724104
 30
0.0
 11
139.7313940227032
 21
84.359571989625664
 31
0.0
  0
ARC
  5
9951
  8
0
 10
139.0604682810949
 20
84.998443967887198
 30
0.0
 40
0.624000000000107
 50
5.6013707589409698
 51
58.834792948170211
  0
ARC
  5
9952
  8
0
 10
138.6228845054188
 20
84.176049783507494
 30
0.0
 40
1.555000000000003
 50
60.720331949826857
 51
86.643767641953602
  0
ARC
  5
9953
  8
0
 10
140.64279854740639
 20
97.428450746526579
 30
0.0
 40
11.858000000000169
 50
241.58436314612231
 51
260.63839910879341
  0
ARC
  5
9954
  8
0
 10
140.26984786952579
 20
77.768011603196925
 30
0.0
 40
11.858000000000009
 50
97.187713081167914
 51
116.2419865339582
  0
ARC
  5
9955
  8
0
 10
138.7538459872095
 20
91.087490189209078
 30
0.0
 40
1.554999999999916
 50
271.19107513541962
 51
297.12602627870177
  0
ARC
  5
9956
  8
0
 10
139.1605617877116
 20
90.24942461153077
 30
0.0
 40
0.6240000000000462
 50
298.97523284346232
 51
352.11050358538591
  0
LINE
  5
9957
  8
0
 10
139.85449996590609
 20
90.861216373741598
 30
0.0
 11
139.7786567807197
 21
90.163772413507075
 31
0.0
  0
ARC
  5
9958
  8
0
 10
139.23258604135441
 20
90.912176142418545
 30
0.0
 40
0.6239999999999925
 50
355.31565647318661
 51
48.549078662463117
  0
ARC
  5
9959
  8
0
 10
138.65519026511251
 20
90.181131771114778
 30
0.0
 40
1.5550000000000099
 50
50.434617664115571
 51
76.358053356238273
  0
ARC
  5
995A
  8
0
 10
143.00895102203299
 20
102.85989161950449
 30
0.0
 40
11.85799999999988
 50
231.2986488604086
 51
250.3526848230789
  0
ARC
  5
995B
  8
0
 10
172.00000014901161
 20
86.999117583036394
 30
0.0
 40
36.999999999999993
 50
167.53846749090789
 51
169.71428571428589
  0
ARC
  5
995C
  8
0
 10
139.13148685116801
 20
83.581996736495455
 30
0.0
 40
11.858000000000009
 50
86.901998795453807
 51
105.95627224824391
  0
ARC
  5
995D
  8
0
 10
140.01813247944091
 20
96.958118410594025
 30
0.0
 40
1.554999999999966
 50
260.90536084970608
 51
286.8403119929871
  0
ARC
  5
995E
  8
0
 10
140.26866980251779
 20
96.060898981127025
 30
0.0
 40
0.6240000000000427
 50
288.68951855774361
 51
341.82478929969238
  0
LINE
  5
995F
  8
0
 10
141.0606968104839
 20
96.538950875401468
 30
0.0
 11
140.86153720319271
 21
95.866258442401858
 31
0.0
  0
ARC
  5
9960
  8
0
 10
140.45787545215191
 20
96.700139395175881
 30
0.0
 40
0.6240000000000171
 50
345.02994218746738
 51
38.263364376760698
  0
ARC
  5
9961
  8
0
 10
139.7592256506758
 20
96.083941204547358
 30
0.0
 40
1.5549999999999009
 50
40.148903378405613
 51
66.072339070522773
  0
ARC
  5
9962
  8
0
 10
146.30689966951579
 20
107.78155416466269
 30
0.0
 40
11.85800000000039
 50
221.01293457469299
 51
240.06697053736329
  0
ARC
  5
9963
  8
0
 10
139.04954689450571
 20
89.505810945418446
 30
0.0
 40
11.85799999999981
 50
76.616284509741547
 51
95.670557962530665
  0
ARC
  5
9964
  8
0
 10
142.310342513341
 20
102.508656151088
 30
0.0
 40
1.5549999999999691
 50
250.61964656399149
 51
276.5545977072702
  0
ARC
  5
9965
  8
0
 10
142.39664888328591
 20
101.58112024053
 30
0.0
 40
0.6239999999999976
 50
278.4038042720299
 51
331.5390750139656
  0
LINE
  5
9966
  8
0
 10
143.26130774617189
 20
101.91006790846581
 30
0.0
 11
142.9452336281538
 21
101.2837469577789
 31
0.0
  0
ARC
  5
9967
  8
0
 10
142.6969547036534
 20
102.17630382486369
 30
0.0
 40
0.6239999999999352
 50
334.74422790174441
 51
27.977650091053821
  0
ARC
  5
9968
  8
0
 10
141.8995060564132
 20
101.6947569317667
 30
0.0
 40
1.5549999999998729
 50
29.863189092693069
 51
55.78662478480998
  0
ARC
  5
9969
  8
0
 10
150.4306457067625
 20
112.0352520982409
 30
0.0
 40
11.85799999999988
 50
210.7272202889784
 51
229.78125625164881
  0
ARC
  5
996A
  8
0
 10
140.02666161716661
 20
95.349057967160064
 30
0.0
 40
11.857999999999789
 50
66.330570224026673
 51
85.384843676815422
  0
ARC
  5
996B
  8
0
 10
145.55680257238299
 20
107.5607045607141
 30
0.0
 40
1.555000000000117
 50
240.33393227827909
 51
266.26888342155911
  0
ARC
  5
996C
  8
0
 10
145.47610403145299
 20
106.6326639364095
 30
0.0
 40
0.6240000000000056
 50
268.11808998631619
 51
321.25336072826258
  0
LINE
  5
996D
  8
0
 10
146.3856044113636
 20
106.8019337952136
 30
0.0
 11
145.9627746492624
 21
106.24211579561231
 31
0.0
  0
ARC
  5
996E
  8
0
 10
145.8778579463945
 20
107.16466100090889
 30
0.0
 40
0.6240000000000232
 50
324.45851361604059
 51
17.691935805302421
  0
ARC
  5
996F
  8
0
 10
145.00724110905571
 20
106.83324271870551
 30
0.0
 40
1.5549999999999231
 50
19.577474806966539
 51
45.500910499092427
  0
ARC
  5
9970
  8
0
 10
155.247648543107
 20
115.4842680687005
 30
0.0
 40
11.857999999999629
 50
200.44150600326569
 51
219.49554196593701
  0
ARC
  5
9971
  8
0
 10
142.03142574799139
 20
100.92393103460201
 30
0.0
 40
11.857999999999951
 50
56.044855938312338
 51
75.099129391103446
  0
ARC
  5
9972
  8
0
 10
149.6531687590734
 20
111.9518866467473
 30
0.0
 40
1.5549999999999711
 50
230.04821799256209
 51
255.98316913583761
  0
ARC
  5
9973
  8
0
 10
149.4080590247726
 20
111.0531692979558
 30
0.0
 40
0.6240000000000319
 50
257.83237570059327
 51
310.96764644254841
  0
LINE
  5
9974
  8
0
 10
150.3331660181284
 20
111.05732172727581
 30
0.0
 11
149.81717419624329
 21
110.58199889957901
 31
0.0
  0
ARC
  5
9975
  8
0
 10
149.89834833289811
 20
111.50488101923921
 30
0.0
 40
0.6240000000000343
 50
314.1727993303341
 51
7.4062215196047791
  0
ARC
  5
9976
  8
0
 10
148.98254564695841
 20
111.33424340421141
 30
0.0
 40
1.555000000000015
 50
9.2917605212576788
 51
35.215196213379741
  0
ARC
  5
9977
  8
0
 10
160.60308574394679
 20
118.0177478648914
 30
0.0
 40
11.8580000000001
 50
190.15579171755161
 51
209.2098276802202
  0
ARC
  5
9978
  8
0
 10
144.99940451829019
 20
106.0512491403361
 30
0.0
 40
11.857999999999951
 50
45.759141652597819
 51
64.813415105387648
  0
ARC
  5
9979
  8
0
 10
154.4677804936704
 20
115.54106620386609
 30
0.0
 40
1.554999999999914
 50
219.7625037068471
 51
245.69745485012891
  0
ARC
  5
997A
  8
0
 10
154.06613759453671
 20
114.70055764564491
 30
0.0
 40
0.623999999999999
 50
247.5466614148859
 51
300.68193215683613
  0
LINE
  5
997B
  8
0
 10
154.97712035477161
 20
114.539460465312
 30
0.0
 11
154.384547740221
 21
114.1639102250337
 31
0.0
  0
ARC
  5
997C
  8
0
 10
154.6292039940713
 20
115.0574656373206
 30
0.0
 40
0.6239999999999996
 50
303.88708504460209
 51
357.1205072338845
  0
ARC
  5
997D
  8
0
 10
153.69765011138199
 20
115.05309312281651
 30
0.0
 40
1.5549999999999291
 50
359.00604623554028
 51
24.92948192766643
  0
ARC
  5
997E
  8
0
 10
166.32482915117751
 20
119.5542633616091
 30
0.0
 40
11.85800000000008
 50
179.87007743183599
 51
198.9241133945074
  0
ARC
  5
997F
  8
0
 10
148.83520464832441
 20
110.56621606167251
 30
0.0
 40
11.85800000000002
 50
35.473427366882611
 51
54.527700819674827
  0
ARC
  5
9980
  8
0
 10
159.84589219354859
 20
118.212884047918
 30
0.0
 40
1.5549999999999911
 50
209.47678942113529
 51
235.4117405644148
  0
ARC
  5
9981
  8
0
 10
159.30062526283271
 20
117.45759891690101
 30
0.0
 40
0.6240000000000269
 50
237.26094712917791
 51
290.39621787111821
  0
LINE
  5
9982
  8
0
 10
160.16820248961449
 20
117.13642738759511
 30
0.0
 11
159.5180955603719
 21
116.87271967530251
 31
0.0
  0
ARC
  5
9983
  8
0
 10
159.9183713364028
 20
117.7082318624517
 30
0.0
 40
0.6240000000000187
 50
293.60137075887729
 51
346.8347929481713
  0
ARC
  5
9984
  8
0
 10
159.00100716523849
 20
117.87026498468509
 30
0.0
 40
1.5549999999999511
 50
348.72033194982851
 51
14.64376764195409
  0
ARC
  5
9985
  8
0
 10
172.2289772238247
 20
120.0444296865405
 30
0.0
 40
11.8580000000001
 50
169.5843631461218
 51
188.6383991087931
  0
ARC
  5
9986
  8
0
 10
153.415540365808
 20
114.3237170468323
 30
0.0
 40
11.85799999999997
 50
25.18771308116872
 51
44.241986533959647
  0
ARC
  5
9987
  8
0
 10
165.61464692354861
 20
119.881465755016
 30
0.0
 40
1.5550000000000661
 50
199.1910751354223
 51
225.12602627870521
  0
ARC
  5
9988
  8
0
 10
164.9432812890509
 20
119.23567953676471
 30
0.0
 40
0.6240000000000271
 50
226.9752328434694
 51
280.11050358542161
  0
LINE
  5
9989
  8
0
 10
165.7395692430436
 20
118.7647573649883
 30
0.0
 11
165.05282268673179
 21
118.6213709414005
 31
0.0
  0
ARC
  5
998A
  8
0
 10
165.59585216956901
 20
119.3719818870989
 30
0.0
 40
0.6240000000000011
 50
283.3156564731504
 51
336.54907866246208
  0
ARC
  5
998B
  8
0
 10
164.72216254920059
 20
119.69521276819999
 30
0.0
 40
1.554999999999928
 50
338.43461766411832
 51
4.3580533562395658
  0
ARC
  5
998C
  8
0
 10
178.12576578488409
 20
119.47249249069181
 30
0.0
 40
11.85799999999986
 50
159.29864886040809
 51
178.35268482307811
  0
ARC
  5
998D
  8
0
 10
172.00000014901161
 20
86.999117583036394
 30
0.0
 40
37.000000000000021
 50
95.538467490909426
 51
97.714285714286547
  0
ARC
  5
998E
  8
0
 10
158.5931959120679
 20
117.2029829224703
 30
0.0
 40
11.858000000000271
 50
14.90199879545451
 51
33.956272248244566
  0
ARC
  5
998F
  8
0
 10
171.5886321601011
 20
120.4931817361802
 30
0.0
 40
1.5549999999999851
 50
188.9053608497066
 51
214.84031199298079
  0
ARC
  5
9990
  8
0
 10
170.8127460657158
 20
119.9776505311041
 30
0.0
 40
0.6239999999999842
 50
216.689518557735
 51
269.82478929972262
  0
LINE
  5
9991
  8
0
 10
171.51215085806319
 20
119.37211379408831
 30
0.0
 11
170.81083789281541
 21
119.3536549806594
 31
0.0
  0
ARC
  5
9992
  8
0
 10
171.47916758814489
 20
119.9952414165321
 30
0.0
 40
0.6239999999999981
 50
273.02994218749211
 51
326.263364376732
  0
ARC
  5
9993
  8
0
 10
170.67723362184529
 20
120.4692811500272
 30
0.0
 40
1.555000000000152
 50
328.14890337839478
 51
354.07233907052222
  0
ARC
  5
9994
  8
0
 10
183.82566719811061
 20
117.8568343061291
 30
0.0
 40
11.85800000000026
 50
149.01293457469461
 51
168.06697053736301
  0
ARC
  5
9995
  8
0
 10
172.00000014901161
 20
86.999117583036394
 30
0.0
 40
37.0
 50
85.252753205194153
 51
87.428571428572795
  0
ARC
  5
9996
  8
0
 10
164.20175717765909
 20
119.11147171427589
 30
0.0
 40
11.85799999999994
 50
4.6162845097402432
 51
23.670557962530069
  0
ARC
  5
9997
  8
0
 10
177.57583910229189
 20
120.02837093645481
 30
0.0
 40
1.555000000000031
 50
178.61964656399371
 51
204.55459770727009
  0
ARC
  5
9998
  8
0
 10
176.7203701654939
 20
119.65966434166531
 30
0.0
 40
0.624000000000036
 50
206.40380427202331
 51
259.5390750138987
  0
LINE
  5
9999
  8
0
 10
177.300412569195
 20
118.9389742910861
 30
0.0
 11
176.60707364603871
 21
119.04603540897359
 31
0.0
  0
ARC
  5
999A
  8
0
 10
177.3792229937695
 20
119.5579783766557
 30
0.0
 40
0.6240000000000077
 50
262.74422790182928
 51
315.97765009103642
  0
ARC
  5
999B
  8
0
 10
176.67481949904931
 20
120.16759093546879
 30
0.0
 40
1.554999999999984
 50
317.86318909268891
 51
343.78662478480737
  0
ARC
  5
999C
  8
0
 10
189.14548194218739
 20
115.2493837162724
 30
0.0
 40
11.85800000000023
 50
138.72722028897991
 51
157.78125625164961
  0
ARC
  5
999D
  8
0
 10
172.00000014901161
 20
86.999117583036394
 30
0.0
 40
37.00000000000005
 50
74.96703891947989
 51
77.142857142856101
  0
ARC
  5
999E
  8
0
 10
170.0609603887649
 20
119.9878430221704
 30
0.0
 40
11.85799999999994
 50
354.3305702240263
 51
13.38484367681616
  0
ARC
  5
999F
  8
0
 10
183.3838339927089
 20
118.50197275739021
 30
0.0
 40
1.5550000000001181
 50
168.3339322782812
 51
194.26888342155669
  0
ARC
  5
99A0
  8
0
 10
182.47627768900881
 20
118.2919413062168
 30
0.0
 40
0.624000000000028
 50
196.11808998631369
 51
249.2533607282389
  0
LINE
  5
99A1
  8
0
 10
182.91831471770999
 20
117.47926399111741
 30
0.0
 11
182.25523446500301
 21
117.70840473473071
 31
0.0
  0
ARC
  5
99A2
  8
0
 10
183.10638575112441
 20
118.0742467613524
 30
0.0
 40
0.6240000000000481
 50
252.4585136160924
 51
305.6919358053471
  0
ARC
  5
99A3
  8
0
 10
182.5221528358887
 20
118.79983869625249
 30
0.0
 40
1.5549999999999951
 50
307.57747480698521
 51
333.50091049909361
  0
ARC
  5
99A4
  8
0
 10
193.91422679408171
 20
111.7339463284973
 30
0.0
 40
11.857999999999871
 50
128.4415060032629
 51
147.4955419659357
  0
ARC
  5
99A5
  8
0
 10
172.00000014901161
 20
86.999117583036394
 30
0.0
 40
37.000000000000007
 50
64.681324633764589
 51
66.857142857143955
  0
ARC
  5
99A6
  8
0
 10
175.98248593321239
 20
119.8039295512374
 30
0.0
 40
11.857999999999761
 50
344.04485593831259
 51
3.0991293911019189
  0
ARC
  5
99A7
  8
0
 10
188.82594309673939
 20
115.9630468923864
 30
0.0
 40
1.5549999999999591
 50
158.04821799256689
 51
183.9831691358435
  0
ARC
  5
99A8
  8
0
 10
187.8954690324783
 20
115.91844116848409
 30
0.0
 40
0.6240000000000066
 50
185.83237570059919
 51
238.96764644252551
  0
LINE
  5
99A9
  8
0
 10
188.185293123126
 20
115.03989547491069
 30
0.0
 11
187.57378299534321
 21
115.3837509453296
 31
0.0
  0
ARC
  5
99AA
  8
0
 10
188.47658013686279
 20
115.59173492555659
 30
0.0
 40
0.6240000000000709
 50
242.17279933040021
 51
295.4062215196094
  0
ARC
  5
99AB
  8
0
 10
188.03129552771591
 20
116.409985114737
 30
0.0
 40
1.555000000000091
 50
297.29176052125979
 51
323.21519621338132
  0
ARC
  5
99AC
  8
0
 10
197.9786303705182
 20
107.423511192958
 30
0.0
 40
11.857999999999921
 50
118.1557917175502
 51
137.209827680221
  0
ARC
  5
99AD
  8
0
 10
181.7760111077551
 20
118.5656424317572
 30
0.0
 40
11.85799999999994
 50
333.7591416525969
 51
352.8134151053884
  0
ARC
  5
99AE
  8
0
 10
193.72725254999841
 20
112.4931965077795
 30
0.0
 40
1.5550000000001289
 50
147.7625037068546
 51
173.69745485012839
  0
ARC
  5
99AF
  8
0
 10
192.8037669271979
 20
112.61545017581651
 30
0.0
 40
0.6240000000000796
 50
175.5466614148902
 51
228.68193215681691
  0
LINE
  5
99B0
  8
0
 10
192.9320617467165
 20
111.69927306473249
 30
0.0
 11
192.39177730679509
 21
112.1467903256416
 31
0.0
  0
ARC
  5
99B1
  8
0
 10
193.31720368481649
 20
112.1902328422883
 30
0.0
 40
0.6240000000000219
 50
231.88708504465961
 51
285.12050723390269
  0
ARC
  5
99B2
  8
0
 10
193.02517919547779
 20
113.0748420514102
 30
0.0
 40
1.5550000000000821
 50
287.00604623554881
 51
312.92948192766318
  0
ARC
  5
99B3
  8
0
 10
201.20805939634729
 20
102.45661924154879
 30
0.0
 40
11.85799999999985
 50
107.8700774318353
 51
126.92411339450869
  0
ARC
  5
99B4
  8
0
 10
187.25532724635531
 20
116.3127812306161
 30
0.0
 40
11.85800000000005
 50
323.47342736688262
 51
342.52770081967333
  0
ARC
  5
99B5
  8
0
 10
197.93023023384669
 20
108.2039454499335
 30
0.0
 40
1.555000000000176
 50
137.47678942114101
 51
163.41174056441281
  0
ARC
  5
99B6
  8
0
 10
197.0434146402701
 20
108.48912917642819
 30
0.0
 40
0.6240000000000104
 50
165.2609471291712
 51
218.3962178711073
  0
LINE
  5
99B7
  8
0
 10
197.00605784356591
 20
107.56476707756509
 30
0.0
 11
196.55436453223231
 21
108.1015646457672
 31
0.0
  0
ARC
  5
99B8
  8
0
 10
197.4726747712759
 20
107.9790675872688
 30
0.0
 40
0.6239999999999674
 50
221.60137075895059
 51
274.83479294818289
  0
ARC
  5
99B9
  8
0
 10
197.3432963091112
 20
108.90160374849221
 30
0.0
 40
1.554999999999976
 50
276.72033194983197
 51
302.64376764194839
  0
ARC
  5
99BA
  8
0
 10
203.49871736549559
 20
96.992910468360364
 30
0.0
 40
11.8579999999998
 50
97.584363146122868
 51
116.6383991087916
  0
ARC
  5
99BB
  8
0
 10
192.244324619922
 20
113.1177547604788
 30
0.0
 40
11.857999999999979
 50
313.1877130811697
 51
332.2419865339603
  0
ARC
  5
99BC
  8
0
 10
201.29978898730371
 20
103.23315377705499
 30
0.0
 40
1.554999999999918
 50
127.1910751354241
 51
153.1260262787043
  0
ARC
  5
99BD
  8
0
 10
200.47814640580339
 20
103.6721015223879
 30
0.0
 40
0.6240000000000077
 50
154.97523284347119
 51
208.11050358537679
  0
LINE
  5
99BE
  8
0
 10
200.2763393223286
 20
102.7692642062902
 30
0.0
 11
199.92775273323059
 21
103.3780883997678
 31
0.0
  0
ARC
  5
99BF
  8
0
 10
200.80943313638929
 20
103.09358947675319
 30
0.0
 40
0.6240000000000709
 50
211.315656473242
 51
264.54907866246219
  0
ARC
  5
99C0
  8
0
 10
200.84685903162551
 20
104.024401518791
 30
0.0
 40
1.555000000000075
 50
266.43461766411718
 51
292.35805335623741
  0
ARC
  5
99C1
  8
0
 10
204.7769806460756
 20
91.207992968917125
 30
0.0
 40
11.85800000000008
 50
87.298648860408093
 51
106.3526848230796
  0
ARC
  5
99C2
  8
0
 10
196.5826527479081
 20
109.0832538009724
 30
0.0
 40
11.857999999999979
 50
302.90199879545639
 51
321.95627224824472
  0
ARC
  5
99C3
  8
0
 10
203.72762841955179
 20
97.7405868234911
 30
0.0
 40
1.555000000000023
 50
116.9053608497094
 51
142.84031199298789
  0
ARC
  5
99C4
  8
0
 10
202.9975671187465
 20
98.319190445959904
 30
0.0
 40
0.6239999999999958
 50
144.689518557752
 51
197.8247892996624
  0
LINE
  5
99C5
  8
0
 10
202.6377952545881
 20
97.466895543038817
 30
0.0
 11
202.4035210609436
 21
98.128179274499388
 31
0.0
  0
ARC
  5
99C6
  8
0
 10
203.22023262080799
 20
97.690821796997767
 30
0.0
 40
0.6240000000000378
 50
201.02994218752329
 51
254.2633643767584
  0
ARC
  5
99C7
  8
0
 10
203.4232599743782
 20
98.599992654944216
 30
0.0
 40
1.554999999999982
 50
256.1489033784041
 51
282.07233907052063
  0
ARC
  5
99C8
  8
0
 10
200.13087419469159
 20
104.3389505325336
 30
0.0
 40
11.857999999999921
 50
292.61628450974172
 51
311.6705579625314
  0
ARC
  5
99C9
  8
0
 10
205.1357157736052
 20
91.902780210428602
 30
0.0
 40
1.555000000000164
 50
106.6196465639962
 51
132.5545977072691
  0
ARC
  5
99CA
  8
0
 10
204.52070052439919
 20
92.602442913530638
 30
0.0
 40
0.6240000000000127
 50
134.40380427203141
 51
187.53907501397791
  0
LINE
  5
99CB
  8
0
 10
204.01452657580381
 20
91.828084737062426
 30
0.0
 11
203.90209358930591
 21
92.520572897046776
 31
0.0
  0
ARC
  5
99CC
  8
0
 10
204.62758814549019
 20
91.944413946642129
 30
0.0
 40
0.6240000000000187
 50
190.74422790179531
 51
243.97765009104481
  0
ARC
  5
99CD
  8
0
 10
204.9896914911991
 20
92.802722121054529
 30
0.0
 40
1.554999999999968
 50
245.8631890926909
 51
271.78662478480891
  0
ARC
  5
99CE
  8
0
 10
204.1658450929356
 20
79.422607729401591
 30
0.0
 40
11.85800000000023
 50
66.727220288978856
 51
85.78125625165066
  0
ARC
  5
99CF
  8
0
 10
172.00000014901161
 20
86.999117583036394
 30
0.0
 40
37.000000000000028
 50
2.9670389194800788
 51
5.1428571428573289
  0
ARC
  5
99D0
  8
0
 10
202.77494620348679
 20
99.037330765835776
 30
0.0
 40
11.85799999999972
 50
282.33057022402801
 51
301.3848436768165
  0
ARC
  5
99D1
  8
0
 10
205.47879396332661
 20
85.907365845774706
 30
0.0
 40
1.5550000000002131
 50
96.333932278283655
 51
122.2688834215643
  0
ARC
  5
99D2
  8
0
 10
204.99859186186561
 20
86.705599894547817
 30
0.0
 40
0.6240000000000107
 50
124.11808998634361
 51
177.25336072824601
  0
LINE
  5
99D3
  8
0
 10
204.3622861504555
 20
86.034066637512268
 30
0.0
 11
204.3753097653389
 21
86.735501693328814
 31
0.0
  0
ARC
  5
99D4
  8
0
 10
205.00176480449031
 20
85.287798751497775
 30
0.0
 40
11.858000000000009
 50
77.012934574691826
 51
96.06697053736535
  0
ARC
  5
99D5
  8
0
 10
172.00000014901161
 20
86.999117583036394
 30
0.0
 40
37.0
 50
188.1098960623377
 51
190.2857142857149
  0
ARC
  5
99D6
  8
0
 10
172.00000014901161
 20
86.999117583036394
 30
0.0
 40
37.000000000000028
 50
198.3956103480516
 51
200.57142857142921
  0
ARC
  5
99D7
  8
0
 10
172.00000014901161
 20
86.999117583036394
 30
0.0
 40
37.000000000000007
 50
208.6813246337656
 51
210.85714285714479
  0
ARC
  5
99D8
  8
0
 10
172.00000014901161
 20
86.999117583036394
 30
0.0
 40
36.999999999999993
 50
218.96703891948241
 51
221.1428571428595
  0
ARC
  5
99D9
  8
0
 10
172.00000014901161
 20
86.999117583036394
 30
0.0
 40
37.000000000000021
 50
229.25275320519631
 51
231.4285714285711
  0
ARC
  5
99DA
  8
0
 10
172.00000014901161
 20
86.999117583036394
 30
0.0
 40
36.999999999999979
 50
239.538467490908
 51
241.7142857142878
  0
ARC
  5
99DB
  8
0
 10
172.00000014901161
 20
86.999117583036394
 30
0.0
 40
37.000000000000007
 50
249.82418177662461
 51
252.00000000000111
  0
ARC
  5
99DC
  8
0
 10
172.00000014901161
 20
86.999117583036394
 30
0.0
 40
37.000000000000028
 50
260.10989606233869
 51
262.28571428571672
  0
ARC
  5
99DD
  8
0
 10
172.00000014901161
 20
86.999117583036394
 30
0.0
 40
37.000000000000007
 50
270.39561034805109
 51
272.57142857143037
  0
ARC
  5
99DE
  8
0
 10
172.00000014901161
 20
86.999117583036394
 30
0.0
 40
37.00000000000005
 50
280.6813246337677
 51
282.8571428571438
  0
ARC
  5
99DF
  8
0
 10
172.00000014901161
 20
86.999117583036394
 30
0.0
 40
37.00000000000005
 50
290.96703891948221
 51
293.14285714285961
  0
ARC
  5
99E0
  8
0
 10
172.00000014901161
 20
86.999117583036394
 30
0.0
 40
37.000000000000021
 50
301.2527532051958
 51
303.42857142857298
  0
ARC
  5
99E1
  8
0
 10
172.00000014901161
 20
86.999117583036394
 30
0.0
 40
37.000000000000007
 50
311.53846749091099
 51
313.7142857142864
  0
ARC
  5
99E2
  8
0
 10
172.00000014901161
 20
86.999117583036394
 30
0.0
 40
37.000000000000007
 50
321.82418177662311
 51
323.9999999999992
  0
ARC
  5
99E3
  8
0
 10
172.00000014901161
 20
86.999117583036394
 30
0.0
 40
37.000000000000021
 50
332.10989606233801
 51
334.28571428571411
  0
ARC
  5
99E4
  8
0
 10
172.00000014901161
 20
86.999117583036394
 30
0.0
 40
37.000000000000057
 50
342.3956103480524
 51
344.57142857142952
  0
ARC
  5
99E5
  8
0
 10
172.00000014901161
 20
86.999117583036394
 30
0.0
 40
37.00000000000005
 50
352.68132463376662
 51
354.85714285714351
  0
ARC
  5
99E6
  8
0
 10
172.00000014901161
 20
86.999117583036394
 30
0.0
 40
37.000000000000007
 50
13.25275320519361
 51
15.42857142857129
  0
ARC
  5
99E7
  8
0
 10
172.00000014901161
 20
86.999117583036394
 30
0.0
 40
37.000000000000043
 50
23.538467490907571
 51
25.714285714286401
  0
ARC
  5
99E8
  8
0
 10
172.00000014901161
 20
86.999117583036394
 30
0.0
 40
37.000000000000021
 50
33.82418177662138
 51
36.000000000001023
  0
ARC
  5
99E9
  8
0
 10
172.00000014901161
 20
86.999117583036394
 30
0.0
 40
37.0
 50
44.109896062336261
 51
46.285714285713723
  0
ARC
  5
99EA
  8
0
 10
172.00000014901161
 20
86.999117583036394
 30
0.0
 40
37.000000000000007
 50
54.395610348050901
 51
56.571428571427163
  0
ARC
  5
99EB
  8
0
 10
172.00000014901161
 20
86.999117583036394
 30
0.0
 40
37.000000000000007
 50
157.2527532051954
 51
159.4285714285715
  0
ARC
  5
99EC
  8
0
 10
172.00000014901161
 20
86.999117583036394
 30
0.0
 40
37.000000000000007
 50
116.1098960623363
 51
118.2857142857159
  0
ARC
  5
99ED
  8
0
 10
172.00000014901161
 20
86.999117583036394
 30
0.0
 40
37.000000000000007
 50
177.82418177662271
 51
180.0000000000008
  0
ARC
  5
99EE
  8
0
 10
172.00000014901161
 20
86.999117583036394
 30
0.0
 40
37.000000000000007
 50
136.681324633766
 51
138.857142857144
  0
ARC
  5
99EF
  8
0
 10
172.00000014901161
 20
86.999117583036394
 30
0.0
 40
37.000000000000007
 50
105.8241817766242
 51
107.99999999999881
  0
ARC
  5
99F0
  8
0
 10
172.00000014901161
 20
86.999117583036394
 30
0.0
 40
37.0
 50
126.3956103480517
 51
128.5714285714289
  0
ARC
  5
99F1
  8
0
 10
172.00000014901161
 20
86.999117583036394
 30
0.0
 40
37.000000000000007
 50
146.96703891948019
 51
149.1428571428556
  0
LINE
  5
99F7
  8
0
 10
69.999999552965164
 20
64.499116688966751
 30
0.0
 11
85.000000149011612
 21
64.499116688966751
 31
0.0
  0
LINE
  5
99F8
  8
0
 10
85.000000149011612
 20
109.49911847710599
 30
0.0
 11
69.999999552965164
 21
109.49911847710599
 31
0.0
  0
LINE
  5
99FC
  8
3
 10
69.999999552965164
 20
86.999117583036394
 30
0.0
 11
50.0
 21
86.999117583036394
 31
0.0
  0
LINE
  5
99FE
  8
3
 10
69.999999552965164
 20
88.403862039558575
 30
0.0
 11
50.0
 21
88.403862039558575
 31
0.0
  0
LINE
  5
9A03
  8
3
 10
69.999999552965164
 20
81.779445242136717
 30
0.0
 11
50.0
 21
81.779445242136717
 31
0.0
  0
LINE
  5
9A04
  8
3
 10
69.999999552965164
 20
80.392512679100037
 30
0.0
 11
50.0
 21
80.392512679100037
 31
0.0
  0
LINE
  5
9A0C
  8
3
 10
69.999999552965164
 20
94.983129017055035
 30
0.0
 11
50.0
 21
94.983129017055035
 31
0.0
  0
LINE
  5
9A0D
  8
3
 10
69.999999552965164
 20
93.605722486972795
 30
0.0
 11
50.0
 21
93.605722486972795
 31
0.0
  0
LINE
  5
9A15
  8
3
 10
69.999999552965164
 20
75.322793051600456
 30
0.0
 11
50.0
 21
75.322793051600456
 31
0.0
  0
LINE
  5
9A16
  8
3
 10
69.999999552965164
 20
73.998249322175965
 30
0.0
 11
50.0
 21
73.998249322175965
 31
0.0
  0
LINE
  5
9A1C
  8
3
 10
69.999999552965164
 20
101.3057839125395
 30
0.0
 11
50.0
 21
101.3057839125395
 31
0.0
  0
LINE
  5
9A1D
  8
3
 10
69.999999552965164
 20
99.999985843896866
 30
0.0
 11
50.0
 21
99.999985843896866
 31
0.0
  0
LINE
  5
9A3F
  8
3
 10
69.999999552965164
 20
69.241428002715111
 30
0.0
 11
50.0
 21
69.241428002715111
 31
0.0
  0
LINE
  5
9A43
  8
3
 10
69.999999552965164
 20
68.021844327449784
 30
0.0
 11
50.0
 21
68.021844327449784
 31
0.0
  0
LINE
  5
9A57
  8
3
 10
69.999999552965164
 20
105.976390838623
 30
0.0
 11
50.0
 21
105.976390838623
 31
0.0
  0
LINE
  5
9A5A
  8
3
 10
69.999999552965164
 20
107.16861039400101
 30
0.0
 11
50.0
 21
107.16861039400101
 31
0.0
  0
LINE
  5
9A7E
  8
3
 10
69.999999552965164
 20
63.73080909252166
 30
0.0
 11
50.0
 21
63.73080909252166
 31
0.0
  0
LINE
  5
9A82
  8
3
 10
69.999999552965164
 20
62.655384838581078
 30
0.0
 11
50.0
 21
62.655384838581078
 31
0.0
  0
LINE
  5
9A88
  8
3
 10
69.999999552965164
 20
111.3428503274917
 30
0.0
 11
50.0
 21
111.3428503274917
 31
0.0
  0
LINE
  5
9A8B
  8
3
 10
69.999999552965164
 20
112.383173033595
 30
0.0
 11
50.0
 21
112.383173033595
 31
0.0
  0
LINE
  5
9A98
  8
3
 10
69.999999552965164
 20
58.968053385615342
 30
0.0
 11
50.0
 21
58.968053385615342
 31
0.0
  0
LINE
  5
9A99
  8
3
 10
69.999999552965164
 20
58.071353659033768
 30
0.0
 11
50.0
 21
58.071353659033768
 31
0.0
  0
LINE
  5
9A9F
  8
3
 10
69.999999552965164
 20
115.926881507039
 30
0.0
 11
50.0
 21
115.926881507039
 31
0.0
  0
LINE
  5
9AA2
  8
3
 10
69.999999552965164
 20
116.7818710207939
 30
0.0
 11
50.0
 21
116.7818710207939
 31
0.0
  0
LINE
  5
9AA7
  8
0
 10
85.000000149011612
 20
64.499116688966751
 30
0.0
 11
85.000000149011612
 21
109.49911847710599
 31
0.0
  0
LINE
  5
9AA8
  8
3
 10
69.999999552965164
 20
55.106236785650253
 30
0.0
 11
50.0
 21
55.106236785650253
 31
0.0
  0
LINE
  5
9AA9
  8
3
 10
69.999999552965164
 20
54.417084157466881
 30
0.0
 11
50.0
 21
54.417084157466881
 31
0.0
  0
LINE
  5
9AAE
  8
3
 10
69.999999552965164
 20
119.5811510086059
 30
0.0
 11
50.0
 21
119.5811510086059
 31
0.0
  0
LINE
  5
9AB1
  8
3
 10
69.999999552965164
 20
120.2233277261257
 30
0.0
 11
50.0
 21
120.2233277261257
 31
0.0
  0
LINE
  5
9AB4
  8
3
 10
69.999999552965164
 20
52.269487828016281
 30
0.0
 11
50.0
 21
52.269487828016281
 31
0.0
  0
LINE
  5
9AB7
  8
3
 10
69.999999552965164
 20
51.810025423765182
 30
0.0
 11
50.0
 21
51.810025423765182
 31
0.0
  0
LINE
  5
9ABA
  8
3
 10
69.999999552965164
 20
122.18820974230761
 30
0.0
 11
50.0
 21
122.18820974230761
 31
0.0
  0
LINE
  5
9ABD
  8
3
 10
69.999999552965164
 20
122.5969299674034
 30
0.0
 11
50.0
 21
122.5969299674034
 31
0.0
  0
LINE
  5
9AC0
  8
3
 10
69.999999552965164
 20
50.548973679542542
 30
0.0
 11
50.0
 21
50.548973679542542
 31
0.0
  0
LINE
  5
9AC3
  8
3
 10
69.999999552965164
 20
50.333976000547402
 30
0.0
 11
50.0
 21
50.333976000547402
 31
0.0
  0
LINE
  5
9AC6
  8
3
 10
69.999999552965164
 20
123.66425916552539
 30
0.0
 11
50.0
 21
123.66425916552539
 31
0.0
  0
LINE
  5
9AC9
  8
3
 10
69.999999552965164
 20
123.8263875246047
 30
0.0
 11
50.0
 21
123.8263875246047
 31
0.0
  0
LINE
  5
9ACC
  8
0
 10
69.999999552965164
 20
50.0
 30
0.0
 11
50.0
 21
50.0
 31
0.0
  0
LINE
  5
9ACD
  8
0
 10
69.999999552965164
 20
123.96186143159861
 30
0.0
 11
69.999999552965164
 21
50.0
 31
0.0
  0
LINE
  5
9ACE
  8
0
 10
49.999999999999893
 20
123.96186143159861
 30
0.0
 11
50.0
 21
50.0
 31
0.0
  0
LINE
  5
9ACF
  8
0
 10
69.999999552965164
 20
123.96186143159861
 30
0.0
 11
50.0
 21
123.96186143159861
 31
0.0
  0
LINE
  5
9AE1
  8
2
 10
54.999999888241291
 20
61.499118059873581
 30
0.0
 11
54.999999888241291
 21
112.49911710619919
 31
0.0
  0
LINE
  5
9AE2
  8
2
 10
64.999999664723873
 20
61.499118059873581
 30
0.0
 11
64.999999664723873
 21
112.49911710619919
 31
0.0
  0
LINE
  5
9B06
  8
2
 10
85.000000149011612
 20
96.538509428501115
 30
0.0
 11
50.0
 21
96.538509428501115
 31
0.0
  0
LINE
  5
9B14
  8
2
 10
85.000000149011612
 20
99.799117259681225
 30
0.0
 11
50.0
 21
99.799117259681225
 31
0.0
  0
LINE
  5
9BAD
  8
2
 10
50.0
 20
61.499118059873581
 30
0.0
 11
54.999999888241291
 21
61.499118059873581
 31
0.0
  0
LINE
  5
9BAE
  8
2
 10
54.999999888241291
 20
112.49911710619919
 30
0.0
 11
50.0
 21
112.49911710619919
 31
0.0
  0
LINE
  5
9BAF
  8
2
 10
64.999999664723873
 20
61.499118059873581
 30
0.0
 11
69.999999552965164
 21
61.499118059873581
 31
0.0
  0
LINE
  5
9BB0
  8
2
 10
69.999999552965164
 20
112.49911710619919
 30
0.0
 11
64.999999664723873
 21
112.49911710619919
 31
0.0
  0
LINE
  5
9BB3
  8
2
 10
50.0
 20
64.499116688966751
 30
0.0
 11
54.999999888241291
 21
64.499116688966751
 31
0.0
  0
LINE
  5
9BB4
  8
2
 10
54.999999888241291
 20
109.49911847710599
 30
0.0
 11
50.0
 21
109.49911847710599
 31
0.0
  0
LINE
  5
9BB5
  8
2
 10
64.999999664723873
 20
64.499116688966751
 30
0.0
 11
69.999999552965164
 21
64.499116688966751
 31
0.0
  0
LINE
  5
9BB6
  8
2
 10
69.999999552965164
 20
109.49911847710599
 30
0.0
 11
64.999999664723873
 21
109.49911847710599
 31
0.0
  0
LINE
  5
9BBB
  8
2
 10
50.0
 20
76.999117806553841
 30
0.0
 11
85.000000149011612
 21
76.999117806553841
 31
0.0
  0
LINE
  5
9BD3
  8
1
 10
172.00000014901161
 20
127.99911758303639
 30
0.0
 11
172.00000014901161
 21
45.999117583036387
 31
0.0
  0
LINE
  5
9BD4
  8
1
 10
213.00000014901161
 20
86.999117583036394
 30
0.0
 11
131.00000014901161
 21
86.999117583036394
 31
0.0
  0
CIRCLE
  5
9BDC
  8
5
 10
172.00000014901161
 20
86.999117583036394
 30
0.0
 40
35.0
  0
LINE
  5
9C33
  8
1
 10
89.000000149011612
 20
86.999117583036394
 30
0.0
 11
45.999999999999879
 21
86.999117583036394
 31
0.0
  0
ENDSEC
  0
EOF
