  0
SECTION
  2
HEADER
  9
$ACADVER
  1
AC1009
  9
$INSBASE
 10
0.0
 20
0.0
 30
0.0
  9
$EXTMIN
 10
0.0
 20
-2.960436562073669
 30
0.0
  9
$EXTMAX
 10
203.00000014901161
 20
117.9392494857311
 30
0.0
  9
$LIMMIN
 10
0.0
 20
0.0
  9
$LIMMAX
 10
275.0
 20
175.0
  9
$ORTHOMODE
 70
     1
  9
$REGENMODE
 70
     1
  9
$FILLMODE
 70
     1
  9
$QTEXTMODE
 70
     0
  9
$MIRRTEXT
 70
     0
  9
$DRAGMODE
 70
     2
  9
$LTSCALE
 40
5.0
  9
$OSMODE
 70
    37
  9
$ATTMODE
 70
     1
  9
$TEXTSIZE
 40
0.2
  9
$TRACEWID
 40
0.05
  9
$TEXTSTYLE
  7
STANDARD
  9
$CLAYER
  8
0
  9
$CELTYPE
  6
BYLAYER
  9
$CECOLOR
 62
   256
  9
$DIMSCALE
 40
1.0
  9
$DIMASZ
 40
3.0
  9
$DIMEXO
 40
1.0
  9
$DIMDLI
 40
6.0
  9
$DIMRND
 40
0.0
  9
$DIMDLE
 40
0.0
  9
$DIMEXE
 40
1.0
  9
$DIMTP
 40
495.0
  9
$DIMTM
 40
0.0
  9
$DIMTXT
 40
3.0
  9
$DIMCEN
 40
0.0
  9
$DIMTSZ
 40
0.0
  9
$DIMTOL
 70
     0
  9
$DIMLIM
 70
     0
  9
$DIMTIH
 70
     0
  9
$DIMTOH
 70
     0
  9
$DIMSE1
 70
     0
  9
$DIMSE2
 70
     0
  9
$DIMTAD
 70
     1
  9
$DIMZIN
 70
     8
  9
$DIMBLK
  1

  9
$DIMASO
 70
     0
  9
$DIMSHO
 70
     0
  9
$DIMPOST
  1

  9
$DIMAPOST
  1

  9
$DIMALT
 70
     0
  9
$DIMALTD
 70
     2
  9
$DIMALTF
 40
25.399999999999999
  9
$DIMLFAC
 40
1.0
  9
$DIMTOFL
 70
     1
  9
$DIMTVP
 40
0.0
  9
$DIMTIX
 70
     1
  9
$DIMSOXD
 70
     0
  9
$DIMSAH
 70
     0
  9
$DIMBLK1
  1

  9
$DIMBLK2
  1

  9
$DIMSTYLE
  2
STANDARD
  9
$DIMCLRD
 70
     0
  9
$DIMCLRE
 70
     0
  9
$DIMCLRT
 70
     0
  9
$DIMTFAC
 40
1.0
  9
$DIMGAP
 40
1.0
  9
$LUNITS
 70
     2
  9
$LUPREC
 70
     1
  9
$SKETCHINC
 40
0.1
  9
$FILLETRAD
 40
0.0
  9
$AUNITS
 70
     0
  9
$AUPREC
 70
     0
  9
$MENU
  1
E:\r13\win\SUPPORT\ACAD
  9
$ELEVATION
 40
0.0
  9
$PELEVATION
 40
0.0
  9
$THICKNESS
 40
0.0
  9
$LIMCHECK
 70
     0
  9
$BLIPMODE
 70
     0
  9
$CHAMFERA
 40
0.0
  9
$CHAMFERB
 40
0.0
  9
$SKPOLY
 70
     0
  9
$TDCREATE
 40
2450653.5278402781
  9
$TDUPDATE
 40
2459439.612818426
  9
$TDINDWG
 40
0.4878038079
  9
$TDUSRTIMER
 40
0.4878038079
  9
$USRTIMER
 70
     1
  9
$ANGBASE
 50
0.0
  9
$ANGDIR
 70
     0
  9
$PDMODE
 70
     0
  9
$PDSIZE
 40
0.0
  9
$PLINEWID
 40
0.0
  9
$COORDS
 70
     1
  9
$SPLFRAME
 70
     0
  9
$SPLINETYPE
 70
     6
  9
$SPLINESEGS
 70
     8
  9
$ATTDIA
 70
     0
  9
$ATTREQ
 70
     1
  9
$HANDLING
 70
     1
  9
$HANDSEED
  5
8D8C
  9
$SURFTAB1
 70
     6
  9
$SURFTAB2
 70
     6
  9
$SURFTYPE
 70
     6
  9
$SURFU
 70
     6
  9
$SURFV
 70
     6
  9
$UCSNAME
  2

  9
$UCSORG
 10
0.0
 20
0.0
 30
0.0
  9
$UCSXDIR
 10
1.0
 20
0.0
 30
0.0
  9
$UCSYDIR
 10
0.0
 20
1.0
 30
0.0
  9
$PUCSNAME
  2

  9
$PUCSORG
 10
0.0
 20
0.0
 30
0.0
  9
$PUCSXDIR
 10
1.0
 20
0.0
 30
0.0
  9
$PUCSYDIR
 10
0.0
 20
1.0
 30
0.0
  9
$USERI1
 70
     4
  9
$USERI2
 70
     1
  9
$USERI3
 70
     1
  9
$USERI4
 70
     0
  9
$USERI5
 70
     0
  9
$USERR1
 40
1.0
  9
$USERR2
 40
3.0
  9
$USERR3
 40
3.0
  9
$USERR4
 40
3.0
  9
$USERR5
 40
10.0
  9
$WORLDVIEW
 70
     1
  9
$SHADEDGE
 70
     3
  9
$SHADEDIF
 70
    70
  9
$TILEMODE
 70
     1
  9
$MAXACTVP
 70
    16
  9
$PLIMCHECK
 70
     0
  9
$PEXTMIN
 10
1.0000000000000000E+020
 20
1.0000000000000000E+020
 30
1.0000000000000000E+020
  9
$PEXTMAX
 10
-1.0000000000000000E+020
 20
-1.0000000000000000E+020
 30
-1.0000000000000000E+020
  9
$PLIMMIN
 10
0.0
 20
0.0
  9
$PLIMMAX
 10
12.0
 20
9.0
  9
$UNITMODE
 70
     0
  9
$VISRETAIN
 70
     0
  9
$PLINEGEN
 70
     0
  9
$PSLTSCALE
 70
     0
  0
ENDSEC
  0
SECTION
  2
TABLES
  0
TABLE
  2
VPORT
 70
     1
  0
VPORT
  2
*ACTIVE
 70
     0
 10
0.0
 20
0.0
 11
1.0
 21
1.0
 12
260.1957585644372
 22
100.0
 13
0.0
 23
0.0
 14
5.0
 24
5.0
 15
10.0
 25
10.0
 16
0.0
 26
0.0
 36
1.0
 17
0.0
 27
0.0
 37
0.0
 40
200.0
 41
2.6019575856443722
 42
50.0
 43
0.0
 44
0.0
 50
0.0
 51
0.0
 71
     0
 72
   100
 73
     1
 74
     0
 75
     0
 76
     0
 77
     0
 78
     0
  0
ENDTAB
  0
TABLE
  2
LTYPE
 70
     5
  0
LTYPE
  2
CONTINUOUS
 70
     0
  3
Solid Line
 72
    65
 73
     0
 40
0.0
  0
LTYPE
  2
CENTER
 70
     0
  3
____ _ ____ _ ____ _ ____ _ ____ _ ____ _ ____ 
 72
    65
 73
     4
 40
2.0
 49
1.25
 49
-0.25
 49
0.25
 49
-0.25
  0
LTYPE
  2
HIDDEN
 70
     0
  3
__ __ __ __ __ __ __ __ __ __ __ __ __ __ __ __
 72
    65
 73
     2
 40
0.375
 49
0.25
 49
-0.125
  0
LTYPE
  2
PHANTOM
 70
     0
  3
_____ _ _ _____ _ _ _____ _ _ _____ _ _ ____
 72
    65
 73
     6
 40
2.5
 49
1.25
 49
-0.25
 49
0.25
 49
-0.25
 49
0.25
 49
-0.25
  0
LTYPE
  2
PHANTOM2
 70
     0
  3
___ _ _ ___ _ _ ___ _ _ ___ _ _
 72
    65
 73
     6
 40
1.25
 49
0.625
 49
-0.125
 49
0.125
 49
-0.125
 49
0.125
 49
-0.125
  0
ENDTAB
  0
TABLE
  2
LAYER
 70
     6
  0
LAYER
  2
0
 70
     0
 62
     7
  6
CONTINUOUS
  0
LAYER
  2
1
 70
     0
 62
     1
  6
CENTER
  0
LAYER
  2
2
 70
     0
 62
     2
  6
HIDDEN
  0
LAYER
  2
5
 70
     0
 62
     3
  6
PHANTOM
  0
LAYER
  2
DEFPOINTS
 70
     0
 62
     7
  6
CONTINUOUS
  0
LAYER
  2
3
 70
     0
 62
     3
  6
CONTINUOUS
  0
ENDTAB
  0
TABLE
  2
STYLE
 70
     2
  0
STYLE
  2
STANDARD
 70
     0
 40
0.0
 41
1.0
 50
0.0
 71
     0
 42
0.2
  3
simplex
  4
bigfont
  0
STYLE
  2
STANDARD1
 70
     0
 40
0.0
 41
1.0
 50
0.0
 71
     0
 42
3.0
  3
txt
  4

  0
ENDTAB
  0
TABLE
  2
VIEW
 70
     0
  0
ENDTAB
  0
TABLE
  2
UCS
 70
     0
  0
ENDTAB
  0
TABLE
  2
APPID
 70
    11
  0
APPID
  2
ACAD
 70
     0
  0
APPID
  2
_CALL_MAC$
 70
     0
  0
APPID
  2
ACAD_MLEADERVER
 70
     0
  0
APPID
  2
ACAD_EXEMPT_FROM_CAD_STANDARDS
 70
     0
  0
APPID
  2
ACAD_NAV_VCDISPLAY
 70
     0
  0
APPID
  2
ACAD_DSTYLE_DIMJAG
 70
     0
  0
APPID
  2
ACAD_DSTYLE_DIMTALN
 70
     0
  0
APPID
  2
ACAECLAYERSTANDARD
 70
     0
  0
APPID
  2
ACCMTRANSPARENCY
 70
     0
  0
APPID
  2
GRADIENTCOLOR1ACI
 70
     0
  0
APPID
  2
GRADIENTCOLOR2ACI
 70
     0
  0
ENDTAB
  0
TABLE
  2
DIMSTYLE
 70
     1
  0
DIMSTYLE
  2
STANDARD
 70
     0
  3

  4

  5

  6

  7

 40
1.0
 41
0.18
 42
0.0625
 43
0.38
 44
0.18
 45
0.0
 46
0.0
 47
0.0
 48
0.0
140
0.18
141
0.09
142
0.0
143
25.399999999999999
144
1.0
145
0.0
146
1.0
147
0.09
 71
     0
 72
     0
 73
     1
 74
     1
 75
     0
 76
     0
 77
     0
 78
     0
170
     0
171
     2
172
     0
173
     0
174
     0
175
     0
176
     0
177
     0
178
     0
  0
ENDTAB
  0
ENDSEC
  0
SECTION
  2
BLOCKS
  0
BLOCK
  8
0
  2
$MODEL_SPACE
 70
     2
 10
0.0
 20
0.0
 30
0.0
  3
$MODEL_SPACE
  1

  0
ENDBLK
  5
7
  8
0
  0
BLOCK
 67
     1
  8
0
  2
$PAPER_SPACE
 70
     0
 10
0.0
 20
0.0
 30
0.0
  3
$PAPER_SPACE
  1

  0
ENDBLK
  5
A
 67
     1
  8
0
  0
ENDSEC
  0
SECTION
  2
ENTITIES
  0
TEXT
  5
2BF
  8
0
 62
     3
 10
0.0
 20
0.0
 30
0.0
 40
10.0
  1
ZCL-2.0-30-A15-K
  7
STANDARD1
  0
LINE
  5
8A16
  8
0
 10
169.5000000931322
 20
91.739249601960196
 30
0.0
 11
164.50000020489091
 21
91.739249601960196
 31
0.0
  0
LINE
  5
8A17
  8
0
 10
164.50000020489091
 20
91.739249601960196
 30
0.0
 11
164.50000020489091
 21
89.010317064821734
 31
0.0
  0
LINE
  5
8A18
  8
0
 10
169.5000000931322
 20
89.010317064821734
 30
0.0
 11
169.5000000931322
 21
91.739249601960196
 31
0.0
  0
ARC
  5
8A19
  8
0
 10
167.00000014901161
 20
81.939249485731125
 30
0.0
 40
7.5
 50
109.4712206344895
 51
70.528779365510459
  0
CIRCLE
  5
8A1A
  8
0
 10
167.00000014901161
 20
81.939249485731125
 30
0.0
 40
19.999999999999979
  0
ARC
  5
8A1B
  8
0
 10
195.29584945551949
 20
79.406788676746274
 30
0.0
 40
1.278999999999979
 50
94.675373781660113
 51
125.6073635555075
  0
ARC
  5
8A1C
  8
0
 10
194.9389008456003
 20
79.94249713543995
 30
0.0
 40
0.6359999999998972
 50
127.5622584139582
 51
167.9421911263702
  0
LINE
  5
8A1D
  8
0
 10
194.24812567234039
 20
79.254016000777483
 30
0.0
 11
194.31693178415301
 21
80.075356597080827
 31
0.0
  0
ARC
  5
8A1E
  8
0
 10
194.88347878259091
 20
79.282704588906611
 30
0.0
 40
0.6359999999999941
 50
182.58537139482559
 51
222.9525119227078
  0
ARC
  5
8A1F
  8
0
 10
195.32526933428321
 20
79.750818260487847
 30
0.0
 40
1.279000000000021
 50
224.81589942223121
 51
255.76182097352341
  0
ARC
  5
8A20
  8
0
 10
192.18945429288459
 20
68.861054322404613
 30
0.0
 40
10.05399999999999
 50
50.694100204064213
 51
73.703457634728537
  0
ARC
  5
8A21
  8
0
 10
195.2304406006069
 20
84.859804000150419
 30
0.0
 40
10.05400000000007
 50
264.77041071834191
 51
287.78098070062168
  0
ARC
  5
8A22
  8
0
 10
194.1509890501718
 20
73.579091149029594
 30
0.0
 40
1.2790000000000279
 50
82.675373781664135
 51
113.6073635555007
  0
ARC
  5
8A23
  8
0
 10
193.9132206752266
 20
74.177306881616872
 30
0.0
 40
0.6360000000000512
 50
115.5622584139483
 51
155.94219112636969
  0
LINE
  5
8A24
  8
0
 10
193.09439767897129
 20
73.647490888833985
 30
0.0
 11
193.33246794342989
 21
74.436577688902617
 31
0.0
  0
ARC
  5
8A25
  8
0
 10
193.72183113332741
 20
73.543455280072266
 30
0.0
 40
0.6359999999999944
 50
170.58537139482681
 51
210.95251192270771
  0
ARC
  5
8A26
  8
0
 10
194.25129380644569
 20
73.909486124210474
 30
0.0
 40
1.279000000000077
 50
212.8158994222307
 51
243.7618209735212
  0
ARC
  5
8A27
  8
0
 10
188.9198946143834
 20
63.90966226296576
 30
0.0
 40
10.054000000000009
 50
38.694100204064689
 51
61.703457634728601
  0
ARC
  5
8A28
  8
0
 10
195.22075517161659
 20
78.926544270001273
 30
0.0
 40
10.053999999999951
 50
252.77041071834279
 51
275.78098070062362
  0
ARC
  5
8A29
  8
0
 10
191.81950014494379
 20
68.116772657117394
 30
0.0
 40
1.279000000000031
 50
70.675373781661747
 51
101.6073635554997
  0
ARC
  5
8A2A
  8
0
 10
191.71130362389681
 20
68.751350765526723
 30
0.0
 40
0.636000000000018
 50
103.56225841395
 51
143.94219112636921
  0
LINE
  5
8A2B
  8
0
 10
190.8002186268568
 20
68.403355032205582
 30
0.0
 11
191.1971464455128
 21
69.125700928270817
 31
0.0
  0
ARC
  5
8A2C
  8
0
 10
191.3923112444779
 20
68.171142465515629
 30
0.0
 40
0.6360000000000085
 50
158.58537139482971
 51
198.95251192270561
  0
ARC
  5
8A2D
  8
0
 10
191.9863059795627
 20
68.419093177911051
 30
0.0
 40
1.278999999999985
 50
200.81589942222831
 51
231.7618209735223
  0
ARC
  5
8A2E
  8
0
 10
184.69233036442199
 20
59.746249680720062
 30
0.0
 40
10.05399999999991
 50
26.694100204065659
 51
49.703457634728842
  0
ARC
  5
8A2F
  8
0
 10
193.9776873299312
 20
73.124954214343163
 30
0.0
 40
10.05399999999991
 50
240.77041071834421
 51
263.78098070062413
  0
ARC
  5
8A30
  8
0
 10
188.40327999271901
 20
63.258562730218308
 30
0.0
 40
1.2790000000000501
 50
58.67537378166125
 51
89.607363555497685
  0
ARC
  5
8A31
  8
0
 10
188.42938403272441
 20
63.901769106068613
 30
0.0
 40
0.6360000000000055
 50
91.562258413940995
 51
131.94219112636819
  0
LINE
  5
8A32
  8
0
 10
187.46585656702521
 20
63.750802725553513
 30
0.0
 11
188.0042932629585
 21
64.374839141964912
 31
0.0
  0
ARC
  5
8A33
  8
0
 10
187.99673031346171
 20
63.400561994449873
 30
0.0
 40
0.636000000000046
 50
146.5853713948346
 51
186.9525119227084
  0
ARC
  5
8A34
  8
0
 10
188.62929669028699
 20
63.51959593917136
 30
0.0
 40
1.2789999999999191
 50
188.81589942222971
 51
219.76182097352589
  0
ARC
  5
8A35
  8
0
 10
179.69152638682709
 20
56.552777683781521
 30
0.0
 40
10.054000000000221
 50
14.69410020406502
 51
37.703457634729602
  0
ARC
  5
8A36
  8
0
 10
191.55556510513389
 20
67.708591157726147
 30
0.0
 40
10.05400000000002
 50
228.77041071834279
 51
251.78098070062401
  0
ARC
  5
8A37
  8
0
 10
184.05163380699261
 20
59.216788454415628
 30
0.0
 40
1.2790000000000239
 50
46.675373781661598
 51
77.607363555500925
  0
ARC
  5
8A38
  8
0
 10
184.21089753624119
 20
59.840511892635533
 30
0.0
 40
0.6360000000000429
 50
79.562258413943937
 51
119.9421911263702
  0
LINE
  5
8A39
  8
0
 10
183.23703740537161
 20
59.893173351883881
 30
0.0
 11
183.8934540450573
 21
60.391624644398682
 31
0.0
  0
ARC
  5
8A3A
  8
0
 10
183.68349152076931
 20
59.440211125245519
 30
0.0
 40
0.6359999999999721
 50
134.58537139482829
 51
174.95251192271729
  0
ARC
  5
8A3B
  8
0
 10
184.3269833532776
 20
59.425125947720467
 30
0.0
 40
1.2789999999999051
 50
176.8158994222309
 51
207.761820973525
  0
ARC
  5
8A3C
  8
0
 10
174.1360418119406
 20
54.468816322395632
 30
0.0
 40
10.053999999999901
 50
2.694100204064434
 51
25.703457634727918
  0
ARC
  5
8A3D
  8
0
 10
188.0602468610806
 20
62.914176156317858
 30
0.0
 40
10.054000000000091
 50
216.77041071834401
 51
239.78098070062259
  0
ARC
  5
8A3E
  8
0
 10
178.95474940759621
 20
56.168094760146651
 30
0.0
 40
1.278999999999948
 50
34.675373781664952
 51
65.607363555504421
  0
ARC
  5
8A3F
  8
0
 10
179.24021223688749
 20
56.74507555352892
 30
0.0
 40
0.6359999999999552
 50
67.562258413955931
 51
107.9421911263677
  0
LINE
  5
8A40
  8
0
 10
178.29858303815121
 20
56.999064236879342
 30
0.0
 11
179.0442874357104
 21
57.350144907832139
 31
0.0
  0
ARC
  5
8A41
  8
0
 10
178.64110409885731
 20
56.463176194758617
 30
0.0
 40
0.6360000000000108
 50
122.5853713948306
 51
162.95251192272011
  0
ARC
  5
8A42
  8
0
 10
179.2673977061516
 20
56.314631189631669
 30
0.0
 40
1.2790000000000119
 50
164.81589942223431
 51
195.76182097352239
  0
ARC
  5
8A43
  8
0
 10
168.2686779738566
 20
53.585444708010627
 30
0.0
 40
10.054000000000061
 50
350.69410020406502
 51
13.703457634728681
  0
ARC
  5
8A44
  8
0
 10
183.64449477743361
 20
58.95124815183533
 30
0.0
 40
10.053999999999951
 50
204.77041071834449
 51
227.78098070062541
  0
ARC
  5
8A45
  8
0
 10
173.33538510034791
 20
54.245724191106312
 30
0.0
 40
1.279000000000005
 50
22.675373781664099
 51
53.607363555509053
  0
ARC
  5
8A46
  8
0
 10
173.73457093423951
 20
54.750745510319078
 30
0.0
 40
0.6359999999999701
 50
55.56225841396305
 51
95.942191126369394
  0
LINE
  5
8A47
  8
0
 10
172.86632514372471
 20
55.194958299398422
 30
0.0
 11
173.6687289252877
 21
55.383327603340142
 31
0.0
  0
ARC
  5
8A48
  8
0
 10
173.0899445741228
 20
54.59956791485007
 30
0.0
 40
0.6360000000000059
 50
110.5853713948335
 51
150.95251192271979
  0
ARC
  5
8A49
  8
0
 10
173.67166792027419
 20
54.324055211643213
 30
0.0
 40
1.2790000000000319
 50
152.81589942223431
 51
183.76182097354609
  0
ARC
  5
8A4A
  8
0
 10
162.34586682703539
 20
53.941270419062562
 30
0.0
 40
10.054000000000091
 50
338.69410020406667
 51
1.703457634725744
  0
ARC
  5
8A4B
  8
0
 10
178.50129840937811
 20
55.993006114313118
 30
0.0
 40
10.053999999999981
 50
192.77041071834239
 51
215.78098070062291
  0
ARC
  5
8A4C
  8
0
 10
167.43913407017641
 20
53.533693565719219
 30
0.0
 40
1.278999999999985
 50
10.675373781664939
 51
41.607363555511071
  0
ARC
  5
8A4D
  8
0
 10
167.9345965722209
 20
53.944683555751723
 30
0.0
 40
0.6359999999999944
 50
43.56225841396224
 51
83.942191126367305
  0
LINE
  5
8A4E
  8
0
 10
167.17768133315261
 20
54.559708759188652
 30
0.0
 11
168.0017148777842
 21
54.577131941914551
 31
0.0
  0
ARC
  5
8A4F
  8
0
 10
167.2726252552153
 20
53.930834909936522
 30
0.0
 40
0.6360000000000053
 50
98.585371394834795
 51
138.95251192271709
  0
ARC
  5
8A50
  8
0
 10
167.7843542385786
 20
53.540395735836569
 30
0.0
 40
1.2790000000000099
 50
140.81589942223431
 51
171.7618209735212
  0
ARC
  5
8A51
  8
0
 10
156.6264636393939
 20
55.52074216453736
 30
0.0
 40
10.054000000000141
 50
326.69410020406571
 51
349.70345763472892
  0
ARC
  5
8A52
  8
0
 10
172.8554401179924
 20
54.168739416011022
 30
0.0
 40
10.054
 50
180.77041071834319
 51
203.78098070062461
  0
ARC
  5
8A53
  8
0
 10
161.52369078045169
 20
54.063122039016669
 30
0.0
 40
1.279000000000039
 50
358.67537378166497
 51
29.607363555507
  0
ARC
  5
8A54
  8
0
 10
162.09377586181679
 20
54.362118465155731
 30
0.0
 40
0.6360000000000201
 50
31.56225841395683
 51
71.942191126363923
  0
LINE
  5
8A55
  8
0
 10
161.4812717474997
 20
55.12107461690902
 30
0.0
 11
162.29092075303191
 21
54.96679171919822
 31
0.0
  0
ARC
  5
8A56
  8
0
 10
161.44339091096629
 20
54.486204021269707
 30
0.0
 40
0.6359999999999995
 50
86.585371394835107
 51
126.9525119227247
  0
ARC
  5
8A57
  8
0
 10
161.8627605194205
 20
53.997902441719873
 30
0.0
 40
1.2789999999999619
 50
128.81589942223769
 51
159.76182097352361
  0
ARC
  5
8A58
  8
0
 10
151.3604337749739
 20
58.254829450011229
 30
0.0
 40
10.054
 50
314.69410020406718
 51
337.70345763472881
  0
ARC
  5
8A59
  8
0
 10
166.95367100244411
 20
53.558177265447718
 30
0.0
 40
10.05400000000013
 50
168.7704107183427
 51
191.7809807006239
  0
ARC
  5
8A5A
  8
0
 10
155.84758848838101
 20
55.810871046236016
 30
0.0
 40
1.279000000000001
 50
346.67537378166782
 51
17.607363555505369
  0
ARC
  5
8A5B
  8
0
 10
156.46738069543929
 20
55.98480632991523
 30
0.0
 40
0.6360000000000881
 50
19.56225841396175
 51
59.942191126362957
  0
LINE
  5
8A5C
  8
0
 10
156.02605768293139
 20
56.854524835944169
 30
0.0
 11
156.78593587875361
 21
56.535276770591729
 31
0.0
  0
ARC
  5
8A5D
  8
0
 10
155.85700705398921
 20
56.241402953727672
 30
0.0
 40
0.6360000000000075
 50
74.585371394827689
 51
114.9525119227407
  0
ARC
  5
8A5E
  8
0
 10
156.16568882328619
 20
55.676580090885118
 30
0.0
 40
1.2790000000000681
 50
116.8158994222469
 51
147.76182097354771
  0
ARC
  5
8A5F
  8
0
 10
146.77792800806489
 20
62.02403954150283
 30
0.0
 40
10.054000000000039
 50
302.69410020406582
 51
325.70345763472739
  0
ARC
  5
8A60
  8
0
 10
161.05392669291231
 20
54.188004158405057
 30
0.0
 40
10.05399999999999
 50
156.77041071834361
 51
179.78098070062291
  0
ARC
  5
8A61
  8
0
 10
150.65890010108839
 20
58.700555569131467
 30
0.0
 40
1.2789999999999151
 50
334.6753737816619
 51
5.6073635555077423
  0
ARC
  5
8A62
  8
0
 10
151.3013115402988
 20
58.741827903820123
 30
0.0
 40
0.6359999999999659
 50
7.5622584139603397
 51
47.942191126365358
  0
LINE
  5
8A63
  8
0
 10
151.05045658349991
 20
59.684296324849122
 30
0.0
 11
151.72735486924651
 21
59.21403802931308
 31
0.0
  0
ARC
  5
8A64
  8
0
 10
150.75762546527801
 20
59.119721091583123
 30
0.0
 40
0.6359999999999851
 50
62.585371394826367
 51
102.95251192272841
  0
ARC
  5
8A65
  8
0
 10
150.94212852088
 20
58.503062414874933
 30
0.0
 40
1.2790000000000239
 50
104.8158994222387
 51
135.7618209735196
  0
ARC
  5
8A66
  8
0
 10
143.0792238299835
 20
66.663639871337168
 30
0.0
 40
10.054000000000061
 50
290.69410020406679
 51
313.70345763472812
  0
ARC
  5
8A67
  8
0
 10
155.41405432583821
 20
56.030693637416171
 30
0.0
 40
10.053999999999901
 50
144.77041071834341
 51
167.78098070062291
  0
ARC
  5
8A68
  8
0
 10
146.18439619918769
 20
62.605882527807822
 30
0.0
 40
1.2790000000000341
 50
322.67537378166338
 51
353.60736355550648
  0
ARC
  5
8A69
  8
0
 10
146.8213504080245
 20
62.51268811443321
 30
0.0
 40
0.6360000000000156
 50
355.56225841396548
 51
35.942191126368762
  0
LINE
  5
8A6A
  8
0
 10
146.77192714810371
 20
63.48671689629554
 30
0.0
 11
147.33626206219191
 21
62.886000797152512
 31
0.0
  0
ARC
  5
8A6B
  8
0
 10
146.36811358980691
 20
62.995362120508872
 30
0.0
 40
0.6360000000000458
 50
50.585371394831839
 51
90.952511922719424
  0
ARC
  5
8A6C
  8
0
 10
146.4203742628402
 20
62.353818573163871
 30
0.0
 40
1.2790000000000441
 50
92.815899422236612
 51
123.76182097352201
  0
ARC
  5
8A6D
  8
0
 10
140.42597236166361
 20
71.970857641827791
 30
0.0
 40
10.05399999999992
 50
278.69410020406337
 51
301.7034576347308
  0
ARC
  5
8A6E
  8
0
 10
150.28054338677339
 20
59.005711330042807
 30
0.0
 40
10.05400000000013
 50
132.77041071834361
 51
155.78098070062339
  0
ARC
  5
8A6F
  8
0
 10
142.6196340742442
 20
67.356170394332892
 30
0.0
 40
1.279000000000005
 50
310.67537378166128
 51
341.60736355550711
  0
ARC
  5
8A70
  8
0
 10
143.2232930973357
 20
67.132582275956054
 30
0.0
 40
0.6359999999999815
 50
343.56225841396002
 51
23.942191126365419
  0
LINE
  5
8A71
  8
0
 10
143.3774631172418
 20
68.095602281391621
 30
0.0
 11
143.80456951260561
 21
67.390680499374866
 31
0.0
  0
ARC
  5
8A72
  8
0
 10
142.88031415974899
 20
67.69894193015196
 30
0.0
 40
0.6360000000000792
 50
38.585371394825607
 51
78.952511922740541
  0
ARC
  5
8A73
  8
0
 10
142.79804840802751
 20
67.060552043656585
 30
0.0
 40
1.279000000000023
 50
80.81589942224663
 51
111.76182097352159
  0
ARC
  5
8A74
  8
0
 10
138.9341334239837
 20
77.713741969548394
 30
0.0
 40
10.054000000000009
 50
266.6941002040665
 51
289.70345763472858
  0
ARC
  5
8A75
  8
0
 10
145.87775293707281
 20
62.98303468739892
 30
0.0
 40
10.053999999999981
 50
120.7704107183425
 51
143.78098070062251
  0
ARC
  5
8A76
  8
0
 10
140.12041093674429
 20
72.743808794529514
 30
0.0
 40
1.279000000000093
 50
298.67537378165781
 51
329.60736355549977
  0
ARC
  5
8A77
  8
0
 10
140.66439197810399
 20
72.399598844818215
 30
0.0
 40
0.6360000000000358
 50
331.5622584139503
 51
11.94219112636377
  0
LINE
  5
8A78
  8
0
 10
141.01541486382479
 20
73.309521377086625
 30
0.0
 11
141.28662717342371
 21
72.531202994287014
 31
0.0
  0
ARC
  5
8A79
  8
0
 10
140.4466607465161
 20
73.024891512550894
 30
0.0
 40
0.6360000000000636
 50
26.585371394828041
 51
66.952511922735141
  0
ARC
  5
8A7A
  8
0
 10
140.2334639781451
 20
72.417555988279588
 30
0.0
 40
1.2789999999999739
 50
68.815899422244343
 51
99.761820973521012
  0
ARC
  5
8A7B
  8
0
 10
138.66890753715819
 20
83.641301251960755
 30
0.0
 40
10.05400000000002
 50
254.6941002040669
 51
277.7034576347292
  0
ARC
  5
8A7C
  8
0
 10
142.39810604632149
 20
67.788835593452603
 30
0.0
 40
10.0540000000001
 50
108.7704107183437
 51
131.78098070062211
  0
ARC
  5
8A7D
  8
0
 10
138.79595483039989
 20
78.533332077551435
 30
0.0
 40
1.2789999999999491
 50
286.67537378165389
 51
317.6073635555
  0
ARC
  5
8A7E
  8
0
 10
139.25648330820991
 20
78.083543923010822
 30
0.0
 40
0.6359999999999727
 50
319.56225841394382
 51
359.94219112636722
  0
LINE
  5
8A7F
  8
0
 10
139.78901949524879
 20
78.900600271299481
 30
0.0
 11
139.8924838453531
 21
78.082902310416102
 31
0.0
  0
ARC
  5
8A80
  8
0
 10
139.17351568223171
 20
78.740441314213314
 30
0.0
 40
0.6359999999999695
 50
14.585371394831419
 51
54.952511922729961
  0
ARC
  5
8A81
  8
0
 10
138.83870561902029
 20
78.190703628895761
 30
0.0
 40
1.279000000000025
 50
56.815899422239951
 51
87.761820973522646
  0
ARC
  5
8A82
  8
0
 10
139.6418863451361
 20
89.494472704838373
 30
0.0
 40
10.05400000000002
 50
242.69410020406471
 51
265.70345763473068
  0
ARC
  5
8A83
  8
0
 10
139.99367998084341
 20
73.213077487818381
 30
0.0
 40
10.054000000000061
 50
96.770410718342262
 51
119.780980700621
  0
ARC
  5
8A84
  8
0
 10
138.70415084250379
 20
84.47171029471599
 30
0.0
 40
1.2790000000000259
 50
274.6753737816569
 51
305.60736355549977
  0
ARC
  5
8A85
  8
0
 10
139.06109945242281
 20
83.936001836022328
 30
0.0
 40
0.6359999999999677
 50
307.56225841395008
 51
347.94219112636472
  0
LINE
  5
8A86
  8
0
 10
139.7518746256828
 20
84.624482970684767
 30
0.0
 11
139.68306851387021
 21
83.803142374381423
 31
0.0
  0
ARC
  5
8A87
  8
0
 10
139.1165215154324
 20
84.595794382555596
 30
0.0
 40
0.6359999999999924
 50
2.5853713948300938
 51
42.952511922736718
  0
ARC
  5
8A88
  8
0
 10
138.67473096373999
 20
84.127680710974289
 30
0.0
 40
1.2790000000000969
 50
44.815899422245359
 51
75.761820973523385
  0
ARC
  5
8A89
  8
0
 10
141.8105460051386
 20
95.017444649057623
 30
0.0
 40
10.05400000000005
 50
230.6941002040642
 51
253.70345763472861
  0
ARC
  5
8A8A
  8
0
 10
138.7695596974163
 20
79.018694971311774
 30
0.0
 40
10.05400000000011
 50
84.770410718345104
 51
107.7809807006217
  0
ARC
  5
8A8B
  8
0
 10
139.84901124785139
 20
90.299407822432556
 30
0.0
 40
1.2789999999999631
 50
262.67537378165099
 51
293.60736355549722
  0
ARC
  5
8A8C
  8
0
 10
140.0867796227966
 20
89.701192089845335
 30
0.0
 40
0.6360000000000454
 50
295.56225841394109
 51
335.94219112637131
  0
LINE
  5
8A8D
  8
0
 10
140.9056026190519
 20
90.231008082628264
 30
0.0
 11
140.66753235459331
 21
89.441921282559647
 31
0.0
  0
ARC
  5
8A8E
  8
0
 10
140.2781691646957
 20
90.33504369138997
 30
0.0
 40
0.6360000000000516
 50
350.58537139483298
 51
30.952511922725009
  0
ARC
  5
8A8F
  8
0
 10
139.74870649157759
 20
89.969012847251705
 30
0.0
 40
1.2790000000000501
 50
32.815899422239333
 51
63.761820973524777
  0
ARC
  5
8A90
  8
0
 10
145.08010568363991
 20
99.968836708496511
 30
0.0
 40
10.0540000000001
 50
218.69410020406499
 51
241.70345763472861
  0
ARC
  5
8A91
  8
0
 10
138.77924512640669
 20
84.951954701460892
 30
0.0
 40
10.054
 50
72.770410718342774
 51
95.780980700623573
  0
ARC
  5
8A92
  8
0
 10
142.18050015307941
 20
95.761726314344841
 30
0.0
 40
1.2790000000000421
 50
250.6753737816513
 51
281.60736355549972
  0
ARC
  5
8A93
  8
0
 10
142.28869667412641
 20
95.127148205935484
 30
0.0
 40
0.636000000000018
 50
283.56225841395008
 51
323.94219112636961
  0
LINE
  5
8A94
  8
0
 10
143.19978167116639
 20
95.475143939256682
 30
0.0
 11
142.8028538525104
 21
94.752798043191447
 31
0.0
  0
ARC
  5
8A95
  8
0
 10
142.6076890535453
 20
95.707356505946578
 30
0.0
 40
0.6360000000000518
 50
338.58537139483468
 51
18.952511922730789
  0
ARC
  5
8A96
  8
0
 10
142.01369431846041
 20
95.459405793551085
 30
0.0
 40
1.2790000000001209
 50
20.815899422242051
 51
51.76182097352202
  0
ARC
  5
8A97
  8
0
 10
149.30766993360129
 20
104.13224929074219
 30
0.0
 40
10.054
 50
206.69410020406559
 51
229.70345763472909
  0
ARC
  5
8A98
  8
0
 10
167.00000014901161
 20
81.939249485731125
 30
0.0
 40
32.000000000000021
 50
143.99999999999889
 51
146.46888630579241
  0
ARC
  5
8A99
  8
0
 10
140.022312968092
 20
90.753544757119016
 30
0.0
 40
10.053999999999951
 50
60.770410718344209
 51
83.780980700624099
  0
ARC
  5
8A9A
  8
0
 10
145.59672030530419
 20
100.61993624124401
 30
0.0
 40
1.2790000000001209
 50
238.6753737816498
 51
269.60736355549773
  0
ARC
  5
8A9B
  8
0
 10
145.57061626529881
 20
99.976729865393636
 30
0.0
 40
0.6360000000000267
 50
271.56225841394098
 51
311.94219112636762
  0
LINE
  5
8A9C
  8
0
 10
146.53414373099801
 20
100.12769624590869
 30
0.0
 11
145.9957070350647
 21
99.503659829497323
 31
0.0
  0
ARC
  5
8A9D
  8
0
 10
146.0032699845616
 20
100.47793697701231
 30
0.0
 40
0.6359999999999462
 50
326.58537139483559
 51
6.9525119227286432
  0
ARC
  5
8A9E
  8
0
 10
145.3707036077362
 20
100.3589030322908
 30
0.0
 40
1.2789999999999799
 50
8.8158994222378162
 51
39.761820973525282
  0
ARC
  5
8A9F
  8
0
 10
154.3084739111959
 20
107.32572128768059
 30
0.0
 40
10.05400000000008
 50
194.69410020406539
 51
217.7034576347302
  0
ARC
  5
8AA0
  8
0
 10
167.00000014901161
 20
81.939249485731125
 30
0.0
 40
31.999999999999972
 50
132.00000000000011
 51
134.4688863057936
  0
ARC
  5
8AA1
  8
0
 10
142.4444351928891
 20
96.169907813735875
 30
0.0
 40
10.05400000000019
 50
48.770410718343051
 51
71.780980700623999
  0
ARC
  5
8AA2
  8
0
 10
149.94836649103061
 20
104.6617105170465
 30
0.0
 40
1.2790000000000099
 50
226.67537378164741
 51
257.60736355549761
  0
ARC
  5
8AA3
  8
0
 10
149.789102761782
 20
104.0379870788266
 30
0.0
 40
0.6359999999999502
 50
259.56225841394058
 51
299.94219112637001
  0
LINE
  5
8AA4
  8
0
 10
150.7629628926515
 20
103.9853256195783
 30
0.0
 11
150.1065462529659
 21
103.4868743270635
 31
0.0
  0
ARC
  5
8AA5
  8
0
 10
150.31650877725389
 20
104.4382878462167
 30
0.0
 40
0.635999999999986
 50
314.58537139482752
 51
354.95251192271928
  0
ARC
  5
8AA6
  8
0
 10
149.67301694474551
 20
104.4533730237417
 30
0.0
 40
1.2790000000000621
 50
356.81589942223462
 51
27.761820973520649
  0
ARC
  5
8AA7
  8
0
 10
159.86395848608291
 20
109.4096826490666
 30
0.0
 40
10.05400000000007
 50
182.69410020406519
 51
205.70345763472821
  0
ARC
  5
8AA8
  8
0
 10
167.00000014901161
 20
81.939249485731125
 30
0.0
 40
32.000000000000007
 50
119.9999999999999
 51
122.4688863057913
  0
ARC
  5
8AA9
  8
0
 10
145.93975343694271
 20
100.9643228151444
 30
0.0
 40
10.05400000000003
 50
36.770410718344728
 51
59.780980700622621
  0
ARC
  5
8AAA
  8
0
 10
155.04525089042701
 20
107.71040421131551
 30
0.0
 40
1.2789999999999411
 50
214.6753737816525
 51
245.60736355550779
  0
ARC
  5
8AAB
  8
0
 10
154.75978806113571
 20
107.1334234179333
 30
0.0
 40
0.6359999999999957
 50
247.5622584139594
 51
287.94219112636767
  0
LINE
  5
8AAC
  8
0
 10
155.7014172598719
 20
106.8794347345829
 30
0.0
 11
154.95571286231279
 21
106.5283540636301
 31
0.0
  0
ARC
  5
8AAD
  8
0
 10
155.358896199166
 20
107.4153227767036
 30
0.0
 40
0.6359999999999703
 50
302.58537139482678
 51
342.9525119227319
  0
ARC
  5
8AAE
  8
0
 10
154.7326025918716
 20
107.5638677818305
 30
0.0
 40
1.279000000000057
 50
344.81589942224258
 51
15.761820973523241
  0
ARC
  5
8AAF
  8
0
 10
165.7313223241666
 20
110.29305426345159
 30
0.0
 40
10.054000000000039
 50
170.6941002040642
 51
193.7034576347294
  0
ARC
  5
8AB0
  8
0
 10
167.00000014901161
 20
81.939249485731125
 30
0.0
 40
32.000000000000007
 50
107.99999999999881
 51
110.4688863057907
  0
ARC
  5
8AB1
  8
0
 10
150.35550552058959
 20
104.92725081962691
 30
0.0
 40
10.05399999999992
 50
24.77041071834492
 51
47.780980700621569
  0
ARC
  5
8AB2
  8
0
 10
160.66461519767529
 20
109.6327747803559
 30
0.0
 40
1.2790000000000621
 50
202.67537378165019
 51
233.6073635555048
  0
ARC
  5
8AB3
  8
0
 10
160.26542936378371
 20
109.1277534611432
 30
0.0
 40
0.6360000000000302
 50
235.56225841395889
 51
275.94219112636608
  0
LINE
  5
8AB4
  8
0
 10
161.13367515429849
 20
108.6835406720638
 30
0.0
 11
160.3312713727355
 21
108.4951713681221
 31
0.0
  0
ARC
  5
8AB5
  8
0
 10
160.9100557239004
 20
109.27893105661209
 30
0.0
 40
0.6359999999999797
 50
290.5853713948265
 51
330.9525119227344
  0
ARC
  5
8AB6
  8
0
 10
160.32833237774909
 20
109.55444375981889
 30
0.0
 40
1.2789999999999859
 50
332.81589942224161
 51
3.7618209735231738
  0
ARC
  5
8AB7
  8
0
 10
171.65413347098769
 20
109.9372285523996
 30
0.0
 40
10.053999999999959
 50
158.69410020406389
 51
181.7034576347294
  0
ARC
  5
8AB8
  8
0
 10
155.49870188864509
 20
107.8854928571491
 30
0.0
 40
10.054
 50
12.770410718343641
 51
35.780980700622592
  0
ARC
  5
8AB9
  8
0
 10
166.5608662278467
 20
110.344805405743
 30
0.0
 40
1.278999999999999
 50
190.67537378164951
 51
221.607363555501
  0
ARC
  5
8ABA
  8
0
 10
166.0654037258023
 20
109.9338154157105
 30
0.0
 40
0.6360000000000087
 50
223.5622584139478
 51
263.94219112637057
  0
LINE
  5
8ABB
  8
0
 10
166.82231896487059
 20
109.3187902122735
 30
0.0
 11
165.998285420239
 21
109.30136702954761
 31
0.0
  0
ARC
  5
8ABC
  8
0
 10
166.72737504280789
 20
109.9476640615257
 30
0.0
 40
0.6360000000000207
 50
278.58537139482809
 51
318.95251192272679
  0
ARC
  5
8ABD
  8
0
 10
166.21564605944451
 20
110.3381032356256
 30
0.0
 40
1.2789999999999819
 50
320.81589942224002
 51
351.76182097352449
  0
ARC
  5
8ABE
  8
0
 10
177.37353665862921
 20
108.3577568069248
 30
0.0
 40
10.054000000000061
 50
146.69410020406551
 51
169.70345763472801
  0
ARC
  5
8ABF
  8
0
 10
161.14456018003079
 20
109.7097595554511
 30
0.0
 40
10.053999999999981
 50
0.7704107183439942
 51
23.780980700624649
  0
ARC
  5
8AC0
  8
0
 10
172.47630951757139
 20
109.8153769324455
 30
0.0
 40
1.278999999999942
 50
178.6753737816515
 51
209.6073635555029
  0
ARC
  5
8AC1
  8
0
 10
171.9062244362062
 20
109.5163805063065
 30
0.0
 40
0.6359999999999662
 50
211.56225841395539
 51
251.94219112633991
  0
LINE
  5
8AC2
  8
0
 10
172.51872855052349
 20
108.75742435455319
 30
0.0
 11
171.7090795449912
 21
108.91170725226399
 31
0.0
  0
ARC
  5
8AC3
  8
0
 10
172.55660938705691
 20
109.39229495019249
 30
0.0
 40
0.6359999999999425
 50
266.5853713948253
 51
306.95251192271661
  0
ARC
  5
8AC4
  8
0
 10
172.13723977860269
 20
109.88059652974241
 30
0.0
 40
1.2790000000000079
 50
308.81589942223371
 51
339.76182097352239
  0
ARC
  5
8AC5
  8
0
 10
182.6395665230493
 20
105.62366952145101
 30
0.0
 40
10.053999999999959
 50
134.69410020406369
 51
157.70345763472801
  0
ARC
  5
8AC6
  8
0
 10
167.04632929557931
 20
110.3203217060145
 30
0.0
 40
10.05400000000007
 50
348.77041071834282
 51
11.78098070062207
  0
ARC
  5
8AC7
  8
0
 10
178.1524118096423
 20
108.0676279252262
 30
0.0
 40
1.2790000000000039
 50
166.67537378167171
 51
197.6073635555114
  0
ARC
  5
8AC8
  8
0
 10
177.53261960258379
 20
107.89369264154701
 30
0.0
 40
0.6360000000000409
 50
199.56225841397281
 51
239.94219112636671
  0
LINE
  5
8AC9
  8
0
 10
177.9739426150918
 20
107.023974135518
 30
0.0
 11
177.2140644192695
 21
107.3432222008705
 31
0.0
  0
ARC
  5
8ACA
  8
0
 10
178.1429932440339
 20
107.63709601773461
 30
0.0
 40
0.6359999999999904
 50
254.58537139482431
 51
294.95251192272991
  0
ARC
  5
8ACB
  8
0
 10
177.83431147473701
 20
108.201918880577
 30
0.0
 40
1.279000000000023
 50
296.81589942224332
 51
327.76182097352449
  0
ARC
  5
8ACC
  8
0
 10
187.22207228995831
 20
101.85445942995941
 30
0.0
 40
10.054
 50
122.6941002040658
 51
145.70345763472841
  0
ARC
  5
8ACD
  8
0
 10
172.94607360511091
 20
109.6904948130571
 30
0.0
 40
10.05400000000002
 50
336.77041071834361
 51
359.78098070062367
  0
ARC
  5
8ACE
  8
0
 10
183.34110019693489
 20
105.1779434023307
 30
0.0
 40
1.2790000000000059
 50
154.67537378166989
 51
185.607363555511
  0
ARC
  5
8ACF
  8
0
 10
182.6986887577244
 20
105.1366710676421
 30
0.0
 40
0.6359999999999471
 50
187.56225841396761
 51
227.94219112636989
  0
LINE
  5
8AD0
  8
0
 10
182.94954371452329
 20
104.19420264661311
 30
0.0
 11
182.27264542877671
 21
104.66446094214911
 31
0.0
  0
ARC
  5
8AD1
  8
0
 10
183.24237483274521
 20
104.75877787987901
 30
0.0
 40
0.6359999999999094
 50
242.58537139482641
 51
282.95251192271172
  0
ARC
  5
8AD2
  8
0
 10
183.05787177714319
 20
105.3754365565873
 30
0.0
 40
1.2790000000000441
 50
284.8158994222286
 51
315.76182097352358
  0
ARC
  5
8AD3
  8
0
 10
190.92077646803961
 20
97.214859100125281
 30
0.0
 40
10.053999999999849
 50
110.6941002040634
 51
133.70345763472781
  0
ARC
  5
8AD4
  8
0
 10
178.5859459721849
 20
107.8478053340461
 30
0.0
 40
10.05399999999997
 50
324.7704107183431
 51
347.78098070062327
  0
ARC
  5
8AD5
  8
0
 10
187.81560409883559
 20
101.2726164436544
 30
0.0
 40
1.2790000000001041
 50
142.67537378167381
 51
173.60736355551049
  0
ARC
  5
8AD6
  8
0
 10
187.17864988999881
 20
101.365810857029
 30
0.0
 40
0.636000000000095
 50
175.56225841397281
 51
215.94219112636961
  0
LINE
  5
8AD7
  8
0
 10
187.22807314991951
 20
100.3917820751667
 30
0.0
 11
186.6637382358312
 21
100.9924981743097
 31
0.0
  0
ARC
  5
8AD8
  8
0
 10
187.6318867082162
 20
100.88313685095331
 30
0.0
 40
0.635999999999976
 50
230.5853713948234
 51
270.95251192271292
  0
ARC
  5
8AD9
  8
0
 10
187.57962603518291
 20
101.5246803982983
 30
0.0
 40
1.278999999999954
 50
272.81589942223337
 51
303.76182097352552
  0
ARC
  5
8ADA
  8
0
 10
193.5740279363597
 20
91.907641329634103
 30
0.0
 40
10.05400000000029
 50
98.694100204063389
 51
121.7034576347272
  0
ARC
  5
8ADB
  8
0
 10
183.71945691124981
 20
104.87278764141939
 30
0.0
 40
10.05400000000016
 50
312.7704107183435
 51
335.78098070062367
  0
ARC
  5
8ADC
  8
0
 10
191.38036622377891
 20
96.522328577129329
 30
0.0
 40
1.2790000000000059
 50
130.6753737816656
 51
161.60736355550441
  0
ARC
  5
8ADD
  8
0
 10
190.77670720068761
 20
96.745916695506182
 30
0.0
 40
0.6360000000000481
 50
163.56225841395721
 51
203.94219112637151
  0
LINE
  5
8ADE
  8
0
 10
190.62253718078131
 20
95.782896690070643
 30
0.0
 11
190.1954307854175
 21
96.487818472087383
 31
0.0
  0
ARC
  5
8ADF
  8
0
 10
191.11968613827429
 20
96.179557041310275
 30
0.0
 40
0.6360000000000614
 50
218.5853713948253
 51
258.952511922714
  0
ARC
  5
8AE0
  8
0
 10
191.20195188999571
 20
96.817946927805579
 30
0.0
 40
1.2789999999999571
 50
260.81589942223337
 51
291.761820973525
  0
ARC
  5
8AE1
  8
0
 10
195.06586687403939
 20
86.164757001913785
 30
0.0
 40
10.054000000000039
 50
86.694100204066544
 51
109.70345763472859
  0
ARC
  5
8AE2
  8
0
 10
188.1222473609503
 20
100.89546428406329
 30
0.0
 40
10.053999999999951
 50
300.77041071834248
 51
323.78098070062248
  0
ARC
  5
8AE3
  8
0
 10
193.87958936127879
 20
91.134690176932807
 30
0.0
 40
1.278999999999973
 50
118.67537378166141
 51
149.60736355550571
  0
LINE
  5
8AE4
  8
0
 10
192.98458543419841
 20
90.568977594375625
 30
0.0
 11
192.7133731245994
 21
91.34729597717525
 31
0.0
  0
ARC
  5
8AE5
  8
0
 10
193.55333955150701
 20
90.853607458911327
 30
0.0
 40
0.6360000000000151
 50
206.58537139482621
 51
246.95251192271041
  0
ARC
  5
8AE6
  8
0
 10
193.76653631987821
 20
91.460942983182704
 30
0.0
 40
1.279000000000021
 50
248.81589942223039
 51
279.76182097352103
  0
ARC
  5
8AE7
  8
0
 10
195.33109276086509
 20
80.237197719501566
 30
0.0
 40
10.05399999999992
 50
74.694100204063517
 51
97.703457634729133
  0
ARC
  5
8AE8
  8
0
 10
191.60189425170179
 20
96.089663378009462
 30
0.0
 40
10.053999999999901
 50
288.77041071834378
 51
311.78098070062242
  0
ARC
  5
8AE9
  8
0
 10
195.2040454676233
 20
85.345166893910729
 30
0.0
 40
1.279000000000027
 50
106.67537378166401
 51
137.60736355550461
  0
ARC
  5
8AEA
  8
0
 10
194.7435169898134
 20
85.794955048451385
 30
0.0
 40
0.6360000000000348
 50
139.56225841395781
 51
179.94219112637049
  0
LINE
  5
8AEB
  8
0
 10
194.2109808027744
 20
84.977898700162754
 30
0.0
 11
194.1075164526701
 21
85.795596661046133
 31
0.0
  0
ARC
  5
8AEC
  8
0
 10
194.8264846157916
 20
85.138057657248936
 30
0.0
 40
0.6360000000000233
 50
194.5853713948342
 51
234.95251192270601
  0
ARC
  5
8AED
  8
0
 10
195.16129467900291
 20
85.687795342566446
 30
0.0
 40
1.278999999999991
 50
236.81589942222831
 51
267.76182097352267
  0
ARC
  5
8AEE
  8
0
 10
194.35811395288709
 20
74.384026266623991
 30
0.0
 40
10.05399999999991
 50
62.694100204064704
 51
85.703457634727471
  0
ARC
  5
8AEF
  8
0
 10
167.00000014901161
 20
81.939249485731125
 30
0.0
 40
32.000000000000043
 50
0.0000000000008142
 51
2.4688863057924411
  0
ARC
  5
8AF0
  8
0
 10
194.0063203171797
 20
90.665421483643755
 30
0.0
 40
10.053999999999951
 50
276.7704107183423
 51
299.78098070062481
  0
ARC
  5
8AF1
  8
0
 10
167.00000014901161
 20
81.939249485731125
 30
0.0
 40
32.000000000000007
 50
180.0
 51
182.46888630579321
  0
ARC
  5
8AF2
  8
0
 10
193.33560831991929
 20
91.478900126644035
 30
0.0
 40
0.6360000000000592
 50
151.56225841396369
 51
191.94219112636409
  0
ARC
  5
8AF3
  8
0
 10
167.00000014901161
 20
81.939249485731125
 30
0.0
 40
31.999999999999989
 50
12.000000000000179
 51
14.4688863057915
  0
ARC
  5
8AF4
  8
0
 10
167.00000014901161
 20
81.939249485731125
 30
0.0
 40
32.0
 50
192.00000000000099
 51
194.46888630579221
  0
ARC
  5
8AF5
  8
0
 10
167.00000014901161
 20
81.939249485731125
 30
0.0
 40
32.000000000000007
 50
204.0000000000002
 51
206.46888630579409
  0
ARC
  5
8AF6
  8
0
 10
167.00000014901161
 20
81.939249485731125
 30
0.0
 40
32.000000000000057
 50
216.00000000000151
 51
218.4688863057948
  0
ARC
  5
8AF7
  8
0
 10
167.00000014901161
 20
81.939249485731125
 30
0.0
 40
32.0
 50
227.9999999999998
 51
230.46888630579269
  0
ARC
  5
8AF8
  8
0
 10
167.00000014901161
 20
81.939249485731125
 30
0.0
 40
32.000000000000028
 50
240.0
 51
242.46888630579221
  0
ARC
  5
8AF9
  8
0
 10
167.00000014901161
 20
81.939249485731125
 30
0.0
 40
32.000000000000007
 50
252.00000000000111
 51
254.4688863057921
  0
ARC
  5
8AFA
  8
0
 10
167.00000014901161
 20
81.939249485731125
 30
0.0
 40
32.000000000000007
 50
264.00000000000148
 51
266.46888630579429
  0
ARC
  5
8AFB
  8
0
 10
167.00000014901161
 20
81.939249485731125
 30
0.0
 40
32.0
 50
276.00000000000171
 51
278.46888630579332
  0
ARC
  5
8AFC
  8
0
 10
167.00000014901161
 20
81.939249485731125
 30
0.0
 40
32.0
 50
288.00000000000227
 51
290.46888630579417
  0
ARC
  5
8AFD
  8
0
 10
167.00000014901161
 20
81.939249485731125
 30
0.0
 40
32.000000000000028
 50
300.0
 51
302.46888630579127
  0
ARC
  5
8AFE
  8
0
 10
167.00000014901161
 20
81.939249485731125
 30
0.0
 40
32.000000000000021
 50
312.0000000000004
 51
314.46888630579389
  0
ARC
  5
8AFF
  8
0
 10
167.00000014901161
 20
81.939249485731125
 30
0.0
 40
32.0
 50
323.9999999999992
 51
326.46888630579258
  0
ARC
  5
8B00
  8
0
 10
167.00000014901161
 20
81.939249485731125
 30
0.0
 40
31.999999999999989
 50
336.00000000000091
 51
338.46888630579213
  0
ARC
  5
8B01
  8
0
 10
167.00000014901161
 20
81.939249485731125
 30
0.0
 40
32.000000000000007
 50
348.00000000000023
 51
350.46888630579338
  0
ARC
  5
8B02
  8
0
 10
167.00000014901161
 20
81.939249485731125
 30
0.0
 40
32.000000000000021
 50
95.999999999998479
 51
98.468886305793362
  0
ARC
  5
8B03
  8
0
 10
167.00000014901161
 20
81.939249485731125
 30
0.0
 40
32.000000000000021
 50
23.99999999999946
 51
26.468886305791219
  0
ARC
  5
8B04
  8
0
 10
167.00000014901161
 20
81.939249485731125
 30
0.0
 40
32.000000000000007
 50
36.00000000000113
 51
38.468886305791173
  0
ARC
  5
8B05
  8
0
 10
167.00000014901161
 20
81.939249485731125
 30
0.0
 40
32.0
 50
47.999999999999879
 51
50.468886305792502
  0
ARC
  5
8B06
  8
0
 10
167.00000014901161
 20
81.939249485731125
 30
0.0
 40
32.000000000000021
 50
60.000000000000021
 51
62.468886305792211
  0
ARC
  5
8B07
  8
0
 10
167.00000014901161
 20
81.939249485731125
 30
0.0
 40
32.000000000000007
 50
72.000000000001123
 51
74.468886305792068
  0
ARC
  5
8B08
  8
0
 10
167.00000014901161
 20
81.939249485731125
 30
0.0
 40
32.000000000000028
 50
84.000000000001535
 51
86.468886305790974
  0
ARC
  5
8B09
  8
0
 10
167.00000014901161
 20
81.939249485731125
 30
0.0
 40
32.0
 50
167.9999999999998
 51
170.46888630579249
  0
ARC
  5
8B0A
  8
0
 10
167.00000014901161
 20
81.939249485731125
 30
0.0
 40
32.0
 50
156.00000000000051
 51
158.46888630579139
  0
LINE
  5
8B10
  8
0
 10
69.999999552965164
 20
61.939249932765961
 30
0.0
 11
85.000000149011612
 21
61.939249932765961
 31
0.0
  0
LINE
  5
8B11
  8
0
 10
85.000000149011612
 20
101.9392490386963
 30
0.0
 11
69.999999552965164
 21
101.9392490386963
 31
0.0
  0
LINE
  5
8B12
  8
3
 10
50.0
 20
80.560789862647653
 30
0.0
 11
69.999999552965164
 21
80.560789862647653
 31
0.0
  0
LINE
  5
8B14
  8
3
 10
69.999999552965164
 20
81.939249485731153
 30
0.0
 11
50.0
 21
81.939249485731153
 31
0.0
  0
LINE
  5
8B1D
  8
3
 10
50.0
 20
87.237911019474254
 30
0.0
 11
69.999999552965164
 21
87.237911019474254
 31
0.0
  0
LINE
  5
8B20
  8
3
 10
69.999999552965164
 20
88.59242377802731
 30
0.0
 11
50.0
 21
88.59242377802731
 31
0.0
  0
LINE
  5
8B23
  8
3
 10
69.999999552965164
 20
75.286075193434954
 30
0.0
 11
50.0
 21
75.286075193434954
 31
0.0
  0
LINE
  5
8B24
  8
3
 10
50.0
 20
73.943914100527763
 30
0.0
 11
69.999999552965164
 21
73.943914100527763
 31
0.0
  0
LINE
  5
8B2F
  8
3
 10
50.0
 20
93.683455325663104
 30
0.0
 11
69.999999552965164
 21
93.683455325663104
 31
0.0
  0
LINE
  5
8B32
  8
3
 10
69.999999552965164
 20
94.954822398722186
 30
0.0
 11
50.0
 21
94.954822398722186
 31
0.0
  0
LINE
  5
8B35
  8
3
 10
69.999999552965164
 20
68.923676572740064
 30
0.0
 11
50.0
 21
68.923676572740064
 31
0.0
  0
LINE
  5
8B36
  8
3
 10
50.0
 20
67.676472663879395
 30
0.0
 11
69.999999552965164
 21
67.676472663879395
 31
0.0
  0
LINE
  5
8B62
  8
3
 10
69.999999552965164
 20
100.7483780384064
 30
0.0
 11
50.0
 21
100.7483780384064
 31
0.0
  0
LINE
  5
8B63
  8
3
 10
50.0
 20
99.615720286965384
 30
0.0
 11
69.999999552965164
 21
99.615720286965384
 31
0.0
  0
LINE
  5
8B7A
  8
3
 10
69.999999552965164
 20
63.130120933055871
 30
0.0
 11
50.0
 21
63.130120933055871
 31
0.0
  0
LINE
  5
8B7B
  8
3
 10
50.0
 20
62.032384052872651
 30
0.0
 11
69.999999552965164
 21
62.032384052872651
 31
0.0
  0
LINE
  5
8B94
  8
3
 10
50.0
 20
104.7754410654306
 30
0.0
 11
69.999999552965164
 21
104.7754410654306
 31
0.0
  0
LINE
  5
8B97
  8
3
 10
69.999999552965164
 20
105.7198841124773
 30
0.0
 11
50.0
 21
105.7198841124773
 31
0.0
  0
LINE
  5
8B9A
  8
3
 10
69.999999552965164
 20
58.15861485898494
 30
0.0
 11
50.0
 21
58.15861485898494
 31
0.0
  0
LINE
  5
8B9E
  8
3
 10
50.0
 20
57.258320227265351
 30
0.0
 11
69.999999552965164
 21
57.258320227265351
 31
0.0
  0
LINE
  5
8BA3
  8
0
 10
85.000000149011612
 20
61.939249932765961
 30
0.0
 11
85.000000149011612
 21
101.9392490386963
 31
0.0
  0
LINE
  5
8BA6
  8
3
 10
69.999999552965164
 20
109.6520621329546
 30
0.0
 11
50.0
 21
109.6520621329546
 31
0.0
  0
LINE
  5
8BA7
  8
3
 10
50.0
 20
108.9371081441641
 30
0.0
 11
69.999999552965164
 21
108.9371081441641
 31
0.0
  0
LINE
  5
8BAC
  8
3
 10
69.999999552965164
 20
54.226436838507652
 30
0.0
 11
50.0
 21
54.226436838507652
 31
0.0
  0
LINE
  5
8BAD
  8
3
 10
50.0
 20
53.562930971384041
 30
0.0
 11
69.999999552965164
 21
53.562930971384041
 31
0.0
  0
LINE
  5
8BB2
  8
3
 10
50.0
 20
111.9188398122787
 30
0.0
 11
69.999999552965164
 21
111.9188398122787
 31
0.0
  0
LINE
  5
8BB5
  8
3
 10
69.999999552965164
 20
112.3730588704348
 30
0.0
 11
50.0
 21
112.3730588704348
 31
0.0
  0
LINE
  5
8BB8
  8
3
 10
69.999999552965164
 20
51.505440101027482
 30
0.0
 11
50.0
 21
51.505440101027482
 31
0.0
  0
LINE
  5
8BBB
  8
3
 10
50.0
 20
51.10772252082824
 30
0.0
 11
69.999999552965164
 21
51.10772252082824
 31
0.0
  0
LINE
  5
8BBE
  8
3
 10
50.0
 20
113.5903216898441
 30
0.0
 11
69.999999552965164
 21
113.5903216898441
 31
0.0
  0
LINE
  5
8BC1
  8
3
 10
69.999999552965164
 20
113.7639500200748
 30
0.0
 11
50.0
 21
113.7639500200748
 31
0.0
  0
LINE
  5
8BC4
  8
3
 10
69.999999552965164
 20
50.114548951387398
 30
0.0
 11
50.0
 21
50.114548951387398
 31
0.0
  0
LINE
  5
8BC7
  8
0
 10
50.0
 20
50.0
 30
0.0
 11
69.999999552965164
 21
50.0
 31
0.0
  0
LINE
  5
8BCA
  8
0
 10
50.0
 20
113.87849897146219
 30
0.0
 11
69.999999552965164
 21
113.87849897146219
 31
0.0
  0
LINE
  5
8BCB
  8
0
 10
69.999999552965164
 20
113.87849897146219
 30
0.0
 11
69.999999552965221
 21
50.0
 31
0.0
  0
LINE
  5
8BCC
  8
0
 10
50.0
 20
113.87849897146219
 30
0.0
 11
50.000000000000057
 21
50.0
 31
0.0
  0
LINE
  5
8BF9
  8
2
 10
85.000000149011612
 20
89.010317064821734
 30
0.0
 11
50.0
 21
89.010317064821734
 31
0.0
  0
LINE
  5
8C05
  8
2
 10
85.000000149011612
 20
91.739249601960196
 30
0.0
 11
50.0
 21
91.739249601960196
 31
0.0
  0
LINE
  5
8C7C
  8
2
 10
50.0
 20
74.439249653369174
 30
0.0
 11
85.000000149011612
 21
74.439249653369174
 31
0.0
  0
LINE
  5
8C8D
  8
1
 10
167.00000014901161
 20
117.9392494857311
 30
0.0
 11
167.00000014901161
 21
45.939249485731118
 31
0.0
  0
LINE
  5
8C8E
  8
1
 10
203.00000014901161
 20
81.939249485731125
 30
0.0
 11
131.00000014901161
 21
81.939249485731125
 31
0.0
  0
CIRCLE
  5
8C96
  8
5
 10
167.00000014901161
 20
81.939249485731125
 30
0.0
 40
30.0
  0
LINE
  5
8D06
  8
1
 10
89.000000149011612
 20
81.939249485731125
 30
0.0
 11
46.0
 21
81.939249485731125
 31
0.0
  0
ENDSEC
  0
EOF
