  0
SECTION
  2
HEADER
  9
$ACADVER
  1
AC1009
  9
$INSBASE
 10
0.0
 20
0.0
 30
0.0
  9
$EXTMIN
 10
0.0
 20
-2.960436562073669
 30
0.0
  9
$EXTMAX
 10
171.00000014901161
 20
106.0000005364418
 30
0.0
  9
$LIMMIN
 10
0.0
 20
0.0
  9
$LIMMAX
 10
275.0
 20
175.0
  9
$ORTHOMODE
 70
     1
  9
$REGENMODE
 70
     1
  9
$FILLMODE
 70
     1
  9
$QTEXTMODE
 70
     0
  9
$MIRRTEXT
 70
     0
  9
$DRAGMODE
 70
     2
  9
$LTSCALE
 40
5.0
  9
$OSMODE
 70
    37
  9
$ATTMODE
 70
     1
  9
$TEXTSIZE
 40
0.2
  9
$TRACEWID
 40
0.05
  9
$TEXTSTYLE
  7
STANDARD
  9
$CLAYER
  8
0
  9
$CELTYPE
  6
BYLAYER
  9
$CECOLOR
 62
   256
  9
$DIMSCALE
 40
1.0
  9
$DIMASZ
 40
3.0
  9
$DIMEXO
 40
1.0
  9
$DIMDLI
 40
6.0
  9
$DIMRND
 40
0.0
  9
$DIMDLE
 40
0.0
  9
$DIMEXE
 40
1.0
  9
$DIMTP
 40
495.0
  9
$DIMTM
 40
0.0
  9
$DIMTXT
 40
3.0
  9
$DIMCEN
 40
0.0
  9
$DIMTSZ
 40
0.0
  9
$DIMTOL
 70
     0
  9
$DIMLIM
 70
     0
  9
$DIMTIH
 70
     0
  9
$DIMTOH
 70
     0
  9
$DIMSE1
 70
     0
  9
$DIMSE2
 70
     0
  9
$DIMTAD
 70
     1
  9
$DIMZIN
 70
     8
  9
$DIMBLK
  1

  9
$DIMASO
 70
     0
  9
$DIMSHO
 70
     0
  9
$DIMPOST
  1

  9
$DIMAPOST
  1

  9
$DIMALT
 70
     0
  9
$DIMALTD
 70
     2
  9
$DIMALTF
 40
25.399999999999999
  9
$DIMLFAC
 40
1.0
  9
$DIMTOFL
 70
     1
  9
$DIMTVP
 40
0.0
  9
$DIMTIX
 70
     1
  9
$DIMSOXD
 70
     0
  9
$DIMSAH
 70
     0
  9
$DIMBLK1
  1

  9
$DIMBLK2
  1

  9
$DIMSTYLE
  2
STANDARD
  9
$DIMCLRD
 70
     0
  9
$DIMCLRE
 70
     0
  9
$DIMCLRT
 70
     0
  9
$DIMTFAC
 40
1.0
  9
$DIMGAP
 40
1.0
  9
$LUNITS
 70
     2
  9
$LUPREC
 70
     1
  9
$SKETCHINC
 40
0.1
  9
$FILLETRAD
 40
0.0
  9
$AUNITS
 70
     0
  9
$AUPREC
 70
     0
  9
$MENU
  1
E:\r13\win\SUPPORT\ACAD
  9
$ELEVATION
 40
0.0
  9
$PELEVATION
 40
0.0
  9
$THICKNESS
 40
0.0
  9
$LIMCHECK
 70
     0
  9
$BLIPMODE
 70
     0
  9
$CHAMFERA
 40
0.0
  9
$CHAMFERB
 40
0.0
  9
$SKPOLY
 70
     0
  9
$TDCREATE
 40
2450653.5278402781
  9
$TDUPDATE
 40
2459439.612810289
  9
$TDINDWG
 40
0.3941500116
  9
$TDUSRTIMER
 40
0.3941500116
  9
$USRTIMER
 70
     1
  9
$ANGBASE
 50
0.0
  9
$ANGDIR
 70
     0
  9
$PDMODE
 70
     0
  9
$PDSIZE
 40
0.0
  9
$PLINEWID
 40
0.0
  9
$COORDS
 70
     1
  9
$SPLFRAME
 70
     0
  9
$SPLINETYPE
 70
     6
  9
$SPLINESEGS
 70
     8
  9
$ATTDIA
 70
     0
  9
$ATTREQ
 70
     1
  9
$HANDLING
 70
     1
  9
$HANDSEED
  5
70DF
  9
$SURFTAB1
 70
     6
  9
$SURFTAB2
 70
     6
  9
$SURFTYPE
 70
     6
  9
$SURFU
 70
     6
  9
$SURFV
 70
     6
  9
$UCSNAME
  2

  9
$UCSORG
 10
0.0
 20
0.0
 30
0.0
  9
$UCSXDIR
 10
1.0
 20
0.0
 30
0.0
  9
$UCSYDIR
 10
0.0
 20
1.0
 30
0.0
  9
$PUCSNAME
  2

  9
$PUCSORG
 10
0.0
 20
0.0
 30
0.0
  9
$PUCSXDIR
 10
1.0
 20
0.0
 30
0.0
  9
$PUCSYDIR
 10
0.0
 20
1.0
 30
0.0
  9
$USERI1
 70
     4
  9
$USERI2
 70
     1
  9
$USERI3
 70
     1
  9
$USERI4
 70
     0
  9
$USERI5
 70
     0
  9
$USERR1
 40
1.0
  9
$USERR2
 40
3.0
  9
$USERR3
 40
3.0
  9
$USERR4
 40
3.0
  9
$USERR5
 40
10.0
  9
$WORLDVIEW
 70
     1
  9
$SHADEDGE
 70
     3
  9
$SHADEDIF
 70
    70
  9
$TILEMODE
 70
     1
  9
$MAXACTVP
 70
    16
  9
$PLIMCHECK
 70
     0
  9
$PEXTMIN
 10
1.0000000000000000E+020
 20
1.0000000000000000E+020
 30
1.0000000000000000E+020
  9
$PEXTMAX
 10
-1.0000000000000000E+020
 20
-1.0000000000000000E+020
 30
-1.0000000000000000E+020
  9
$PLIMMIN
 10
0.0
 20
0.0
  9
$PLIMMAX
 10
12.0
 20
9.0
  9
$UNITMODE
 70
     0
  9
$VISRETAIN
 70
     0
  9
$PLINEGEN
 70
     0
  9
$PSLTSCALE
 70
     0
  0
ENDSEC
  0
SECTION
  2
TABLES
  0
TABLE
  2
VPORT
 70
     1
  0
VPORT
  2
*ACTIVE
 70
     0
 10
0.0
 20
0.0
 11
1.0
 21
1.0
 12
260.1957585644372
 22
100.0
 13
0.0
 23
0.0
 14
5.0
 24
5.0
 15
10.0
 25
10.0
 16
0.0
 26
0.0
 36
1.0
 17
0.0
 27
0.0
 37
0.0
 40
200.0
 41
2.6019575856443722
 42
50.0
 43
0.0
 44
0.0
 50
0.0
 51
0.0
 71
     0
 72
   100
 73
     1
 74
     0
 75
     0
 76
     0
 77
     0
 78
     0
  0
ENDTAB
  0
TABLE
  2
LTYPE
 70
     5
  0
LTYPE
  2
CONTINUOUS
 70
     0
  3
Solid Line
 72
    65
 73
     0
 40
0.0
  0
LTYPE
  2
CENTER
 70
     0
  3
____ _ ____ _ ____ _ ____ _ ____ _ ____ _ ____ 
 72
    65
 73
     4
 40
2.0
 49
1.25
 49
-0.25
 49
0.25
 49
-0.25
  0
LTYPE
  2
HIDDEN
 70
     0
  3
__ __ __ __ __ __ __ __ __ __ __ __ __ __ __ __
 72
    65
 73
     2
 40
0.375
 49
0.25
 49
-0.125
  0
LTYPE
  2
PHANTOM
 70
     0
  3
_____ _ _ _____ _ _ _____ _ _ _____ _ _ ____
 72
    65
 73
     6
 40
2.5
 49
1.25
 49
-0.25
 49
0.25
 49
-0.25
 49
0.25
 49
-0.25
  0
LTYPE
  2
PHANTOM2
 70
     0
  3
___ _ _ ___ _ _ ___ _ _ ___ _ _
 72
    65
 73
     6
 40
1.25
 49
0.625
 49
-0.125
 49
0.125
 49
-0.125
 49
0.125
 49
-0.125
  0
ENDTAB
  0
TABLE
  2
LAYER
 70
     6
  0
LAYER
  2
0
 70
     0
 62
     7
  6
CONTINUOUS
  0
LAYER
  2
1
 70
     0
 62
     1
  6
CENTER
  0
LAYER
  2
2
 70
     0
 62
     2
  6
HIDDEN
  0
LAYER
  2
5
 70
     0
 62
     3
  6
PHANTOM
  0
LAYER
  2
DEFPOINTS
 70
     0
 62
     7
  6
CONTINUOUS
  0
LAYER
  2
3
 70
     0
 62
     3
  6
CONTINUOUS
  0
ENDTAB
  0
TABLE
  2
STYLE
 70
     2
  0
STYLE
  2
STANDARD
 70
     0
 40
0.0
 41
1.0
 50
0.0
 71
     0
 42
0.2
  3
simplex
  4
bigfont
  0
STYLE
  2
STANDARD1
 70
     0
 40
0.0
 41
1.0
 50
0.0
 71
     0
 42
3.0
  3
txt
  4

  0
ENDTAB
  0
TABLE
  2
VIEW
 70
     0
  0
ENDTAB
  0
TABLE
  2
UCS
 70
     0
  0
ENDTAB
  0
TABLE
  2
APPID
 70
     9
  0
APPID
  2
ACAD
 70
     0
  0
APPID
  2
_CALL_MAC$
 70
     0
  0
APPID
  2
ACAD_MLEADERVER
 70
     0
  0
APPID
  2
ACAD_EXEMPT_FROM_CAD_STANDARDS
 70
     0
  0
APPID
  2
ACAD_NAV_VCDISPLAY
 70
     0
  0
APPID
  2
ACAD_DSTYLE_DIMJAG
 70
     0
  0
APPID
  2
ACAD_DSTYLE_DIMTALN
 70
     0
  0
APPID
  2
ACAECLAYERSTANDARD
 70
     0
  0
APPID
  2
ACCMTRANSPARENCY
 70
     0
  0
ENDTAB
  0
TABLE
  2
DIMSTYLE
 70
     1
  0
DIMSTYLE
  2
STANDARD
 70
     0
  3

  4

  5

  6

  7

 40
1.0
 41
0.18
 42
0.0625
 43
0.38
 44
0.18
 45
0.0
 46
0.0
 47
0.0
 48
0.0
140
0.18
141
0.09
142
0.0
143
25.399999999999999
144
1.0
145
0.0
146
1.0
147
0.09
 71
     0
 72
     0
 73
     1
 74
     1
 75
     0
 76
     0
 77
     0
 78
     0
170
     0
171
     2
172
     0
173
     0
174
     0
175
     0
176
     0
177
     0
178
     0
  0
ENDTAB
  0
ENDSEC
  0
SECTION
  2
BLOCKS
  0
BLOCK
  8
0
  2
$MODEL_SPACE
 70
     2
 10
0.0
 20
0.0
 30
0.0
  3
$MODEL_SPACE
  1

  0
ENDBLK
  5
7
  8
0
  0
BLOCK
 67
     1
  8
0
  2
$PAPER_SPACE
 70
     0
 10
0.0
 20
0.0
 30
0.0
  3
$PAPER_SPACE
  1

  0
ENDBLK
  5
A
 67
     1
  8
0
  0
ENDSEC
  0
SECTION
  2
ENTITIES
  0
TEXT
  5
2BF
  8
0
 62
     3
 10
0.0
 20
0.0
 30
0.0
 40
10.0
  1
ZCL-2.0-24-A15-K
  7
STANDARD1
  0
LINE
  5
6E22
  8
0
 10
143.5000000931322
 20
85.800000652670846
 30
0.0
 11
138.50000020489091
 21
85.800000652670846
 31
0.0
  0
LINE
  5
6E23
  8
0
 10
138.50000020489091
 20
85.800000652670846
 30
0.0
 11
138.50000020489091
 21
83.071068115532384
 31
0.0
  0
LINE
  5
6E24
  8
0
 10
143.5000000931322
 20
83.071068115532384
 30
0.0
 11
143.5000000931322
 21
85.800000652670846
 31
0.0
  0
ARC
  5
6E25
  8
0
 10
141.00000014901161
 20
76.000000536441789
 30
0.0
 40
7.5
 50
109.4712206344895
 51
70.528779365510459
  0
CIRCLE
  5
6E26
  8
0
 10
141.00000014901161
 20
76.000000536441789
 30
0.0
 40
17.5
  0
ARC
  5
6E27
  8
0
 10
163.46163982714259
 20
73.146169062281203
 30
0.0
 40
1.6649999999999501
 50
86.767116649230843
 51
118.5876339913452
  0
ARC
  5
6E28
  8
0
 10
163.01501541202589
 20
74.000857755301539
 30
0.0
 40
0.7010000000000071
 50
119.9605579228852
 51
171.10866016389491
  0
LINE
  5
6E29
  8
0
 10
162.24851584434509
 20
73.412938229739652
 30
0.0
 11
162.32243864238259
 21
74.109204998239861
 31
0.0
  0
ARC
  5
6E2A
  8
0
 10
162.94848352483959
 20
73.374904052166812
 30
0.0
 40
0.7010000000000087
 50
176.88976447788781
 51
228.16949788613491
  0
ARC
  5
6E2B
  8
0
 10
163.5643660110984
 20
74.116880203719774
 30
0.0
 40
1.66500000000003
 50
229.40630805448359
 51
261.1815811548301
  0
ARC
  5
6E2C
  8
0
 10
160.60746644853711
 20
64.459813262384301
 30
0.0
 40
8.4549999999999041
 50
46.46869468228946
 51
71.365331404870076
  0
ARC
  5
6E2D
  8
0
 10
163.7087462687922
 20
77.376347528008054
 30
0.0
 40
8.4550000000000232
 50
261.63413324581808
 51
286.52810017038871
  0
ARC
  5
6E2E
  8
0
 10
161.95765207789191
 20
67.429910878742632
 30
0.0
 40
1.6650000000000009
 50
71.76711664923323
 51
103.5876339913509
  0
ARC
  5
6E2F
  8
0
 10
161.74745573206681
 20
68.37107166540828
 30
0.0
 40
0.7009999999999879
 50
104.9605579228917
 51
156.10866016389059
  0
LINE
  5
6E30
  8
0
 10
160.8549089580774
 20
68.001569435000405
 30
0.0
 11
161.106520652771
 21
68.654978834092603
 31
0.0
  0
ARC
  5
6E31
  8
0
 10
161.52118212423809
 20
67.78366653699959
 30
0.0
 40
0.7009999999999954
 50
161.88976447789381
 51
213.16949788614281
  0
ARC
  5
6E32
  8
0
 10
162.30811648270841
 20
68.340958347286275
 30
0.0
 40
1.6650000000000209
 50
214.4063080544849
 51
246.1815811548334
  0
ARC
  5
6E33
  8
0
 10
156.9525379852399
 20
59.778249903694068
 30
0.0
 40
8.455000000000048
 50
31.468694682290991
 51
56.365331404871711
  0
ARC
  5
6E34
  8
0
 10
163.29118932283629
 20
71.451993655333723
 30
0.0
 40
8.4550000000000232
 50
246.63413324581711
 51
271.5281001703886
  0
ARC
  5
6E35
  8
0
 10
159.02543498384529
 20
62.297690142633527
 30
0.0
 40
1.66500000000001
 50
56.767116649231433
 51
88.587633991349605
  0
ARC
  5
6E36
  8
0
 10
159.065991240914
 20
63.261184470674877
 30
0.0
 40
0.701000000000049
 50
89.960557922892832
 51
141.10866016389579
  0
LINE
  5
6E37
  8
0
 10
158.10822448134419
 20
63.135281391441808
 30
0.0
 11
158.5203756988048
 21
63.70130386203526
 31
0.0
  0
ARC
  5
6E38
  8
0
 10
158.69539608488171
 20
62.752358605760399
 30
0.0
 40
0.7010000000000888
 50
146.8897644778873
 51
198.16949788613709
  0
ARC
  5
6E39
  8
0
 10
159.59975403950409
 20
63.086987558878072
 30
0.0
 40
1.6650000000000069
 50
199.40630805448529
 51
231.18158115483101
  0
ARC
  5
6E3A
  8
0
 10
152.21047043121911
 20
56.202172042915343
 30
0.0
 40
8.4550000000000125
 50
16.468694682291801
 51
41.365331404871327
  0
ARC
  5
6E3B
  8
0
 10
161.35452467261601
 20
65.837578935670123
 30
0.0
 40
8.4549999999999912
 50
231.6341332458174
 51
256.52810017038712
  0
ARC
  5
6E3C
  8
0
 10
154.8648142942443
 20
58.099259215723833
 30
0.0
 40
1.665000000000054
 50
41.767116649233238
 51
73.587633991348895
  0
ARC
  5
6E3D
  8
0
 10
155.15335931230999
 20
59.019426538934582
 30
0.0
 40
0.7010000000000265
 50
74.960557922891724
 51
126.10866016389529
  0
LINE
  5
6E3E
  8
0
 10
154.19564055651421
 20
59.145701304078088
 30
0.0
 11
154.7402472645044
 21
59.585764259099953
 31
0.0
  0
ARC
  5
6E3F
  8
0
 10
154.66369805552
 20
58.623855579333728
 30
0.0
 40
0.7010000000000407
 50
131.8897644778834
 51
183.16949788613789
  0
ARC
  5
6E40
  8
0
 10
155.62384910620941
 20
58.713017265127867
 30
0.0
 40
1.664999999999951
 50
184.4063080544837
 51
216.18158115483169
  0
ARC
  5
6E41
  8
0
 10
146.70442785364401
 20
53.975283476511883
 30
0.0
 40
8.4549999999999805
 50
1.4686946822910121
 51
26.365331404870808
  0
ARC
  5
6E42
  8
0
 10
158.03073281355441
 20
60.915716453903428
 30
0.0
 40
8.4550000000000818
 50
216.6341332458189
 51
241.52810017038641
  0
ARC
  5
6E43
  8
0
 10
149.75932943333439
 20
55.120734227447379
 30
0.0
 40
1.665000000000012
 50
26.76711664923311
 51
58.587633991345449
  0
ARC
  5
6E44
  8
0
 10
150.27619934625901
 20
55.934866663399077
 30
0.0
 40
0.7010000000000142
 50
59.960557922880959
 51
111.1086601638865
  0
LINE
  5
6E45
  8
0
 10
149.38379669934511
 20
56.304714828729622
 30
0.0
 11
150.02374289929861
 21
56.588829681277261
 31
0.0
  0
ARC
  5
6E46
  8
0
 10
149.70084159415831
 20
55.67950811629678
 30
0.0
 40
0.7010000000000125
 50
116.88976447789
 51
168.16949788613061
  0
ARC
  5
6E47
  8
0
 10
150.6513530335348
 20
55.517126313227187
 30
0.0
 40
1.6650000000000911
 50
169.40630805448109
 51
201.1815811548316
  0
ARC
  5
6E48
  8
0
 10
140.80963795501049
 20
53.249342980176728
 30
0.0
 40
8.4550000000000587
 50
346.4686946822921
 51
11.365331404870931
  0
ARC
  5
6E49
  8
0
 10
153.5463246680207
 20
57.021823004403643
 30
0.0
 40
8.4550000000001333
 50
201.63413324581819
 51
226.52810017038661
  0
ARC
  5
6E4A
  8
0
 10
144.05691075717399
 20
53.565096733509883
 30
0.0
 40
1.6650000000000069
 50
11.76711664923295
 51
43.587633991341043
  0
ARC
  5
6E4B
  8
0
 10
144.7668817345596
 20
54.21771250210984
 30
0.0
 40
0.7010000000000739
 50
44.96055792287072
 51
96.10866016389943
  0
LINE
  5
6E4C
  8
0
 10
144.0006106570363
 20
54.805929958820329
 30
0.0
 11
144.6922853067517
 21
54.914732649922357
 31
0.0
  0
ARC
  5
6E4D
  8
0
 10
144.14503716713011
 20
54.11996863049113
 30
0.0
 40
0.7010000000000463
 50
101.8897644778892
 51
153.16949788612439
  0
ARC
  5
6E4E
  8
0
 10
145.0211332113945
 20
53.717109390088417
 30
0.0
 40
1.664999999999992
 50
154.4063080544791
 51
186.1815811548324
  0
ARC
  5
6E4F
  8
0
 10
134.92782092530999
 20
54.073822199061738
 30
0.0
 40
8.4549999999999699
 50
331.46869468229119
 51
356.36533140487182
  0
ARC
  5
6E50
  8
0
 10
148.206905240298
 20
54.421260990790927
 30
0.0
 40
8.4550000000001102
 50
186.63413324581799
 51
211.52810017038831
  0
ARC
  5
6E51
  8
0
 10
138.14616867485091
 20
53.538360858310682
 30
0.0
 40
1.6649999999999789
 50
356.76711664923113
 51
28.58763399133592
  0
ARC
  5
6E52
  8
0
 10
139.0008573678713
 20
53.984985273427441
 30
0.0
 40
0.7010000000000181
 50
29.960557922857021
 51
81.108660163904673
  0
LINE
  5
6E53
  8
0
 10
138.4129378423095
 20
54.751484841108308
 30
0.0
 11
139.10920461080971
 21
54.677562043070779
 31
0.0
  0
ARC
  5
6E54
  8
0
 10
138.37490366473659
 20
54.051517160613741
 30
0.0
 40
0.7010000000000237
 50
86.889764477889884
 51
138.169497886111
  0
ARC
  5
6E55
  8
0
 10
139.1168798162895
 20
53.435634674354937
 30
0.0
 40
1.6650000000000189
 50
139.40630805447299
 51
171.18158115483021
  0
ARC
  5
6E56
  8
0
 10
129.45981287495411
 20
56.392534236916333
 30
0.0
 40
8.4549999999999823
 50
316.4686946822905
 51
341.36533140487097
  0
ARC
  5
6E57
  8
0
 10
142.37634714057779
 20
53.29125441666114
 30
0.0
 40
8.4550000000000267
 50
171.63413324581751
 51
196.5281001703884
  0
ARC
  5
6E58
  8
0
 10
132.4299104913124
 20
55.042348607561429
 30
0.0
 40
1.6650000000000189
 50
341.76711664923153
 51
13.5876339913384
  0
ARC
  5
6E59
  8
0
 10
133.3710712779781
 20
55.252544953386533
 30
0.0
 40
0.7010000000000052
 50
14.96055792286268
 51
66.108660163897795
  0
LINE
  5
6E5A
  8
0
 10
133.0015690475702
 20
56.14509172737597
 30
0.0
 11
133.6549784466624
 21
55.893480032682398
 31
0.0
  0
ARC
  5
6E5B
  8
0
 10
132.7836661495694
 20
55.478818561215242
 30
0.0
 40
0.7009999999999926
 50
71.889764477889784
 51
123.1694978861231
  0
ARC
  5
6E5C
  8
0
 10
133.3409579598561
 20
54.69188420274488
 30
0.0
 40
1.6650000000000891
 50
124.40630805447761
 51
156.1815811548299
  0
ARC
  5
6E5D
  8
0
 10
124.778249516264
 20
60.047462700213281
 30
0.0
 40
8.4549999999997816
 50
301.46869468229181
 51
326.36533140487199
  0
ARC
  5
6E5E
  8
0
 10
136.4519932679035
 20
53.708811362617077
 30
0.0
 40
8.4550000000000587
 50
156.63413324581651
 51
181.5281001703874
  0
ARC
  5
6E5F
  8
0
 10
127.29768975520329
 20
57.974565701608043
 30
0.0
 40
1.66500000000003
 50
326.76711664922908
 51
358.58763399133488
  0
ARC
  5
6E60
  8
0
 10
128.2611840832447
 20
57.934009444539342
 30
0.0
 40
0.7009999999999904
 50
359.960557922855
 51
51.108660163913299
  0
LINE
  5
6E61
  8
0
 10
128.1352810040116
 20
58.891776204109178
 30
0.0
 11
128.70130347460511
 21
58.479624986648552
 31
0.0
  0
ARC
  5
6E62
  8
0
 10
127.7523582183302
 20
58.304604600571743
 30
0.0
 40
0.7010000000000212
 50
56.889764477883141
 51
108.16949788612359
  0
ARC
  5
6E63
  8
0
 10
128.0869871714479
 20
57.400246645949181
 30
0.0
 40
1.665000000000086
 50
109.40630805447741
 51
141.1815811548289
  0
ARC
  5
6E64
  8
0
 10
121.2021716554852
 20
64.78953025423418
 30
0.0
 40
8.4549999999999077
 50
286.4686946822934
 51
311.36533140487251
  0
ARC
  5
6E65
  8
0
 10
130.83757854824
 20
55.645476012837293
 30
0.0
 40
8.4550000000001031
 50
141.63413324581711
 51
166.5281001703861
  0
ARC
  5
6E66
  8
0
 10
123.0992588282937
 20
62.135186391209047
 30
0.0
 40
1.6649999999999949
 50
311.76711664923192
 51
343.5876339913321
  0
ARC
  5
6E67
  8
0
 10
124.0194261515044
 20
61.846641373143399
 30
0.0
 40
0.7009999999999841
 50
344.96055792285
 51
36.108660163912283
  0
LINE
  5
6E68
  8
0
 10
124.1457009166479
 20
62.804360128939138
 30
0.0
 11
124.5857638716697
 21
62.259753420948968
 31
0.0
  0
ARC
  5
6E69
  8
0
 10
123.6238551919036
 20
62.336302629933378
 30
0.0
 40
0.7009999999999895
 50
41.889764477889969
 51
93.169497886128525
  0
ARC
  5
6E6A
  8
0
 10
123.7130168776978
 20
61.376151579243881
 30
0.0
 40
1.6650000000000971
 50
94.406308054479425
 51
126.1815811548303
  0
ARC
  5
6E6B
  8
0
 10
118.9752830890816
 20
70.295572831809523
 30
0.0
 40
8.4550000000000942
 50
271.46869468229022
 51
296.3653314048733
  0
ARC
  5
6E6C
  8
0
 10
125.915716066473
 20
58.969267871899127
 30
0.0
 40
8.4549999999998011
 50
126.6341332458161
 51
151.5281001703874
  0
ARC
  5
6E6D
  8
0
 10
120.12073384001719
 20
67.240671252118872
 30
0.0
 40
1.664999999999945
 50
296.76711664923238
 51
328.5876339913317
  0
ARC
  5
6E6E
  8
0
 10
120.9348662759689
 20
66.723801339194338
 30
0.0
 40
0.7010000000000304
 50
329.96055792284932
 51
21.108660163903298
  0
LINE
  5
6E6F
  8
0
 10
121.3047144412994
 20
67.616203986108289
 30
0.0
 11
121.5888292938471
 21
66.976257786154733
 31
0.0
  0
ARC
  5
6E70
  8
0
 10
120.6795077288666
 20
67.29915909129511
 30
0.0
 40
0.7009999999999933
 50
26.889764477886061
 51
78.169497886115224
  0
ARC
  5
6E71
  8
0
 10
120.517125925797
 20
66.348647651918711
 30
0.0
 40
1.664999999999941
 50
79.40630805447428
 51
111.1815811548306
  0
ARC
  5
6E72
  8
0
 10
118.2493425927465
 20
76.190362730442814
 30
0.0
 40
8.4550000000000267
 50
256.46869468229141
 51
281.36533140487052
  0
ARC
  5
6E73
  8
0
 10
122.0218226169734
 20
63.453676017432777
 30
0.0
 40
8.4550000000000427
 50
111.6341332458186
 51
136.5281001703853
  0
ARC
  5
6E74
  8
0
 10
118.5650963460797
 20
72.943089928279349
 30
0.0
 40
1.66500000000003
 50
281.76711664922942
 51
313.58763399132522
  0
ARC
  5
6E75
  8
0
 10
119.2177121146796
 20
72.233118950893726
 30
0.0
 40
0.7010000000000743
 50
314.96055792283408
 51
6.1086601639190468
  0
LINE
  5
6E76
  8
0
 10
119.8059295713901
 20
72.999390028417096
 30
0.0
 11
119.91473226249219
 21
72.307715378701673
 31
0.0
  0
ARC
  5
6E77
  8
0
 10
119.1199682430609
 20
72.854963518323245
 30
0.0
 40
0.7010000000000161
 50
11.88976447788548
 51
63.169497886111081
  0
ARC
  5
6E78
  8
0
 10
118.7171090026583
 20
71.978867474058816
 30
0.0
 40
1.6650000000000169
 50
64.406308054472944
 51
96.181581154829715
  0
ARC
  5
6E79
  8
0
 10
119.0738218116315
 20
82.072179760143371
 30
0.0
 40
8.4549999999999805
 50
241.4686946822905
 51
266.36533140487182
  0
ARC
  5
6E7A
  8
0
 10
119.42126060336069
 20
68.793095445155458
 30
0.0
 40
8.4550000000000232
 50
96.634133245817821
 51
121.5281001703861
  0
ARC
  5
6E7B
  8
0
 10
118.53836047088051
 20
78.853832010602389
 30
0.0
 40
1.664999999999984
 50
266.7671166492276
 51
298.58763399132289
  0
ARC
  5
6E7C
  8
0
 10
118.98498488599721
 20
77.999143317582039
 30
0.0
 40
0.7010000000000236
 50
299.96055792282868
 51
351.1086601639168
  0
LINE
  5
6E7D
  8
0
 10
119.7514844536781
 20
78.587062843143926
 30
0.0
 11
119.6775616556406
 21
77.890796074643717
 31
0.0
  0
ARC
  5
6E7E
  8
0
 10
119.05151677318349
 20
78.625097020716765
 30
0.0
 40
0.7010000000000064
 50
356.88976447789202
 51
48.169497886104573
  0
ARC
  5
6E7F
  8
0
 10
118.4356342869247
 20
77.883120869163847
 30
0.0
 40
1.66499999999999
 50
49.406308054470351
 51
81.181581154830056
  0
ARC
  5
6E80
  8
0
 10
121.3925338494861
 20
87.540187810499305
 30
0.0
 40
8.4549999999999699
 50
226.46869468229309
 51
251.36533140487009
  0
ARC
  5
6E81
  8
0
 10
118.2912540292309
 20
74.623653544875452
 30
0.0
 40
8.45500000000008
 50
81.634133245818148
 51
106.5281001703852
  0
ARC
  5
6E82
  8
0
 10
120.0423482201312
 20
84.570090194140889
 30
0.0
 40
1.6649999999999741
 50
251.76711664922979
 51
283.58763399132749
  0
ARC
  5
6E83
  8
0
 10
120.2525445659563
 20
83.628929407475283
 30
0.0
 40
0.700999999999965
 50
284.96055792283443
 51
336.108660163916
  0
LINE
  5
6E84
  8
0
 10
121.14509133994579
 20
83.998431637883158
 30
0.0
 11
120.8934796452522
 21
83.345022238790975
 31
0.0
  0
ARC
  5
6E85
  8
0
 10
120.478818173785
 20
84.216334535883973
 30
0.0
 40
0.7009999999999982
 50
341.88976447789452
 51
33.169497886114989
  0
ARC
  5
6E86
  8
0
 10
119.6918838153148
 20
83.659042725597331
 30
0.0
 40
1.6649999999999789
 50
34.406308054473271
 51
66.181581154829885
  0
ARC
  5
6E87
  8
0
 10
125.0474623127832
 20
92.221751169189375
 30
0.0
 40
8.4549999999998935
 50
211.4686946822913
 51
236.3653314048718
  0
ARC
  5
6E88
  8
0
 10
118.70881097518691
 20
80.548007417549883
 30
0.0
 40
8.4550000000000001
 50
66.634133245817097
 51
91.5281001703854
  0
ARC
  5
6E89
  8
0
 10
122.9745653141778
 20
89.702310930250007
 30
0.0
 40
1.6649999999999709
 50
236.76711664923121
 51
268.58763399132999
  0
ARC
  5
6E8A
  8
0
 10
122.93400905710909
 20
88.738816602208686
 30
0.0
 40
0.7010000000000169
 50
269.96055792284068
 51
321.10866016391731
  0
LINE
  5
6E8B
  8
0
 10
123.891775816679
 20
88.864719681441755
 30
0.0
 11
123.4796245992183
 21
88.298697210848303
 31
0.0
  0
ARC
  5
6E8C
  8
0
 10
123.3046042131415
 20
89.247642467123185
 30
0.0
 40
0.7010000000000711
 50
326.88976447789048
 51
18.169497886115892
  0
ARC
  5
6E8D
  8
0
 10
122.40024625851891
 20
88.913013514005414
 30
0.0
 40
1.6650000000001479
 50
19.406308054477371
 51
51.181581154826468
  0
ARC
  5
6E8E
  8
0
 10
129.78952986680409
 20
95.797829029968298
 30
0.0
 40
8.4550000000000871
 50
196.46869468229269
 51
221.36533140487191
  0
ARC
  5
6E8F
  8
0
 10
141.00000014901161
 20
76.000000536441789
 30
0.0
 40
26.000000000000011
 50
135.00000000000031
 51
137.9895825912665
  0
ARC
  5
6E90
  8
0
 10
120.645475625407
 20
86.162422137213184
 30
0.0
 40
8.4550000000002754
 50
51.634133245817353
 51
76.528100170387134
  0
ARC
  5
6E91
  8
0
 10
127.1351860037788
 20
93.900741857159701
 30
0.0
 40
1.665000000000028
 50
221.76711664922939
 51
253.58763399132511
  0
ARC
  5
6E92
  8
0
 10
126.84664098571319
 20
92.980574533948982
 30
0.0
 40
0.7009999999999935
 50
254.9605579228344
 51
306.10866016392362
  0
LINE
  5
6E93
  8
0
 10
127.8043597415089
 20
92.854299768805504
 30
0.0
 11
127.25975303351881
 21
92.414236813783646
 31
0.0
  0
ARC
  5
6E94
  8
0
 10
127.33630224250309
 20
93.376145493549842
 30
0.0
 40
0.7010000000000218
 50
311.8897644778832
 51
3.169497886124895
  0
ARC
  5
6E95
  8
0
 10
126.3761511918137
 20
93.286983807755632
 30
0.0
 40
1.6650000000000771
 50
4.406308054480065
 51
36.181581154831058
  0
ARC
  5
6E96
  8
0
 10
135.2955724443793
 20
98.02471759637173
 30
0.0
 40
8.4550000000000374
 50
181.46869468229201
 51
206.3653314048714
  0
ARC
  5
6E97
  8
0
 10
141.00000014901161
 20
76.000000536441789
 30
0.0
 40
26.0
 50
119.9999999999999
 51
122.9895825912659
  0
ARC
  5
6E98
  8
0
 10
123.9692674844687
 20
91.084284618980135
 30
0.0
 40
8.45500000000008
 50
36.634133245818902
 51
61.528100170386331
  0
ARC
  5
6E99
  8
0
 10
132.2406708646887
 20
96.879266845436135
 30
0.0
 40
1.6649999999999929
 50
206.7671166492278
 51
238.58763399133019
  0
ARC
  5
6E9A
  8
0
 10
131.7238009517641
 20
96.065134409484472
 30
0.0
 40
0.7009999999999927
 50
239.96055792284349
 51
291.10866016391088
  0
LINE
  5
6E9B
  8
0
 10
132.61620359867811
 20
95.695286244153948
 30
0.0
 11
131.9762573987245
 21
95.411171391606317
 31
0.0
  0
ARC
  5
6E9C
  8
0
 10
132.29915870386489
 20
96.320492956586804
 30
0.0
 40
0.7009999999999867
 50
296.88976447788639
 51
348.16949788612209
  0
ARC
  5
6E9D
  8
0
 10
131.34864726448839
 20
96.482874759656411
 30
0.0
 40
1.6649999999999441
 50
349.40630805447603
 51
21.181581154831729
  0
ARC
  5
6E9E
  8
0
 10
141.19036234301259
 20
98.750658092706857
 30
0.0
 40
8.4550000000000622
 50
166.46869468229141
 51
191.36533140487171
  0
ARC
  5
6E9F
  8
0
 10
141.00000014901161
 20
76.000000536441789
 30
0.0
 40
26.000000000000021
 50
105.00000000000119
 51
107.98958259126761
  0
ARC
  5
6EA0
  8
0
 10
128.45367563000249
 20
94.978178068479949
 30
0.0
 40
8.4550000000000836
 50
21.634133245817939
 51
46.528100170386452
  0
ARC
  5
6EA1
  8
0
 10
137.94308954084909
 20
98.434904339373674
 30
0.0
 40
1.66500000000003
 50
191.76711664923121
 51
223.58763399132599
  0
ARC
  5
6EA2
  8
0
 10
137.23311856346351
 20
97.782288570773673
 30
0.0
 40
0.701000000000004
 50
224.96055792283281
 51
276.1086601639289
  0
LINE
  5
6EA3
  8
0
 10
137.99938964098689
 20
97.194071114063263
 30
0.0
 11
137.3077149912715
 21
97.085268422961235
 31
0.0
  0
ARC
  5
6EA4
  8
0
 10
137.854963130893
 20
97.880032442392448
 30
0.0
 40
0.7010000000000521
 50
281.88976447788917
 51
333.16949788612618
  0
ARC
  5
6EA5
  8
0
 10
136.97886708662861
 20
98.282891682795153
 30
0.0
 40
1.665000000000004
 50
334.40630805448029
 51
6.1815811548296642
  0
ARC
  5
6EA6
  8
0
 10
147.07217937271309
 20
97.926178873821826
 30
0.0
 40
8.4549999999999557
 50
151.4686946822905
 51
176.3653314048712
  0
ARC
  5
6EA7
  8
0
 10
141.00000014901161
 20
76.000000536441789
 30
0.0
 40
26.000000000000028
 50
90.0
 51
92.989582591268103
  0
ARC
  5
6EA8
  8
0
 10
133.79309505772511
 20
97.578740082092636
 30
0.0
 40
8.4550000000000871
 50
6.6341332458176101
 51
31.52810017038798
  0
ARC
  5
6EA9
  8
0
 10
143.8538316231722
 20
98.461640214572896
 30
0.0
 40
1.6650000000000451
 50
176.7671166492288
 51
208.58763399132121
  0
ARC
  5
6EAA
  8
0
 10
142.99914293015181
 20
98.015015799456137
 30
0.0
 40
0.7010000000000025
 50
209.96055792282331
 51
261.10866016389809
  0
LINE
  5
6EAB
  8
0
 10
143.58706245571369
 20
97.248516231775284
 30
0.0
 11
142.89079568721351
 21
97.322439029812813
 31
0.0
  0
ARC
  5
6EAC
  8
0
 10
143.6250966332866
 20
97.948483912269836
 30
0.0
 40
0.7009999999999634
 50
266.88976447788338
 51
318.1694978861442
  0
ARC
  5
6EAD
  8
0
 10
142.88312048173361
 20
98.564366398528634
 30
0.0
 40
1.665000000000026
 50
319.40630805448762
 51
351.18158115483249
  0
ARC
  5
6EAE
  8
0
 10
152.5401874230692
 20
95.607466835967145
 30
0.0
 40
8.4550000000001226
 50
136.46869468229031
 51
161.36533140486981
  0
ARC
  5
6EAF
  8
0
 10
139.6236531574454
 20
98.708746656222445
 30
0.0
 40
8.4549999999999166
 50
351.63413324581768
 51
16.528100170386111
  0
ARC
  5
6EB0
  8
0
 10
149.57008980671071
 20
96.957652465322141
 30
0.0
 40
1.6650000000000009
 50
161.76711664923241
 51
193.58763399135429
  0
ARC
  5
6EB1
  8
0
 10
148.62892902004509
 20
96.747456119497045
 30
0.0
 40
0.7010000000000078
 50
194.96055792290019
 51
246.10866016388351
  0
LINE
  5
6EB2
  8
0
 10
148.998431250453
 20
95.854909345507593
 30
0.0
 11
148.3450218513608
 21
96.106521040201173
 31
0.0
  0
ARC
  5
6EB3
  8
0
 10
149.2163341484538
 20
96.521182511668314
 30
0.0
 40
0.7010000000000188
 50
251.88976447789321
 51
303.1694978861463
  0
ARC
  5
6EB4
  8
0
 10
148.65904233816701
 20
97.308116870138647
 30
0.0
 40
1.6650000000000751
 50
304.40630805448558
 51
336.18158115483112
  0
ARC
  5
6EB5
  8
0
 10
157.22175078175911
 20
91.952538372670176
 30
0.0
 40
8.4549999999999237
 50
121.4686946822917
 51
146.3653314048714
  0
ARC
  5
6EB6
  8
0
 10
145.54800703011961
 20
98.291189710266494
 30
0.0
 40
8.4550000000000871
 50
336.634133245817
 51
1.528100170386635
  0
ARC
  5
6EB7
  8
0
 10
154.7023105428199
 20
94.025435371275535
 30
0.0
 40
1.665000000000006
 50
146.76711664922931
 51
178.58763399135509
  0
ARC
  5
6EB8
  8
0
 10
153.73881621477841
 20
94.065991628344236
 30
0.0
 40
0.701000000000007
 50
179.9605579229042
 51
231.10866016388809
  0
LINE
  5
6EB9
  8
0
 10
153.86471929401159
 20
93.108224868774414
 30
0.0
 11
153.29869682341811
 21
93.520376086235046
 31
0.0
  0
ARC
  5
6EBA
  8
0
 10
154.24764207969289
 20
93.695396472311884
 30
0.0
 40
0.7010000000000783
 50
236.88976447789099
 51
288.16949788614761
  0
ARC
  5
6EBB
  8
0
 10
153.91301312657541
 20
94.599754426934325
 30
0.0
 40
1.665000000000004
 50
289.40630805448779
 51
321.18158115483322
  0
ARC
  5
6EBC
  8
0
 10
160.79782864253789
 20
87.210470818649426
 30
0.0
 40
8.4549999999998882
 50
106.46869468228989
 51
131.36533140487231
  0
ARC
  5
6EBD
  8
0
 10
151.16242174978311
 20
96.354525060046313
 30
0.0
 40
8.455000000000199
 50
321.63413324581728
 51
346.52810017038672
  0
ARC
  5
6EBE
  8
0
 10
158.90074146972941
 20
89.864814681674588
 30
0.0
 40
1.6649999999999019
 50
131.76711664923201
 51
163.58763399136029
  0
ARC
  5
6EBF
  8
0
 10
157.98057414651879
 20
90.153359699740165
 30
0.0
 40
0.7010000000000263
 50
164.96055792291281
 51
216.10866016387891
  0
LINE
  5
6EC0
  8
0
 10
157.85429938137531
 20
89.195640943944426
 30
0.0
 11
157.4142364263534
 21
89.740247651934595
 31
0.0
  0
ARC
  5
6EC1
  8
0
 10
158.37614510611951
 20
89.663698442950192
 30
0.0
 40
0.7009999999999959
 50
221.88976447788579
 51
273.16949788616108
  0
ARC
  5
6EC2
  8
0
 10
158.2869834203255
 20
90.62384949363954
 30
0.0
 40
1.6649999999999421
 50
274.40630805448927
 51
306.18158115483442
  0
ARC
  5
6EC3
  8
0
 10
163.0247172089415
 20
81.704428241074154
 30
0.0
 40
8.4549999999999788
 50
91.46869468229022
 51
116.36533140486971
  0
ARC
  5
6EC4
  8
0
 10
156.08428423154999
 20
93.030733200984528
 30
0.0
 40
8.4549999999999095
 50
306.63413324581632
 51
331.52810017038769
  0
ARC
  5
6EC5
  8
0
 10
161.87926645800599
 20
84.759329820764634
 30
0.0
 40
1.66500000000002
 50
116.76711664923251
 51
148.58763399135481
  0
ARC
  5
6EC6
  8
0
 10
161.06513402205431
 20
85.276199733689225
 30
0.0
 40
0.7010000000000304
 50
149.96055792290159
 51
201.10866016387629
  0
LINE
  5
6EC7
  8
0
 10
160.69528585672381
 20
84.383797086775274
 30
0.0
 11
160.41117100417611
 21
85.023743286728845
 31
0.0
  0
ARC
  5
6EC8
  8
0
 10
161.32049256915661
 20
84.700841981588468
 30
0.0
 40
0.7010000000000031
 50
206.8897644778871
 51
258.16949788614181
  0
ARC
  5
6EC9
  8
0
 10
163.75065770527661
 20
75.809638342440735
 30
0.0
 40
8.4550000000000285
 50
76.468694682291414
 51
101.3653314048705
  0
ARC
  5
6ECA
  8
0
 10
159.97817768104991
 20
88.546325055450652
 30
0.0
 40
8.4549999999998633
 50
291.63413324581859
 51
316.528100170389
  0
ARC
  5
6ECB
  8
0
 10
163.43490395194351
 20
79.056911144604229
 30
0.0
 40
1.665
 50
101.7671166492327
 51
133.58763399135199
  0
ARC
  5
6ECC
  8
0
 10
162.7822881833435
 20
79.766882121989852
 30
0.0
 40
0.7010000000000235
 50
134.96055792289371
 51
186.1086601638884
  0
LINE
  5
6ECD
  8
0
 10
162.1940707266331
 20
79.000611044466481
 30
0.0
 11
162.08526803553099
 21
79.692285694181905
 31
0.0
  0
ARC
  5
6ECE
  8
0
 10
162.88003205496219
 20
79.145037554560304
 30
0.0
 40
0.7010000000000125
 50
191.8897644778861
 51
243.16949788614019
  0
ARC
  5
6ECF
  8
0
 10
163.28289129536489
 20
80.021133598824775
 30
0.0
 40
1.665000000000034
 50
244.40630805448731
 51
276.181581154833
  0
ARC
  5
6ED0
  8
0
 10
162.92617848639151
 20
69.927821312740122
 30
0.0
 40
8.4550000000000587
 50
61.468694682290518
 51
86.365331404871867
  0
ARC
  5
6ED1
  8
0
 10
141.00000014901161
 20
76.000000536441789
 30
0.0
 40
26.000000000000028
 50
0.0000000000008142
 51
2.9895825912668301
  0
ARC
  5
6ED2
  8
0
 10
162.57873969466249
 20
83.206905627728119
 30
0.0
 40
8.4550000000000267
 50
276.63413324581779
 51
301.52810017038621
  0
ARC
  5
6ED3
  8
0
 10
141.00000014901161
 20
76.000000536441789
 30
0.0
 40
26.0
 50
180.0
 51
182.98958259126769
  0
ARC
  5
6ED4
  8
0
 10
161.48287437222621
 20
85.651353420964924
 30
0.0
 40
1.665000000000014
 50
259.40630805448421
 51
291.18158115483061
  0
ARC
  5
6ED5
  8
0
 10
141.00000014901161
 20
76.000000536441789
 30
0.0
 40
26.000000000000021
 50
14.99999999999917
 51
17.989582591266139
  0
ARC
  5
6ED6
  8
0
 10
141.00000014901161
 20
76.000000536441789
 30
0.0
 40
26.000000000000021
 50
195.00000000000159
 51
197.98958259126681
  0
ARC
  5
6ED7
  8
0
 10
141.00000014901161
 20
76.000000536441789
 30
0.0
 40
26.000000000000028
 50
210.00000000000131
 51
212.9895825912665
  0
ARC
  5
6ED8
  8
0
 10
141.00000014901161
 20
76.000000536441789
 30
0.0
 40
26.000000000000021
 50
224.99999999999989
 51
227.98958259126579
  0
ARC
  5
6ED9
  8
0
 10
141.00000014901161
 20
76.000000536441789
 30
0.0
 40
26.0
 50
240.00000000000011
 51
242.98958259126709
  0
ARC
  5
6EDA
  8
0
 10
141.00000014901161
 20
76.000000536441789
 30
0.0
 40
26.000000000000021
 50
255.00000000000219
 51
257.98958259126903
  0
ARC
  5
6EDB
  8
0
 10
141.00000014901161
 20
76.000000536441789
 30
0.0
 40
26.000000000000011
 50
270.0
 51
272.98958259126812
  0
ARC
  5
6EDC
  8
0
 10
141.00000014901161
 20
76.000000536441789
 30
0.0
 40
26.000000000000028
 50
285.00000000000119
 51
287.98958259126772
  0
ARC
  5
6EDD
  8
0
 10
141.00000014901161
 20
76.000000536441789
 30
0.0
 40
26.000000000000028
 50
300.0
 51
302.98958259126601
  0
ARC
  5
6EDE
  8
0
 10
141.00000014901161
 20
76.000000536441789
 30
0.0
 40
26.000000000000039
 50
315.00000000000051
 51
317.9895825912667
  0
ARC
  5
6EDF
  8
0
 10
141.00000014901161
 20
76.000000536441789
 30
0.0
 40
26.000000000000021
 50
329.99999999999949
 51
332.98958259126613
  0
ARC
  5
6EE0
  8
0
 10
141.00000014901161
 20
76.000000536441789
 30
0.0
 40
26.000000000000028
 50
345.00000000000148
 51
347.9895825912667
  0
ARC
  5
6EE1
  8
0
 10
141.00000014901161
 20
76.000000536441789
 30
0.0
 40
26.000000000000021
 50
59.999999999999972
 51
62.989582591267052
  0
ARC
  5
6EE2
  8
0
 10
141.00000014901161
 20
76.000000536441789
 30
0.0
 40
26.000000000000028
 50
30.000000000000991
 51
32.989582591265972
  0
ARC
  5
6EE3
  8
0
 10
141.00000014901161
 20
76.000000536441789
 30
0.0
 40
26.000000000000028
 50
44.999999999999638
 51
47.989582591265602
  0
ARC
  5
6EE4
  8
0
 10
141.00000014901161
 20
76.000000536441789
 30
0.0
 40
26.0
 50
149.99999999999901
 51
152.98958259126559
  0
ARC
  5
6EE5
  8
0
 10
141.00000014901161
 20
76.000000536441789
 30
0.0
 40
26.000000000000028
 50
74.999999999998778
 51
77.989582591265673
  0
ARC
  5
6EE6
  8
0
 10
141.00000014901161
 20
76.000000536441789
 30
0.0
 40
26.000000000000028
 50
165.00000000000071
 51
167.9895825912661
  0
LINE
  5
6EEB
  8
0
 10
69.999999552965164
 20
58.50000046193599
 30
0.0
 11
85.000000149011612
 21
58.50000046193599
 31
0.0
  0
LINE
  5
6EEC
  8
0
 10
85.000000149011612
 20
93.500000610947595
 30
0.0
 11
69.999999552965164
 21
93.500000610947595
 31
0.0
  0
LINE
  5
6EED
  8
3
 10
50.0
 20
74.643986485898495
 30
0.0
 11
69.999999552965164
 21
74.643986485898495
 31
0.0
  0
LINE
  5
6EEF
  8
3
 10
69.999999552965164
 20
76.000000536441831
 30
0.0
 11
50.0
 21
76.000000536441831
 31
0.0
  0
LINE
  5
6EF7
  8
3
 10
69.999999552965164
 20
82.729295548051596
 30
0.0
 11
50.0
 21
82.729295548051596
 31
0.0
  0
LINE
  5
6EF8
  8
3
 10
50.0
 20
81.410328578203917
 30
0.0
 11
69.999999552965164
 21
81.410328578203917
 31
0.0
  0
LINE
  5
6EFE
  8
3
 10
69.999999552965164
 20
69.27070552483201
 30
0.0
 11
50.0
 21
69.27070552483201
 31
0.0
  0
LINE
  5
6F04
  8
3
 10
50.0
 20
67.970054410398006
 30
0.0
 11
69.999999552965164
 21
67.970054410398006
 31
0.0
  0
LINE
  5
6F0A
  8
3
 10
50.0
 20
87.807965651154504
 30
0.0
 11
69.999999552965164
 21
87.807965651154504
 31
0.0
  0
LINE
  5
6F0D
  8
3
 10
69.999999552965164
 20
89.000000804662704
 30
0.0
 11
50.0
 21
89.000000804662704
 31
0.0
  0
LINE
  5
6F15
  8
3
 10
69.999999552965164
 20
63.000000268220901
 30
0.0
 11
50.0
 21
63.000000268220901
 31
0.0
  0
LINE
  5
6F16
  8
3
 10
50.0
 20
61.84335071593523
 30
0.0
 11
69.999999552965164
 21
61.84335071593523
 31
0.0
  0
LINE
  5
6F4B
  8
3
 10
69.999999552965164
 20
94.384777545928927
 30
0.0
 11
50.0
 21
94.384777545928927
 31
0.0
  0
LINE
  5
6F4C
  8
3
 10
50.0
 20
93.400909751653671
 30
0.0
 11
69.999999552965164
 21
93.400909751653671
 31
0.0
  0
LINE
  5
6F52
  8
3
 10
69.999999552965164
 20
57.615223526954651
 30
0.0
 11
50.0
 21
57.615223526954651
 31
0.0
  0
LINE
  5
6F56
  8
3
 10
50.0
 20
56.681399419903748
 30
0.0
 11
69.999999552965164
 21
56.681399419903748
 31
0.0
  0
LINE
  5
6F5C
  8
0
 10
85.000000149011612
 20
58.50000046193599
 30
0.0
 11
85.000000149011612
 21
93.500000610947595
 31
0.0
  0
LINE
  5
6F64
  8
3
 10
69.999999552965164
 20
98.516660928726196
 30
0.0
 11
50.0
 21
98.516660928726196
 31
0.0
  0
LINE
  5
6F65
  8
3
 10
50.0
 20
97.808010131120682
 30
0.0
 11
69.999999552965164
 21
97.808010131120682
 31
0.0
  0
LINE
  5
6F6A
  8
3
 10
69.999999552965164
 20
53.483340144157403
 30
0.0
 11
50.0
 21
53.483340144157403
 31
0.0
  0
LINE
  5
6F6D
  8
3
 10
50.0
 20
52.835977822542191
 30
0.0
 11
69.999999552965164
 21
52.835977822542191
 31
0.0
  0
LINE
  5
6F70
  8
3
 10
50.0
 20
100.72893016040319
 30
0.0
 11
69.999999552965164
 21
100.72893016040319
 31
0.0
  0
LINE
  5
6F73
  8
3
 10
69.999999552965164
 20
101.1140711605548
 30
0.0
 11
50.0
 21
101.1140711605548
 31
0.0
  0
LINE
  5
6F76
  8
3
 10
69.999999552965164
 20
50.88592991232872
 30
0.0
 11
50.0
 21
50.88592991232872
 31
0.0
  0
LINE
  5
6F79
  8
3
 10
50.0
 20
50.569146126508713
 30
0.0
 11
69.999999552965164
 21
50.569146126508713
 31
0.0
  0
LINE
  5
6F7C
  8
3
 10
50.0
 20
101.9646145403385
 30
0.0
 11
69.999999552965164
 21
101.9646145403385
 31
0.0
  0
LINE
  5
6F7F
  8
0
 10
69.999999552965164
 20
102.00000107288361
 30
0.0
 11
50.0
 21
102.00000107288361
 31
0.0
  0
LINE
  5
6F82
  8
0
 10
69.999999552965164
 20
50.0
 30
0.0
 11
50.0
 21
50.0
 31
0.0
  0
LINE
  5
6F83
  8
0
 10
69.999999552965107
 20
102.00000107288361
 30
0.0
 11
69.999999552965164
 21
50.0
 31
0.0
  0
LINE
  5
6F84
  8
0
 10
49.999999999999943
 20
102.00000107288361
 30
0.0
 11
50.0
 21
50.0
 31
0.0
  0
LINE
  5
6FA7
  8
2
 10
85.000000149011612
 20
83.071068115532384
 30
0.0
 11
50.0
 21
83.071068115532384
 31
0.0
  0
LINE
  5
6FB4
  8
2
 10
85.000000149011612
 20
85.80000065267086
 30
0.0
 11
50.0
 21
85.80000065267086
 31
0.0
  0
LINE
  5
7014
  8
2
 10
50.0
 20
68.500000704079866
 30
0.0
 11
85.000000149011612
 21
68.500000704079866
 31
0.0
  0
LINE
  5
7025
  8
1
 10
141.00000014901161
 20
106.0000005364418
 30
0.0
 11
141.00000014901161
 21
46.000000536441789
 31
0.0
  0
LINE
  5
7026
  8
1
 10
171.00000014901161
 20
76.000000536441789
 30
0.0
 11
111.0000001490116
 21
76.000000536441789
 31
0.0
  0
CIRCLE
  5
702E
  8
5
 10
141.00000014901161
 20
76.000000536441789
 30
0.0
 40
24.0
  0
LINE
  5
707D
  8
1
 10
89.000000149011612
 20
76.000000536441803
 30
0.0
 11
46.0
 21
76.000000536441803
 31
0.0
  0
ENDSEC
  0
EOF
