  0
SECTION
  2
HEADER
  9
$ACADVER
  1
AC1009
  9
$INSBASE
 10
0.0
 20
0.0
 30
0.0
  9
$EXTMIN
 10
0.0
 20
-2.960436562073669
 30
0.0
  9
$EXTMAX
 10
181.99999932944769
 20
101.9253230392933
 30
0.0
  9
$LIMMIN
 10
0.0
 20
0.0
  9
$LIMMAX
 10
275.0
 20
175.0
  9
$ORTHOMODE
 70
     1
  9
$REGENMODE
 70
     1
  9
$FILLMODE
 70
     1
  9
$QTEXTMODE
 70
     0
  9
$MIRRTEXT
 70
     0
  9
$DRAGMODE
 70
     2
  9
$LTSCALE
 40
5.0
  9
$OSMODE
 70
    37
  9
$ATTMODE
 70
     1
  9
$TEXTSIZE
 40
0.2
  9
$TRACEWID
 40
0.05
  9
$TEXTSTYLE
  7
STANDARD
  9
$CLAYER
  8
0
  9
$CELTYPE
  6
BYLAYER
  9
$CECOLOR
 62
   256
  9
$DIMSCALE
 40
1.0
  9
$DIMASZ
 40
3.0
  9
$DIMEXO
 40
1.0
  9
$DIMDLI
 40
6.0
  9
$DIMRND
 40
0.0
  9
$DIMDLE
 40
0.0
  9
$DIMEXE
 40
1.0
  9
$DIMTP
 40
495.0
  9
$DIMTM
 40
0.0
  9
$DIMTXT
 40
3.0
  9
$DIMCEN
 40
0.0
  9
$DIMTSZ
 40
0.0
  9
$DIMTOL
 70
     0
  9
$DIMLIM
 70
     0
  9
$DIMTIH
 70
     0
  9
$DIMTOH
 70
     0
  9
$DIMSE1
 70
     0
  9
$DIMSE2
 70
     0
  9
$DIMTAD
 70
     1
  9
$DIMZIN
 70
     8
  9
$DIMBLK
  1

  9
$DIMASO
 70
     0
  9
$DIMSHO
 70
     0
  9
$DIMPOST
  1

  9
$DIMAPOST
  1

  9
$DIMALT
 70
     0
  9
$DIMALTD
 70
     2
  9
$DIMALTF
 40
25.399999999999999
  9
$DIMLFAC
 40
1.0
  9
$DIMTOFL
 70
     1
  9
$DIMTVP
 40
0.0
  9
$DIMTIX
 70
     1
  9
$DIMSOXD
 70
     0
  9
$DIMSAH
 70
     0
  9
$DIMBLK1
  1

  9
$DIMBLK2
  1

  9
$DIMSTYLE
  2
STANDARD
  9
$DIMCLRD
 70
     0
  9
$DIMCLRE
 70
     0
  9
$DIMCLRT
 70
     0
  9
$DIMTFAC
 40
1.0
  9
$DIMGAP
 40
1.0
  9
$LUNITS
 70
     2
  9
$LUPREC
 70
     1
  9
$SKETCHINC
 40
0.1
  9
$FILLETRAD
 40
0.0
  9
$AUNITS
 70
     0
  9
$AUPREC
 70
     0
  9
$MENU
  1
E:\r13\win\SUPPORT\ACAD
  9
$ELEVATION
 40
0.0
  9
$PELEVATION
 40
0.0
  9
$THICKNESS
 40
0.0
  9
$LIMCHECK
 70
     0
  9
$BLIPMODE
 70
     0
  9
$CHAMFERA
 40
0.0
  9
$CHAMFERB
 40
0.0
  9
$SKPOLY
 70
     0
  9
$TDCREATE
 40
2450653.5278402781
  9
$TDUPDATE
 40
2459439.6127686799
  9
$TDINDWG
 40
0.361999537
  9
$TDUSRTIMER
 40
0.361999537
  9
$USRTIMER
 70
     1
  9
$ANGBASE
 50
0.0
  9
$ANGDIR
 70
     0
  9
$PDMODE
 70
     0
  9
$PDSIZE
 40
0.0
  9
$PLINEWID
 40
0.0
  9
$COORDS
 70
     1
  9
$SPLFRAME
 70
     0
  9
$SPLINETYPE
 70
     6
  9
$SPLINESEGS
 70
     8
  9
$ATTDIA
 70
     0
  9
$ATTREQ
 70
     1
  9
$HANDLING
 70
     1
  9
$HANDSEED
  5
5C2E
  9
$SURFTAB1
 70
     6
  9
$SURFTAB2
 70
     6
  9
$SURFTYPE
 70
     6
  9
$SURFU
 70
     6
  9
$SURFV
 70
     6
  9
$UCSNAME
  2

  9
$UCSORG
 10
0.0
 20
0.0
 30
0.0
  9
$UCSXDIR
 10
1.0
 20
0.0
 30
0.0
  9
$UCSYDIR
 10
0.0
 20
1.0
 30
0.0
  9
$PUCSNAME
  2

  9
$PUCSORG
 10
0.0
 20
0.0
 30
0.0
  9
$PUCSXDIR
 10
1.0
 20
0.0
 30
0.0
  9
$PUCSYDIR
 10
0.0
 20
1.0
 30
0.0
  9
$USERI1
 70
     4
  9
$USERI2
 70
     1
  9
$USERI3
 70
     1
  9
$USERI4
 70
     0
  9
$USERI5
 70
     0
  9
$USERR1
 40
1.0
  9
$USERR2
 40
3.0
  9
$USERR3
 40
3.0
  9
$USERR4
 40
3.0
  9
$USERR5
 40
10.0
  9
$WORLDVIEW
 70
     1
  9
$SHADEDGE
 70
     3
  9
$SHADEDIF
 70
    70
  9
$TILEMODE
 70
     1
  9
$MAXACTVP
 70
    16
  9
$PLIMCHECK
 70
     0
  9
$PEXTMIN
 10
1.0000000000000000E+020
 20
1.0000000000000000E+020
 30
1.0000000000000000E+020
  9
$PEXTMAX
 10
-1.0000000000000000E+020
 20
-1.0000000000000000E+020
 30
-1.0000000000000000E+020
  9
$PLIMMIN
 10
0.0
 20
0.0
  9
$PLIMMAX
 10
12.0
 20
9.0
  9
$UNITMODE
 70
     0
  9
$VISRETAIN
 70
     0
  9
$PLINEGEN
 70
     0
  9
$PSLTSCALE
 70
     0
  0
ENDSEC
  0
SECTION
  2
TABLES
  0
TABLE
  2
VPORT
 70
     1
  0
VPORT
  2
*ACTIVE
 70
     0
 10
0.0
 20
0.0
 11
1.0
 21
1.0
 12
260.1957585644372
 22
100.0
 13
0.0
 23
0.0
 14
5.0
 24
5.0
 15
10.0
 25
10.0
 16
0.0
 26
0.0
 36
1.0
 17
0.0
 27
0.0
 37
0.0
 40
200.0
 41
2.6019575856443722
 42
50.0
 43
0.0
 44
0.0
 50
0.0
 51
0.0
 71
     0
 72
   100
 73
     1
 74
     0
 75
     0
 76
     0
 77
     0
 78
     0
  0
ENDTAB
  0
TABLE
  2
LTYPE
 70
     5
  0
LTYPE
  2
CONTINUOUS
 70
     0
  3
Solid Line
 72
    65
 73
     0
 40
0.0
  0
LTYPE
  2
CENTER
 70
     0
  3
____ _ ____ _ ____ _ ____ _ ____ _ ____ _ ____ 
 72
    65
 73
     4
 40
2.0
 49
1.25
 49
-0.25
 49
0.25
 49
-0.25
  0
LTYPE
  2
HIDDEN
 70
     0
  3
__ __ __ __ __ __ __ __ __ __ __ __ __ __ __ __
 72
    65
 73
     2
 40
0.375
 49
0.25
 49
-0.125
  0
LTYPE
  2
PHANTOM
 70
     0
  3
_____ _ _ _____ _ _ _____ _ _ _____ _ _ ____
 72
    65
 73
     6
 40
2.5
 49
1.25
 49
-0.25
 49
0.25
 49
-0.25
 49
0.25
 49
-0.25
  0
LTYPE
  2
PHANTOM2
 70
     0
  3
___ _ _ ___ _ _ ___ _ _ ___ _ _
 72
    65
 73
     6
 40
1.25
 49
0.625
 49
-0.125
 49
0.125
 49
-0.125
 49
0.125
 49
-0.125
  0
ENDTAB
  0
TABLE
  2
LAYER
 70
     6
  0
LAYER
  2
0
 70
     0
 62
     7
  6
CONTINUOUS
  0
LAYER
  2
1
 70
     0
 62
     1
  6
CENTER
  0
LAYER
  2
2
 70
     0
 62
     2
  6
HIDDEN
  0
LAYER
  2
5
 70
     0
 62
     3
  6
PHANTOM
  0
LAYER
  2
DEFPOINTS
 70
     0
 62
     7
  6
CONTINUOUS
  0
LAYER
  2
3
 70
     0
 62
     3
  6
CONTINUOUS
  0
ENDTAB
  0
TABLE
  2
STYLE
 70
     2
  0
STYLE
  2
STANDARD
 70
     0
 40
0.0
 41
1.0
 50
0.0
 71
     0
 42
0.2
  3
simplex
  4
bigfont
  0
STYLE
  2
STANDARD1
 70
     0
 40
0.0
 41
1.0
 50
0.0
 71
     0
 42
3.0
  3
txt
  4

  0
ENDTAB
  0
TABLE
  2
VIEW
 70
     0
  0
ENDTAB
  0
TABLE
  2
UCS
 70
     0
  0
ENDTAB
  0
TABLE
  2
APPID
 70
     9
  0
APPID
  2
ACAD
 70
     0
  0
APPID
  2
_CALL_MAC$
 70
     0
  0
APPID
  2
ACAD_MLEADERVER
 70
     0
  0
APPID
  2
ACAD_EXEMPT_FROM_CAD_STANDARDS
 70
     0
  0
APPID
  2
ACAD_NAV_VCDISPLAY
 70
     0
  0
APPID
  2
ACAD_DSTYLE_DIMJAG
 70
     0
  0
APPID
  2
ACAD_DSTYLE_DIMTALN
 70
     0
  0
APPID
  2
ACAECLAYERSTANDARD
 70
     0
  0
APPID
  2
ACCMTRANSPARENCY
 70
     0
  0
ENDTAB
  0
TABLE
  2
DIMSTYLE
 70
     1
  0
DIMSTYLE
  2
STANDARD
 70
     0
  3

  4

  5

  6

  7

 40
1.0
 41
0.18
 42
0.0625
 43
0.38
 44
0.18
 45
0.0
 46
0.0
 47
0.0
 48
0.0
140
0.18
141
0.09
142
0.0
143
25.399999999999999
144
1.0
145
0.0
146
1.0
147
0.09
 71
     0
 72
     0
 73
     1
 74
     1
 75
     0
 76
     0
 77
     0
 78
     0
170
     0
171
     2
172
     0
173
     0
174
     0
175
     0
176
     0
177
     0
178
     0
  0
ENDTAB
  0
ENDSEC
  0
SECTION
  2
BLOCKS
  0
BLOCK
  8
0
  2
$MODEL_SPACE
 70
     2
 10
0.0
 20
0.0
 30
0.0
  3
$MODEL_SPACE
  1

  0
ENDBLK
  5
7
  8
0
  0
BLOCK
 67
     1
  8
0
  2
$PAPER_SPACE
 70
     0
 10
0.0
 20
0.0
 30
0.0
  3
$PAPER_SPACE
  1

  0
ENDBLK
  5
A
 67
     1
  8
0
  0
ENDSEC
  0
SECTION
  2
ENTITIES
  0
TEXT
  5
2BF
  8
0
 62
     3
 10
0.0
 20
0.0
 30
0.0
 40
10.0
  1
ZCL-1.5-30-A15-K
  7
STANDARD1
  0
ARC
  5
5901
  8
0
 10
153.99999932944769
 20
73.925323039293303
 30
0.0
 40
7.5000000000000089
 50
109.4712206344895
 51
70.528779365510459
  0
LINE
  5
5902
  8
0
 10
156.49999927356839
 20
80.996390618383899
 30
0.0
 11
156.49999927356839
 21
83.725323155522361
 31
0.0
  0
LINE
  5
5903
  8
0
 10
151.4999993853271
 20
83.725323155522361
 30
0.0
 11
151.4999993853271
 21
80.996390618383899
 31
0.0
  0
CIRCLE
  5
5904
  8
0
 10
153.99999932944769
 20
73.925323039293303
 30
0.0
 40
17.5
  0
LINE
  5
5905
  8
0
 10
156.49999927356839
 20
83.725323155522361
 30
0.0
 11
151.4999993853271
 21
83.725323155522361
 31
0.0
  0
ARC
  5
5906
  8
0
 10
173.84500938472911
 20
81.345314073573292
 30
0.0
 40
9.0459999999998484
 50
284.44248713501179
 51
297.28610684225498
  0
ARC
  5
5907
  8
0
 10
174.82982656535901
 20
77.663463575862949
 30
0.0
 40
5.234999999999884
 50
274.17781457684862
 51
284.05490571467033
  0
ARC
  5
5908
  8
0
 10
175.2886452064383
 20
71.429329648154081
 30
0.0
 40
1.0160000000000231
 50
94.371254917305208
 51
129.05171275119349
  0
ARC
  5
5909
  8
0
 10
175.1015248473233
 20
71.700498852928874
 30
0.0
 40
0.6880000000000388
 50
131.17822041293121
 51
173.37748353446719
  0
LINE
  5
590A
  8
0
 10
174.3981430083513
 20
71.604422247037306
 30
0.0
 11
174.4181161522865
 21
71.779844304546728
 31
0.0
  0
ARC
  5
590B
  8
0
 10
175.0825781062039
 20
71.534482097516516
 30
0.0
 40
0.6880000000000118
 50
174.16538319088289
 51
216.40742703641851
  0
ARC
  5
590C
  8
0
 10
175.3241809063218
 20
71.758377935762169
 30
0.0
 40
1.016000000000014
 50
218.4830639960382
 51
253.1716663505324
  0
ARC
  5
590D
  8
0
 10
173.5256209227359
 20
65.771713027015934
 30
0.0
 40
5.2349999999996291
 50
63.421437025831487
 51
73.298966925610955
  0
ARC
  5
590E
  8
0
 10
171.76818756518071
 20
62.38982975458768
 30
0.0
 40
9.0460000000003866
 50
50.205470476789017
 51
63.05044128728612
  0
ARC
  5
590F
  8
0
 10
153.99999932944769
 20
73.925323039293303
 30
0.0
 40
24.0
 50
346.5210167521866
 51
348.98630306834667
  0
ARC
  5
5910
  8
0
 10
174.95405118334929
 20
77.057159872052011
 30
0.0
 40
9.0460000000002019
 50
272.44248713501253
 51
285.28610684225481
  0
ARC
  5
5911
  8
0
 10
175.15184798342659
 20
73.251011636284844
 30
0.0
 40
5.2350000000001522
 50
262.17781457684879
 51
272.0549057146722
  0
ARC
  5
5912
  8
0
 10
174.30449101067589
 20
67.057714732797393
 30
0.0
 40
1.0160000000000169
 50
82.371254917304213
 51
117.0517127511886
  0
ARC
  5
5913
  8
0
 10
174.1778389282216
 20
67.361862750090779
 30
0.0
 40
0.6880000000000425
 50
119.1782204129274
 51
161.37748353446639
  0
LINE
  5
5914
  8
0
 10
173.46985095739359
 20
67.414127010852113
 30
0.0
 11
173.52586069703099
 21
67.581562977284207
 31
0.0
  0
ARC
  5
5915
  8
0
 10
174.12478939453209
 20
67.203413108084206
 30
0.0
 40
0.6880000000000786
 50
162.1653831908846
 51
204.40742703641271
  0
ARC
  5
5916
  8
0
 10
174.40766315609471
 20
67.372184238399683
 30
0.0
 40
1.016000000000032
 50
206.483063996038
 51
241.17166635064009
  0
ARC
  5
5917
  8
0
 10
171.40370839983751
 20
61.890283968736867
 30
0.0
 40
5.2349999999995713
 50
51.421437025828567
 51
61.298966925590122
  0
ARC
  5
5918
  8
0
 10
168.9815461083767
 20
58.947693900718292
 30
0.0
 40
9.0460000000000953
 50
38.205470476787887
 51
51.050441287282901
  0
ARC
  5
5919
  8
0
 10
153.99999932944769
 20
73.925323039293303
 30
0.0
 40
24.0
 50
334.52101675218648
 51
336.98630306834548
  0
ARC
  5
591A
  8
0
 10
175.1473003672574
 20
72.632129372717813
 30
0.0
 40
9.0459999999996743
 50
260.44248713501071
 51
273.28610684225288
  0
ARC
  5
591B
  8
0
 10
174.54943211748471
 20
68.868030340723223
 30
0.0
 40
5.2350000000003263
 50
250.17781457684779
 51
260.05490571467078
  0
ARC
  5
591C
  8
0
 10
172.43293309668309
 20
62.986247254875479
 30
0.0
 40
1.01600000000002
 50
70.371254917306814
 51
105.0517127511858
  0
ARC
  5
591D
  8
0
 10
172.37228459463671
 20
63.310081356867641
 30
0.0
 40
0.6880000000000531
 50
107.1782204129231
 51
149.3774835344685
  0
LINE
  5
591E
  8
0
 10
171.69063554704189
 20
63.508402742445483
 30
0.0
 11
171.7802325040102
 21
63.660534285008922
 31
0.0
  0
ARC
  5
591F
  8
0
 10
172.28745078755921
 20
63.166123837948227
 30
0.0
 40
0.6880000000000088
 50
150.16538319088309
 51
192.40742703640581
  0
ARC
  5
5920
  8
0
 10
172.5992325698073
 20
63.272394152085013
 30
0.0
 40
1.0160000000000931
 50
194.48306399603001
 51
229.1716663506333
  0
ARC
  5
5921
  8
0
 10
168.52117027830181
 20
58.534843868366053
 30
0.0
 40
5.2349999999991681
 50
39.42143702582765
 51
49.298966925591479
  0
ARC
  5
5922
  8
0
 10
165.5401391678958
 20
56.160152310842903
 30
0.0
 40
9.0460000000002161
 50
26.205470476788701
 51
39.05044128728381
  0
ARC
  5
5923
  8
0
 10
153.99999932944769
 20
73.925323039293303
 30
0.0
 40
24.000000000000021
 50
322.52101675218648
 51
324.98630306834542
  0
ARC
  5
5924
  8
0
 10
174.41631101980431
 20
68.263617642045276
 30
0.0
 40
9.0459999999997862
 50
248.4424871350104
 51
261.28610684225202
  0
ARC
  5
5925
  8
0
 10
173.0489074315864
 20
64.706077003671169
 30
0.0
 40
5.234999999999701
 50
238.17781457685359
 51
248.05490571467379
  0
ARC
  5
5926
  8
0
 10
169.7557675260322
 20
59.39286988024211
 30
0.0
 40
1.0159999999999969
 50
58.371254917284389
 51
93.051712751184851
  0
ARC
  5
5927
  8
0
 10
169.763773234957
 20
59.722236962747573
 30
0.0
 40
0.687999999999997
 50
95.178220412921064
 51
137.37748353446591
  0
LINE
  5
5928
  8
0
 10
169.13825289905071
 20
60.057947598397739
 30
0.0
 11
169.25752179324621
 21
60.188126936554923
 31
0.0
  0
ARC
  5
5929
  8
0
 10
169.6508627989387
 20
59.599063201276891
 30
0.0
 40
0.6880000000000467
 50
138.165383190884
 51
180.40742703640629
  0
ARC
  5
592A
  8
0
 10
169.9779262418931
 20
59.638188176565627
 30
0.0
 40
1.01600000000001
 50
182.48306399603109
 51
217.17166635053451
  0
ARC
  5
592B
  8
0
 10
165.0039873059909
 20
55.852041559476639
 30
0.0
 40
5.2350000000002437
 50
27.421437025828961
 51
37.298966925609982
  0
ARC
  5
592C
  8
0
 10
161.5943727407398
 20
54.149033928547887
 30
0.0
 40
9.0460000000005056
 50
14.205470476788941
 51
27.05044128728408
  0
ARC
  5
592D
  8
0
 10
153.99999932944769
 20
73.925323039293303
 30
0.0
 40
24.000000000000039
 50
310.52101675218893
 51
312.98630306834548
  0
ARC
  5
592E
  8
0
 10
172.7930308831501
 20
64.142549605109807
 30
0.0
 40
9.0460000000005998
 50
236.44248713501091
 51
249.28610684225359
  0
ARC
  5
592F
  8
0
 10
170.7158540548225
 20
60.947048957227508
 30
0.0
 40
5.2350000000001629
 50
226.1778145768472
 51
236.05490571467419
  0
ARC
  5
5930
  8
0
 10
166.3899992806266
 20
56.4346304431064
 30
0.0
 40
1.0160000000000371
 50
46.371254917311667
 51
81.051712751183629
  0
ARC
  5
5931
  8
0
 10
166.46630931262709
 20
56.755135584141001
 30
0.0
 40
0.6880000000000718
 50
83.178220412920126
 51
125.377483534465
  0
LINE
  5
5932
  8
0
 10
165.92425590008489
 20
57.213562726974502
 30
0.0
 11
166.0679841190576
 21
57.316099479794516
 31
0.0
  0
ARC
  5
5933
  8
0
 10
166.33025697552611
 20
56.658128864548686
 30
0.0
 40
0.6880000000000627
 50
126.1653831908838
 51
168.4074270364047
  0
ARC
  5
5934
  8
0
 10
166.6583078373051
 20
56.628398551826848
 30
0.0
 40
1.016000000000016
 50
170.48306399603101
 51
205.17166635064001
  0
ARC
  5
5935
  8
0
 10
161.00587725611351
 20
53.959128376482653
 30
0.0
 40
5.2349999999998493
 50
15.42143702582853
 51
25.298966925588541
  0
ARC
  5
5936
  8
0
 10
157.31669575366371
 20
53.002234277556447
 30
0.0
 40
9.0460000000005358
 50
2.2054704767880859
 51
15.05044128728359
  0
ARC
  5
5937
  8
0
 10
170.34840508862769
 20
60.449035710201962
 30
0.0
 40
9.0459999999998146
 50
224.44248713501071
 51
237.28610684225501
  0
ARC
  5
5938
  8
0
 10
167.6522376149891
 20
57.755233764838053
 30
0.0
 40
5.2349999999998857
 50
214.177814576835
 51
224.05490571467391
  0
ARC
  5
5939
  8
0
 10
162.4827285835384
 20
54.240818202079062
 30
0.0
 40
1.0159999999999461
 50
34.371254917380632
 51
69.051712751180844
  0
ARC
  5
593A
  8
0
 10
162.62400782403981
 20
54.53845378902539
 30
0.0
 40
0.6879999999999403
 50
71.178220412907677
 51
113.3774835344695
  0
LINE
  5
593B
  8
0
 10
162.1891122087836
 20
55.099562928080573
 30
0.0
 11
162.3510179817676
 21
55.169976502656951
 31
0.0
  0
ARC
  5
593C
  8
0
 10
162.47075972583929
 20
54.471853770447389
 30
0.0
 40
0.6880000000000129
 50
114.16538319088249
 51
156.40742703641521
  0
ARC
  5
593D
  8
0
 10
162.78546060962049
 20
54.374567527042743
 30
0.0
 40
1.016000000000026
 50
158.48306399603649
 51
193.17166635064041
  0
ARC
  5
593E
  8
0
 10
156.7015767229081
 20
52.938833708685053
 30
0.0
 40
5.234999999999979
 50
3.4214370258259401
 51
13.29896692558979
  0
ARC
  5
593F
  8
0
 10
152.8940632175748
 20
52.769874005571907
 30
0.0
 40
9.0459999999999514
 50
350.20547047678872
 51
3.050441287282752
  0
ARC
  5
5940
  8
0
 10
167.18927551407521
 20
57.344500237977442
 30
0.0
 40
9.0460000000000438
 50
212.4424871350121
 51
225.28610684225501
  0
ARC
  5
5941
  8
0
 10
163.9919528513706
 20
55.27012906643985
 30
0.0
 40
5.2350000000004693
 50
202.1778145768352
 51
212.05490571467431
  0
ARC
  5
5942
  8
0
 10
158.2047219133953
 20
52.907313279171852
 30
0.0
 40
1.0160000000000879
 50
22.3712549173834
 51
57.051712751172083
  0
ARC
  5
5943
  8
0
 10
158.40479578165491
 20
53.169071208666303
 30
0.0
 40
0.6880000000000425
 50
59.178220412900352
 51
101.37748353446661
  0
LINE
  5
5944
  8
0
 10
158.09606451168651
 20
53.80833819508554
 30
0.0
 11
158.26907258108261
 21
53.843551501631751
 31
0.0
  0
ARC
  5
5945
  8
0
 10
158.24104959961201
 20
53.135788631497
 30
0.0
 40
0.6880000000000091
 50
102.165383190886
 51
144.4074270364174
  0
ARC
  5
5946
  8
0
 10
158.5286465666718
 20
52.975198333077543
 30
0.0
 40
1.015999999999968
 50
146.48306399603689
 51
181.1716663506414
  0
ARC
  5
5947
  8
0
 10
152.2792042940018
 20
52.835749328983852
 30
0.0
 40
5.2350000000002668
 50
351.4214370258253
 51
1.298966925589186
  0
ARC
  5
5948
  8
0
 10
148.51976539644451
 20
53.462108371468311
 30
0.0
 40
9.0459999999998502
 50
338.20547047678889
 51
351.05044128728213
  0
ARC
  5
5949
  8
0
 10
163.4537112810857
 20
54.964626285785691
 30
0.0
 40
9.0460000000003582
 50
200.44248713501531
 51
213.28610684225299
  0
ARC
  5
594A
  8
0
 10
159.8949717721309
 20
53.600345862207448
 30
0.0
 40
5.235000000000344
 50
190.1778145768387
 51
200.05490571468039
  0
ARC
  5
594B
  8
0
 10
153.7429486898364
 20
52.492396238382703
 30
0.0
 40
1.015999999999966
 50
10.37125491735944
 51
45.051712751173348
  0
ARC
  5
594C
  8
0
 10
153.99307299775009
 20
52.706836432852398
 30
0.0
 40
0.6880000000000349
 50
47.178220412894582
 51
89.377483534464673
  0
LINE
  5
594D
  8
0
 10
153.82399932807311
 20
53.396322950720801
 30
0.0
 11
154.00054794449619
 21
53.394795581698432
 31
0.0
  0
ARC
  5
594E
  8
0
 10
153.8259852257614
 20
52.708325905421482
 30
0.0
 40
0.6879999999999892
 50
90.165383190881869
 51
132.40742703642519
  0
ARC
  5
594F
  8
0
 10
154.07390890859611
 20
52.491450118625849
 30
0.0
 40
1.016000000000024
 50
134.4830639960407
 51
169.1716663506366
  0
ARC
  5
5950
  8
0
 10
147.93203886543651
 20
53.654380519425501
 30
0.0
 40
5.2349999999992258
 50
339.42143702582081
 51
349.29896692559038
  0
ARC
  5
5951
  8
0
 10
144.3849800952662
 20
55.048683411747099
 30
0.0
 40
9.046000000000026
 50
326.20547047678963
 51
339.05044128728048
  0
ARC
  5
5952
  8
0
 10
159.3049744718665
 20
53.413425765239488
 30
0.0
 40
9.0460000000006051
 50
188.44248713501599
 51
201.28610684225379
  0
ARC
  5
5953
  8
0
 10
155.5403521099299
 20
52.818861690675107
 30
0.0
 40
5.2350000000003121
 50
178.17781457683961
 51
188.05490571468141
  0
ARC
  5
5954
  8
0
 10
149.29240981269419
 20
53.014200945386698
 30
0.0
 40
1.0159999999999969
 50
358.37125491735202
 51
33.051712751166157
  0
ARC
  5
5955
  8
0
 10
149.5816529277767
 20
53.171951339335202
 30
0.0
 40
0.6880000000000445
 50
35.178220412891882
 51
77.377483534464034
  0
LINE
  5
5956
  8
0
 10
149.55962605401871
 20
53.881523385643973
 30
0.0
 11
149.7319994270801
 21
53.843322396278388
 31
0.0
  0
ARC
  5
5957
  8
0
 10
149.41852610325429
 20
53.208147764544051
 30
0.0
 40
0.6880000000000777
 50
78.165383190884313
 51
120.4074270364174
  0
ARC
  5
5958
  8
0
 10
149.6159410472539
 20
52.944465001940848
 30
0.0
 40
1.01599999999998
 50
122.48306399603921
 51
157.1716663506424
  0
ARC
  5
5959
  8
0
 10
143.85007242645159
 20
55.358949168759892
 30
0.0
 40
5.234999999999828
 50
327.42143702582541
 51
337.2989669255893
  0
ARC
  5
595A
  8
0
 10
140.67041727260309
 20
57.460258183916288
 30
0.0
 40
9.0460000000000651
 50
314.20547047679008
 51
327.05044128728281
  0
ARC
  5
595B
  8
0
 10
154.92438479282771
 20
52.758693582572853
 30
0.0
 40
9.0459999999998342
 50
176.4424871350158
 51
189.2861068422541
  0
ARC
  5
595C
  8
0
 10
151.1184116397892
 20
52.959831160115691
 30
0.0
 40
5.2350000000003343
 50
166.17781457683981
 51
176.0549057146801
  0
ARC
  5
595D
  8
0
 10
145.047615186955
 20
54.44992203059104
 30
0.0
 40
1.0160000000000191
 50
346.37125491735571
 51
21.051712751168161
  0
ARC
  5
595E
  8
0
 10
145.3633357971346
 20
54.544088174832353
 30
0.0
 40
0.6880000000000434
 50
23.178220412894991
 51
65.377483534465725
  0
LINE
  5
595F
  8
0
 10
145.489318460226
 20
55.242733284831061
 30
0.0
 11
145.6499827802181
 21
55.169529467821128
 31
0.0
  0
ARC
  5
5960
  8
0
 10
145.21129934507951
 20
54.61340959520988
 30
0.0
 40
0.6879999999999718
 50
66.165383190881244
 51
108.4074270364257
  0
ARC
  5
5961
  8
0
 10
145.34957756988939
 20
54.314444058814892
 30
0.0
 40
1.0160000000000591
 50
110.4830639960439
 51
145.1716663505315
  0
ARC
  5
5962
  8
0
 10
140.21170649788081
 20
57.874957447583142
 30
0.0
 40
5.2350000000004124
 50
315.421437025827
 51
325.29896692561039
  0
ARC
  5
5963
  8
0
 10
137.5384211482552
 20
60.59143529841247
 30
0.0
 40
9.0460000000000793
 50
302.2054704767877
 51
315.05044128728088
  0
ARC
  5
5964
  8
0
 10
150.50339503334641
 20
53.029044675921952
 30
0.0
 40
9.0459999999998981
 50
164.44248713501599
 51
177.28610684225271
  0
ARC
  5
5965
  8
0
 10
146.8224103790777
 20
54.01709322826845
 30
0.0
 40
5.2349999999997108
 50
154.17781457683779
 51
164.05490571468249
  0
ARC
  5
5966
  8
0
 10
141.19408270654779
 20
56.736811593218249
 30
0.0
 40
1.016
 50
334.37125491735179
 51
9.0517127511712019
  0
ARC
  5
5967
  8
0
 10
141.52248230616439
 20
56.763277975389741
 30
0.0
 40
0.6880000000000384
 50
11.17822041289946
 51
53.377483534467508
  0
LINE
  5
5968
  8
0
 10
141.79096852987999
 20
57.420463487505927
 30
0.0
 11
141.93290209025139
 21
57.315455004572883
 31
0.0
  0
ARC
  5
5969
  8
0
 10
141.38818094908311
 20
56.862694712224197
 30
0.0
 40
0.6879999999999923
 50
54.165383190885819
 51
96.407427036426526
  0
ARC
  5
596A
  8
0
 10
141.46127903274649
 20
56.541512630573791
 30
0.0
 40
1.016000000000105
 50
98.48306399604283
 51
133.1716663505297
  0
ARC
  5
596B
  8
0
 10
137.17595512962021
 20
61.092443720962578
 30
0.0
 40
5.2349999999998307
 50
303.42143702582729
 51
313.29896692561158
  0
ARC
  5
596C
  8
0
 10
135.1258749818416
 20
64.305367290277275
 30
0.0
 40
9.0460000000000775
 50
290.20547047678878
 51
303.05044128728298
  0
ARC
  5
596D
  8
0
 10
146.2352236601734
 20
54.21266340521899
 30
0.0
 40
9.0459999999997986
 50
152.44248713501511
 51
165.28610684225271
  0
ARC
  5
596E
  8
0
 10
142.84010419739181
 20
55.944440469447997
 30
0.0
 40
5.2350000000005243
 50
142.17781457684001
 51
152.05490571467999
  0
ARC
  5
596F
  8
0
 10
137.90023023216719
 20
59.774921585667791
 30
0.0
 40
1.0160000000000431
 50
322.37125491735168
 51
357.05171275117158
  0
ARC
  5
5970
  8
0
 10
138.22695618288111
 20
59.732531497868827
 30
0.0
 40
0.6880000000000757
 50
359.1782204128981
 51
41.377483534466108
  0
LINE
  5
5971
  8
0
 10
138.62621241807929
 20
60.319534689188018
 30
0.0
 11
138.74321167916059
 21
60.18731109797956
 31
0.0
  0
ARC
  5
5972
  8
0
 10
138.11625953452759
 20
59.857698562706041
 30
0.0
 40
0.6880000000000416
 50
42.165383190887383
 51
84.407427036431784
  0
ARC
  5
5973
  8
0
 10
138.12098274002491
 20
59.528337133971156
 30
0.0
 40
1.016000000000004
 50
86.483063996047974
 51
121.17166635053449
  0
ARC
  5
5974
  8
0
 10
134.87549522361269
 20
64.870788399540274
 30
0.0
 40
5.234999999999566
 50
291.42143702582842
 51
301.29896692561198
  0
ARC
  5
5975
  8
0
 10
133.5382186175153
 20
68.439737510043543
 30
0.0
 40
9.0460000000002871
 50
278.20547047678838
 51
291.05044128728463
  0
ARC
  5
5976
  8
0
 10
142.3064102432761
 20
56.25781995236045
 30
0.0
 40
9.0460000000004346
 50
140.44248713501531
 51
153.28610684225259
  0
ARC
  5
5977
  8
0
 10
139.34553898409399
 20
58.657638560777677
 30
0.0
 40
5.235000000000146
 50
130.17781457684501
 51
140.0549057146801
  0
ARC
  5
5978
  8
0
 10
135.31001492260111
 20
63.43147202280047
 30
0.0
 40
1.015999999999986
 50
310.3712549173149
 51
345.0517127511726
  0
ARC
  5
5979
  8
0
 10
135.6207877325613
 20
63.32207811527806
 30
0.0
 40
0.6879999999999599
 50
347.17822041289782
 51
29.377483534466212
  0
LINE
  5
597A
  8
0
 10
136.13336363434789
 20
63.813243247568622
 30
0.0
 11
136.22031563520429
 21
63.659584335982807
 31
0.0
  0
ARC
  5
597B
  8
0
 10
135.53853376764991
 20
63.467525106766502
 30
0.0
 40
0.6880000000000629
 50
30.165383190884661
 51
72.40742703642556
  0
ARC
  5
597C
  8
0
 10
135.47467566823661
 20
63.144379005834132
 30
0.0
 40
1.016000000000038
 50
74.483063996047974
 51
109.1716663505343
  0
ARC
  5
597D
  8
0
 10
133.41086791658239
 20
69.044859690353206
 30
0.0
 40
5.2349999999996664
 50
279.42143702582501
 51
289.29896692561118
  0
ARC
  5
597E
  8
0
 10
132.84484025681789
 20
72.813854140197293
 30
0.0
 40
9.0459999999999425
 50
266.20547047679003
 51
279.05044128728241
  0
ARC
  5
597F
  8
0
 10
138.88866278150951
 20
59.075131162487018
 30
0.0
 40
9.0460000000002267
 50
128.44248713501551
 51
141.2861068422539
  0
ARC
  5
5980
  8
0
 10
136.49144400779079
 20
62.038107726297028
 30
0.0
 40
5.2349999999998413
 50
118.1778145768501
 51
128.05490571468289
  0
ARC
  5
5981
  8
0
 10
133.53664161610979
 20
67.546654104437863
 30
0.0
 40
1.0160000000000169
 50
298.37125491728813
 51
333.05171275117829
  0
ARC
  5
5982
  8
0
 10
133.8178790222675
 20
67.375037415880911
 30
0.0
 40
0.6879999999999275
 50
335.17822041290111
 51
17.377483534470208
  0
LINE
  5
5983
  8
0
 10
134.421372950077
 20
67.748899292200818
 30
0.0
 11
134.4744769632816
 21
67.580519430339351
 31
0.0
  0
ARC
  5
5984
  8
0
 10
133.76766263376339
 20
67.534407602560464
 30
0.0
 40
0.6880000000000374
 50
18.165383190884441
 51
60.407427036430668
  0
ARC
  5
5985
  8
0
 10
133.63801413480871
 20
67.231599864668482
 30
0.0
 40
1.016000000000006
 50
62.483063996046113
 51
97.171666350371538
  0
ARC
  5
5986
  8
0
 10
132.84608444990809
 20
73.432230648576734
 30
0.0
 40
5.2350000000002659
 50
267.42143702582649
 51
277.29896692564103
  0
ARC
  5
5987
  8
0
 10
133.07604386131061
 20
77.236547294661491
 30
0.0
 40
9.04600000000001
 50
254.20547047678761
 51
267.05044128728298
  0
ARC
  5
5988
  8
0
 10
136.1313532391259
 20
62.541467016756762
 30
0.0
 40
9.0460000000000651
 50
116.44248713501941
 51
129.286106842252
  0
ARC
  5
5989
  8
0
 10
134.40255691441419
 20
65.938105242181635
 30
0.0
 40
5.2350000000000287
 50
106.17781457685339
 51
116.0549057146863
  0
ARC
  5
598A
  8
0
 10
132.65761523577621
 20
71.940614626777901
 30
0.0
 40
1.015999999999976
 50
286.37125491727562
 51
321.05171275117658
  0
ARC
  5
598B
  8
0
 10
132.89702581395539
 20
71.714275629984613
 30
0.0
 40
0.6880000000000076
 50
323.17822041290322
 51
5.3774835344676326
  0
LINE
  5
598C
  8
0
 10
133.56506282091141
 20
71.95449406281115
 30
0.0
 11
133.58199799060819
 21
71.778753027319922
 31
0.0
  0
ARC
  5
598D
  8
0
 10
132.88104169900109
 20
71.880603769954405
 30
0.0
 40
0.6880000000000121
 50
6.1653831908833752
 51
48.407427036432587
  0
ARC
  5
598E
  8
0
 10
132.69126906203201
 20
71.611368546281341
 30
0.0
 40
1.0160000000000149
 50
50.483063996049488
 51
85.171666350531879
  0
ARC
  5
598F
  8
0
 10
133.2058285712157
 20
77.841152110393494
 30
0.0
 40
5.2349999999999213
 50
255.42143702582899
 51
265.29896692560988
  0
ARC
  5
5990
  8
0
 10
134.22172472403881
 20
81.514524060149483
 30
0.0
 40
9.0460000000003031
 50
242.20547047679079
 51
255.05044128728559
  0
ARC
  5
5991
  8
0
 10
134.1549892741665
 20
66.505332005013088
 30
0.0
 40
9.0460000000000633
 50
104.4424871350186
 51
117.2861068422514
  0
ARC
  5
5992
  8
0
 10
133.17017209353671
 20
70.187182502723189
 30
0.0
 40
5.2350000000003281
 50
94.177814576855098
 51
104.054905714687
  0
ARC
  5
5993
  8
0
 10
132.7113534524573
 20
76.421316430432455
 30
0.0
 40
1.0159999999999469
 50
274.37125491727579
 51
309.05171275117652
  0
ARC
  5
5994
  8
0
 10
132.89847381157239
 20
76.150147225657705
 30
0.0
 40
0.6879999999999468
 50
311.17822041290037
 51
353.37748353446761
  0
LINE
  5
5995
  8
0
 10
133.60185565054411
 20
76.246223831549301
 30
0.0
 11
133.58188250660891
 21
76.070801774039879
 31
0.0
  0
ARC
  5
5996
  8
0
 10
132.9174205526916
 20
76.316163981070048
 30
0.0
 40
0.6880000000000182
 50
354.16538319088528
 51
36.407427036440481
  0
ARC
  5
5997
  8
0
 10
132.67581775257381
 20
76.092268142824423
 30
0.0
 40
1.015999999999986
 50
38.483063996053112
 51
73.171666350372533
  0
ARC
  5
5998
  8
0
 10
134.47437773615979
 20
82.07893305157107
 30
0.0
 40
5.2350000000001238
 50
243.42143702582791
 51
253.29896692564159
  0
ARC
  5
5999
  8
0
 10
136.2318110937145
 20
85.460816323998358
 30
0.0
 40
9.0459999999997542
 50
230.2054704767892
 51
243.05044128728611
  0
ARC
  5
599A
  8
0
 10
133.04594747554631
 20
70.793486206534638
 30
0.0
 40
9.0460000000001202
 50
92.442487135018993
 51
105.2861068422514
  0
ARC
  5
599B
  8
0
 10
132.84815067546899
 20
74.599634442301635
 30
0.0
 40
5.235000000000233
 50
82.177814576855411
 51
92.054905714688473
  0
ARC
  5
599C
  8
0
 10
133.6955076482196
 20
80.792931345789199
 30
0.0
 40
1.0160000000000391
 50
262.37125491727471
 51
297.05171275116669
  0
ARC
  5
599D
  8
0
 10
133.822159730674
 20
80.488783328495799
 30
0.0
 40
0.68800000000003
 50
299.17822041289389
 51
341.37748353446699
  0
LINE
  5
599E
  8
0
 10
134.53014770150179
 20
80.436519067734494
 30
0.0
 11
134.47413796186439
 21
80.2690831013024
 31
0.0
  0
ARC
  5
599F
  8
0
 10
133.87520926436341
 20
80.647232970502344
 30
0.0
 40
0.6880000000000413
 50
342.16538319088482
 51
24.407427036446741
  0
ARC
  5
59A0
  8
0
 10
133.59233550280089
 20
80.478461840186924
 30
0.0
 40
1.0160000000000251
 50
26.483063996056131
 51
61.171666350372448
  0
ARC
  5
59A1
  8
0
 10
136.5962902590577
 20
85.960362109849356
 30
0.0
 40
5.2349999999991459
 50
231.4214370258249
 51
241.29896692564211
  0
ARC
  5
59A2
  8
0
 10
139.0184525505187
 20
88.902952177868258
 30
0.0
 40
9.0460000000001166
 50
218.20547047678821
 51
231.05044128728289
  0
ARC
  5
59A3
  8
0
 10
132.85269829163809
 20
75.218516705868439
 30
0.0
 40
9.0460000000000065
 50
80.442487135020599
 51
93.286106842252863
  0
ARC
  5
59A4
  8
0
 10
133.45056654141101
 20
78.982615737863668
 30
0.0
 40
5.2350000000000101
 50
70.177814576851347
 51
80.054905714690605
  0
ARC
  5
59A5
  8
0
 10
135.56706556221249
 20
84.864398823711085
 30
0.0
 40
1.0160000000000149
 50
250.37125491728611
 51
285.05171275116902
  0
ARC
  5
59A6
  8
0
 10
135.6277140642589
 20
84.540564721718923
 30
0.0
 40
0.6880000000000092
 50
287.17822041289247
 51
329.37748353446818
  0
LINE
  5
59A7
  8
0
 10
136.3093631118536
 20
84.342243336141124
 30
0.0
 11
136.21976615488529
 21
84.190111793577685
 31
0.0
  0
ARC
  5
59A8
  8
0
 10
135.7125478713362
 20
84.684522240638316
 30
0.0
 40
0.6880000000000511
 50
330.16538319088551
 51
12.40742703644232
  0
ARC
  5
59A9
  8
0
 10
135.40076608908831
 20
84.578251926501579
 30
0.0
 40
1.0160000000000331
 50
14.483063996054391
 51
49.171666350370508
  0
ARC
  5
59AA
  8
0
 10
139.478828380594
 20
89.315802210220795
 30
0.0
 40
5.234999999999526
 50
219.42143702582359
 51
229.2989669256431
  0
ARC
  5
59AB
  8
0
 10
142.45985949099941
 20
91.69049376774349
 30
0.0
 40
9.0459999999998786
 50
206.20547047678909
 51
219.05044128728349
  0
ARC
  5
59AC
  8
0
 10
133.58368763909121
 20
79.587028436541218
 30
0.0
 40
9.0459999999998786
 50
68.442487135020954
 51
81.286106842251954
  0
ARC
  5
59AD
  8
0
 10
134.95109122730901
 20
83.144569074914955
 30
0.0
 40
5.2350000000001762
 50
58.177814576853827
 51
68.054905714687834
  0
ARC
  5
59AE
  8
0
 10
138.2442311328634
 20
88.457776198344504
 30
0.0
 40
1.0160000000000451
 50
238.37125491728449
 51
273.05171275116851
  0
ARC
  5
59AF
  8
0
 10
138.23622542393849
 20
88.128409115839005
 30
0.0
 40
0.6879999999999944
 50
275.17822041289492
 51
317.3774835344658
  0
LINE
  5
59B0
  8
0
 10
138.86174575984481
 20
87.792698480188861
 30
0.0
 11
138.74247686564919
 21
87.662519142031684
 31
0.0
  0
ARC
  5
59B1
  8
0
 10
138.34913585995679
 20
88.251582877309644
 30
0.0
 40
0.6879999999999936
 50
318.16538319088357
 51
0.4074270364494761
  0
ARC
  5
59B2
  8
0
 10
138.02207241700259
 20
88.212457902020958
 30
0.0
 40
1.01599999999996
 50
2.4830639960569449
 51
37.171666350216512
  0
ARC
  5
59B3
  8
0
 10
142.9960113529043
 20
91.998604519109804
 30
0.0
 40
5.2349999999999568
 50
207.42143702582601
 51
217.29896692567399
  0
ARC
  5
59B4
  8
0
 10
146.40562591815501
 20
93.701612150038443
 30
0.0
 40
9.0459999999997542
 50
194.20547047678909
 51
207.05044128728289
  0
ARC
  5
59B5
  8
0
 10
135.2069677757458
 20
83.708096473477255
 30
0.0
 40
9.0460000000000207
 50
56.442487135022297
 51
69.286106842253574
  0
ARC
  5
59B6
  8
0
 10
137.28414460407299
 20
86.903597121359041
 30
0.0
 40
5.2350000000002126
 50
46.177814576847382
 51
56.054905714689902
  0
ARC
  5
59B7
  8
0
 10
141.60999937826901
 20
91.416015635480093
 30
0.0
 40
1.0159999999999321
 50
226.37125491730259
 51
261.0517127511672
  0
ARC
  5
59B8
  8
0
 10
141.5336893462686
 20
91.095510494445534
 30
0.0
 40
0.6880000000000206
 50
263.1782204128906
 51
305.37748353446523
  0
LINE
  5
59B9
  8
0
 10
142.07574275881049
 20
90.637083351612105
 30
0.0
 11
141.93201453983781
 21
90.53454659879209
 31
0.0
  0
ARC
  5
59BA
  8
0
 10
141.66974168336941
 20
91.192517214037835
 30
0.0
 40
0.6880000000000435
 50
306.16538319088761
 51
348.40742703644918
  0
ARC
  5
59BB
  8
0
 10
141.34169082159039
 20
91.222247526759702
 30
0.0
 40
1.016000000000074
 50
350.48306399606042
 51
25.171666350372419
  0
ARC
  5
59BC
  8
0
 10
146.9941214027817
 20
93.891517702103755
 30
0.0
 40
5.2349999999995021
 50
195.42143702582521
 51
205.2989669256412
  0
ARC
  5
59BD
  8
0
 10
150.6833029052311
 20
94.848411801030096
 30
0.0
 40
9.0459999999998821
 50
182.20547047678869
 51
195.05044128728409
  0
ARC
  5
59BE
  8
0
 10
137.65159357026789
 20
87.401610368384695
 30
0.0
 40
9.0459999999997045
 50
44.442487135019547
 51
57.286106842251407
  0
ARC
  5
59BF
  8
0
 10
140.34776104390619
 20
90.095412313748355
 30
0.0
 40
5.2350000000001904
 50
34.177814576840312
 51
44.054905714687443
  0
ARC
  5
59C0
  8
0
 10
145.51727007535709
 20
93.609827876507595
 30
0.0
 40
1.0160000000000291
 50
214.37125491735631
 51
249.0517127511599
  0
ARC
  5
59C1
  8
0
 10
145.3759908348556
 20
93.312192289561196
 30
0.0
 40
0.6879999999999568
 50
251.17822041288019
 51
293.37748353446591
  0
LINE
  5
59C2
  8
0
 10
145.81088645011181
 20
92.751083150506034
 30
0.0
 11
145.64898067712781
 21
92.680669575929656
 31
0.0
  0
ARC
  5
59C3
  8
0
 10
145.52923893305621
 20
93.378792308139197
 30
0.0
 40
0.6880000000000213
 50
294.16538319088608
 51
336.40742703645168
  0
ARC
  5
59C4
  8
0
 10
145.21453804927501
 20
93.476078551543836
 30
0.0
 40
1.0160000000000231
 50
338.48306399606048
 51
13.1716663503724
  0
ARC
  5
59C5
  8
0
 10
151.29842193598779
 20
94.911812369901597
 30
0.0
 40
5.2350000000003831
 50
183.42143702582769
 51
193.298966925641
  0
ARC
  5
59C6
  8
0
 10
155.10593544132109
 20
95.080772073014685
 30
0.0
 40
9.0460000000003191
 50
170.20547047678829
 51
183.05044128728369
  0
ARC
  5
59C7
  8
0
 10
140.81072314482
 20
90.506145840608909
 30
0.0
 40
9.0460000000003689
 50
32.442487135022809
 51
45.286106842251208
  0
ARC
  5
59C8
  8
0
 10
144.00804580752489
 20
92.5805170121467
 30
0.0
 40
5.2350000000005394
 50
22.17781457684373
 51
32.054905714691543
  0
ARC
  5
59C9
  8
0
 10
149.7952767455001
 20
94.943332799414634
 30
0.0
 40
1.0159999999999709
 50
202.37125491733411
 51
237.05171275116041
  0
ARC
  5
59CA
  8
0
 10
149.5952028772405
 20
94.681574869920183
 30
0.0
 40
0.6879999999999786
 50
239.17822041287761
 51
281.37748353446659
  0
LINE
  5
59CB
  8
0
 10
149.9039341472089
 20
94.042307883501067
 30
0.0
 11
149.73092607781291
 21
94.007094576954856
 31
0.0
  0
ARC
  5
59CC
  8
0
 10
149.75894905928359
 20
94.714857447089585
 30
0.0
 40
0.6880000000000034
 50
282.16538319088602
 51
324.40742703645509
  0
ARC
  5
59CD
  8
0
 10
149.4713520922237
 20
94.875447745509035
 30
0.0
 40
1.0159999999999989
 50
326.4830639960615
 51
1.1716663502151521
  0
ARC
  5
59CE
  8
0
 10
155.72079436489361
 20
95.014896749602698
 30
0.0
 40
5.2350000000002392
 50
171.4214370258282
 51
181.298966925672
  0
ARC
  5
59CF
  8
0
 10
159.48023326245081
 20
94.388537707118346
 30
0.0
 40
9.0459999999996707
 50
158.20547047678841
 51
171.05044128728491
  0
ARC
  5
59D0
  8
0
 10
144.5462873778101
 20
92.886019792801036
 30
0.0
 40
9.0460000000000278
 50
20.442487135022219
 51
33.286106842252657
  0
ARC
  5
59D1
  8
0
 10
148.10502688676519
 20
94.250300216379244
 30
0.0
 40
5.2349999999996504
 50
10.177814576842801
 51
20.054905714692818
  0
ARC
  5
59D2
  8
0
 10
154.2570499690591
 20
95.358249840203896
 30
0.0
 40
1.015999999999994
 50
190.3712549173338
 51
225.0517127511601
  0
ARC
  5
59D3
  8
0
 10
154.00692566114549
 20
95.143809645734194
 30
0.0
 40
0.6880000000000582
 50
227.17822041288071
 51
269.37748353446142
  0
LINE
  5
59D4
  8
0
 10
154.17599933082229
 20
94.454323127865806
 30
0.0
 11
153.99945071439919
 21
94.455850496888175
 31
0.0
  0
ARC
  5
59D5
  8
0
 10
154.17401343313401
 20
95.142320173165103
 30
0.0
 40
0.6880000000001169
 50
270.16538319088829
 51
312.40742703644719
  0
ARC
  5
59D6
  8
0
 10
153.9260897502995
 20
95.359195959960743
 30
0.0
 40
1.0160000000001519
 50
314.48306399605798
 51
349.17166635021192
  0
ARC
  5
59D7
  8
0
 10
160.0679597934602
 20
94.196265559160807
 30
0.0
 40
5.2350000000003982
 50
159.42143702582871
 51
169.29896692567161
  0
ARC
  5
59D8
  8
0
 10
163.61501856362921
 20
92.801962666839486
 30
0.0
 40
9.0459999999999443
 50
146.2054704767892
 51
159.05044128728289
  0
ARC
  5
59D9
  8
0
 10
148.6950241870297
 20
94.437220313347197
 30
0.0
 40
9.0459999999998821
 50
8.4424871350219135
 51
21.286106842253851
  0
ARC
  5
59DA
  8
0
 10
152.45964654896599
 20
95.031784387911515
 30
0.0
 40
5.234999999999963
 50
358.17781457683998
 51
8.0549057146909604
  0
ARC
  5
59DB
  8
0
 10
158.7075888462013
 20
94.836445133199888
 30
0.0
 40
1.0160000000000251
 50
178.37125491735111
 51
213.05171275115941
  0
ARC
  5
59DC
  8
0
 10
158.41834573111879
 20
94.678694739251384
 30
0.0
 40
0.6880000000000445
 50
215.17822041288039
 51
257.37748353446398
  0
LINE
  5
59DD
  8
0
 10
158.4403726048767
 20
93.969122692942634
 30
0.0
 11
158.26799923181531
 21
94.007323682308211
 31
0.0
  0
ARC
  5
59DE
  8
0
 10
158.58147255564131
 20
94.642498314042399
 30
0.0
 40
0.6879999999999031
 50
258.16538319087772
 51
300.40742703640979
  0
ARC
  5
59DF
  8
0
 10
158.38405761164159
 20
94.906181076645737
 30
0.0
 40
1.0159999999999521
 50
302.48306399603149
 51
337.17166635053491
  0
ARC
  5
59E0
  8
0
 10
164.14992623244319
 20
92.491696909827056
 30
0.0
 40
5.2349999999991752
 50
147.4214370258444
 51
157.29896692561161
  0
ARC
  5
59E1
  8
0
 10
167.3295813862926
 20
90.390387894670297
 30
0.0
 40
9.0460000000000846
 50
134.2054704767898
 51
147.0504412872944
  0
ARC
  5
59E2
  8
0
 10
153.07561386606801
 20
95.091952496013803
 30
0.0
 40
9.0459999999997045
 50
356.44248713500679
 51
9.2861068422531634
  0
ARC
  5
59E3
  8
0
 10
156.88158701910649
 20
94.890814918470895
 30
0.0
 40
5.2350000000002961
 50
346.17781457685402
 51
356.05490571466407
  0
ARC
  5
59E4
  8
0
 10
162.95238347194061
 20
93.400724047995539
 30
0.0
 40
1.015999999999986
 50
166.37125491728511
 51
201.05171275120091
  0
ARC
  5
59E5
  8
0
 10
162.6366628617609
 20
93.306557903754197
 30
0.0
 40
0.6879999999999871
 50
203.1782204129382
 51
245.37748353446929
  0
LINE
  5
59E6
  8
0
 10
162.51068019866941
 20
92.607912793755546
 30
0.0
 11
162.35001587867731
 21
92.681116610765471
 31
0.0
  0
ARC
  5
59E7
  8
0
 10
162.7886993138161
 20
93.237236483376805
 30
0.0
 40
0.6880000000000841
 50
246.1653831908848
 51
288.407427036412
  0
ARC
  5
59E8
  8
0
 10
162.6504210890061
 20
93.536202019771693
 30
0.0
 40
1.016000000000072
 50
290.48306399603689
 51
325.17166635053178
  0
ARC
  5
59E9
  8
0
 10
167.78829216101411
 20
89.975688631003848
 30
0.0
 40
5.2349999999998156
 50
135.42143702584141
 51
145.29896692561019
  0
ARC
  5
59EA
  8
0
 10
170.4615775106405
 20
87.259210780173973
 30
0.0
 40
9.0460000000003031
 50
122.2054704767877
 51
135.05044128729011
  0
ARC
  5
59EB
  8
0
 10
157.49660362554911
 20
94.821601402664655
 30
0.0
 40
9.045999999999891
 50
344.44248713500713
 51
357.28610684225328
  0
ARC
  5
59EC
  8
0
 10
161.17758827981751
 20
93.833552850318299
 30
0.0
 40
5.2350000000000811
 50
334.1778145768497
 51
344.05490571466572
  0
ARC
  5
59ED
  8
0
 10
166.8059159523477
 20
91.113834485368344
 30
0.0
 40
1.016000000000024
 50
154.3712549173033
 51
189.05171275119781
  0
ARC
  5
59EE
  8
0
 10
166.47751635273119
 20
91.087368103196852
 30
0.0
 40
0.6880000000000207
 50
191.1782204129388
 51
233.3774835344675
  0
LINE
  5
59EF
  8
0
 10
166.20903012901539
 20
90.43018259108068
 30
0.0
 11
166.06709656864399
 21
90.535191074013724
 31
0.0
  0
ARC
  5
59F0
  8
0
 10
166.6118177098125
 20
90.987951366362438
 30
0.0
 40
0.6880000000000189
 50
234.1653831908819
 51
276.40742703641661
  0
ARC
  5
59F1
  8
0
 10
166.538719626149
 20
91.309133448012744
 30
0.0
 40
1.016000000000032
 50
278.4830639960395
 51
313.17166635064069
  0
ARC
  5
59F2
  8
0
 10
170.82404352927529
 20
86.758202357623915
 30
0.0
 40
5.2349999999999106
 50
123.4214370258351
 51
133.2989669255891
  0
ARC
  5
59F3
  8
0
 10
172.8741236770538
 20
83.545278788309744
 30
0.0
 40
9.0459999999996317
 50
110.2054704767887
 51
123.0504412872869
  0
ARC
  5
59F4
  8
0
 10
161.764774998722
 20
93.637982673367588
 30
0.0
 40
9.0459999999998537
 50
332.44248713500809
 51
345.28610684225339
  0
ARC
  5
59F5
  8
0
 10
165.15989446150479
 20
91.906205609137984
 30
0.0
 40
5.2349999999993377
 50
322.17781457684589
 51
332.05490571466942
  0
ARC
  5
59F6
  8
0
 10
170.0997684267283
 20
88.075724492918795
 30
0.0
 40
1.016000000000048
 50
142.37125491731419
 51
177.05171275119741
  0
ARC
  5
59F7
  8
0
 10
169.77304247601441
 20
88.118114580717801
 30
0.0
 40
0.6880000000000686
 50
179.17822041293849
 51
221.3774835344671
  0
LINE
  5
59F8
  8
0
 10
169.37378624081609
 20
87.531111389398589
 30
0.0
 11
169.2567869797349
 21
87.663334980607047
 31
0.0
  0
ARC
  5
59F9
  8
0
 10
169.88373912436799
 20
87.992947515880516
 30
0.0
 40
0.6880000000000118
 50
222.16538319088249
 51
264.40742703642201
  0
ARC
  5
59FA
  8
0
 10
169.87901591887061
 20
88.322308944615472
 30
0.0
 40
1.016000000000024
 50
266.48306399604149
 51
301.17166635053093
  0
ARC
  5
59FB
  8
0
 10
173.1245034352832
 20
82.979857679045509
 30
0.0
 40
5.2350000000004648
 50
111.4214370258354
 51
121.2989669256082
  0
ARC
  5
59FC
  8
0
 10
174.46178004138031
 20
79.410908568543377
 30
0.0
 40
9.0459999999999621
 50
98.205470476788435
 51
111.05044128728809
  0
ARC
  5
59FD
  8
0
 10
165.69358841561939
 20
91.592826126226228
 30
0.0
 40
9.0460000000006175
 50
320.442487135009
 51
333.2861068422531
  0
ARC
  5
59FE
  8
0
 10
168.6544596748013
 20
89.193007517809249
 30
0.0
 40
5.2350000000006247
 50
310.17781457684038
 51
320.05490571466459
  0
ARC
  5
59FF
  8
0
 10
172.68998373629441
 20
84.419174055786115
 30
0.0
 40
1.015999999999974
 50
130.37125491734929
 51
165.05171275119511
  0
ARC
  5
5A00
  8
0
 10
172.3792109263342
 20
84.528567963308561
 30
0.0
 40
0.6879999999999739
 50
167.17822041293419
 51
209.3774835344679
  0
LINE
  5
5A01
  8
0
 10
171.86663502454749
 20
84.037402831017985
 30
0.0
 11
171.77968302369109
 21
84.191061742603793
 31
0.0
  0
ARC
  5
5A02
  8
0
 10
172.46146489124561
 20
84.383120971820034
 30
0.0
 40
0.6880000000000343
 50
210.16538319087991
 51
252.40742703642209
  0
ARC
  5
5A03
  8
0
 10
172.52532299065899
 20
84.706267072752354
 30
0.0
 40
1.015999999999927
 50
254.48306399604121
 51
289.17166635063779
  0
ARC
  5
5A04
  8
0
 10
174.5891307423131
 20
78.805786388233585
 30
0.0
 40
5.2349999999994807
 50
99.42143702582834
 51
109.29896692559051
  0
ARC
  5
5A05
  8
0
 10
175.15515840207749
 20
75.036791938389413
 30
0.0
 40
9.0459999999997898
 50
86.205470476786743
 51
99.050441287285636
  0
ARC
  5
5A06
  8
0
 10
169.1113358773863
 20
88.775514916099297
 30
0.0
 40
9.0459999999998306
 50
308.44248713500701
 51
321.28610684225418
  0
ARC
  5
5A07
  8
0
 10
171.5085546511047
 20
85.812538352289465
 30
0.0
 40
5.2349999999997499
 50
298.17781457684271
 51
308.05490571466657
  0
ARC
  5
5A08
  8
0
 10
174.46335704278579
 20
80.303991974148715
 30
0.0
 40
1.0160000000000291
 50
118.3712549173362
 51
153.05171275119531
  0
ARC
  5
5A09
  8
0
 10
174.18211963662799
 20
80.475608662705696
 30
0.0
 40
0.687999999999987
 50
155.17822041293189
 51
197.37748353447051
  0
LINE
  5
5A0A
  8
0
 10
173.57862570881841
 20
80.101746786385789
 30
0.0
 11
173.5255216956138
 21
80.270126648247256
 31
0.0
  0
ARC
  5
5A0B
  8
0
 10
174.23233602513221
 20
80.316238476026101
 30
0.0
 40
0.6880000000000374
 50
198.16538319088511
 51
240.4074270364232
  0
ARC
  5
5A0C
  8
0
 10
174.36198452408689
 20
80.619046213918111
 30
0.0
 40
1.01600000000002
 50
242.48306399604249
 51
277.1716663505324
  0
ARC
  5
5A0D
  8
0
 10
174.923954797585
 20
70.614098783925044
 30
0.0
 40
9.0460000000000562
 50
74.20547047678761
 51
87.050441287286304
  0
ARC
  5
5A0E
  8
0
 10
171.86864541976959
 20
85.309179061829795
 30
0.0
 40
9.0460000000000171
 50
296.44248713500849
 51
309.2861068422522
  0
ARC
  5
5A0F
  8
0
 10
173.5974417444813
 20
81.912540836404972
 30
0.0
 40
5.235000000000066
 50
286.17781457684998
 51
296.0549057146718
  0
ARC
  5
5A10
  8
0
 10
175.3423834231194
 20
75.910031451808692
 30
0.0
 40
1.0159999999999461
 50
106.3712549172993
 51
141.05171275119281
  0
ARC
  5
5A11
  8
0
 10
175.10297284494001
 20
76.136370448601994
 30
0.0
 40
0.6879999999999806
 50
143.1782204129297
 51
185.3774835344698
  0
LINE
  5
5A12
  8
0
 10
174.43493583798411
 20
75.896152015775456
 30
0.0
 11
174.41800066828719
 21
76.071893051266684
 31
0.0
  0
ARC
  5
5A13
  8
0
 10
175.11895695989449
 20
75.970042308632202
 30
0.0
 40
0.6880000000000615
 50
186.1653831908861
 51
228.40742703641979
  0
ARC
  5
5A14
  8
0
 10
175.30872959686349
 20
76.239277532305223
 30
0.0
 40
1.01600000000001
 50
230.4830639960413
 51
265.17166635063973
  0
ARC
  5
5A15
  8
0
 10
174.7941700876799
 20
70.009493968193127
 30
0.0
 40
5.2349999999998733
 50
75.421437025829007
 51
85.298966925590264
  0
ARC
  5
5A16
  8
0
 10
173.77827393485671
 20
66.336122018437081
 30
0.0
 40
9.0460000000003138
 50
62.205470476787127
 51
75.050441287285537
  0
ARC
  5
5A17
  8
0
 10
153.99999932944769
 20
73.925323039293303
 30
0.0
 40
24.000000000000039
 50
358.52101675218722
 51
0.9863030683453109
  0
ARC
  5
5A18
  8
0
 10
153.99999932944769
 20
73.925323039293303
 30
0.0
 40
24.000000000000021
 50
34.521016752187393
 51
36.98630306834562
  0
ARC
  5
5A19
  8
0
 10
175.1539142089874
 20
74.418415430010299
 30
0.0
 40
5.2349999999998129
 50
87.421437025833015
 51
97.298966925611509
  0
ARC
  5
5A1A
  8
0
 10
153.99999932944769
 20
73.925323039293303
 30
0.0
 40
24.0
 50
58.521016752187478
 51
60.986303068345421
  0
ARC
  5
5A1B
  8
0
 10
153.99999932944769
 20
73.925323039293303
 30
0.0
 40
23.999999999999989
 50
190.52101675218719
 51
192.9863030683467
  0
ARC
  5
5A1C
  8
0
 10
153.99999932944769
 20
73.925323039293303
 30
0.0
 40
24.000000000000021
 50
202.52101675218739
 51
204.98630306834721
  0
ARC
  5
5A1D
  8
0
 10
153.99999932944769
 20
73.925323039293303
 30
0.0
 40
24.0
 50
214.52101675218771
 51
216.9863030683459
  0
ARC
  5
5A1E
  8
0
 10
153.99999932944769
 20
73.925323039293303
 30
0.0
 40
23.999999999999989
 50
226.52101675218731
 51
228.9863030683463
  0
ARC
  5
5A1F
  8
0
 10
153.99999932944769
 20
73.925323039293303
 30
0.0
 40
24.0
 50
238.52101675218751
 51
240.98630306834539
  0
ARC
  5
5A20
  8
0
 10
153.99999932944769
 20
73.925323039293303
 30
0.0
 40
24.0
 50
250.52101675218819
 51
252.98630306834701
  0
ARC
  5
5A21
  8
0
 10
153.99999932944769
 20
73.925323039293303
 30
0.0
 40
24.000000000000021
 50
262.5210167521866
 51
264.98630306834679
  0
ARC
  5
5A22
  8
0
 10
153.99999932944769
 20
73.925323039293303
 30
0.0
 40
24.000000000000039
 50
274.52101675218682
 51
276.98630306834519
  0
ARC
  5
5A23
  8
0
 10
153.99999932944769
 20
73.925323039293303
 30
0.0
 40
24.000000000000028
 50
286.52101675218597
 51
288.98630306834451
  0
ARC
  5
5A24
  8
0
 10
153.99999932944769
 20
73.925323039293303
 30
0.0
 40
24.00000000000005
 50
298.52101675218842
 51
300.98630306834741
  0
ARC
  5
5A25
  8
0
 10
153.99999932944769
 20
73.925323039293303
 30
0.0
 40
24.0
 50
70.521016752184764
 51
72.986303068343602
  0
ARC
  5
5A26
  8
0
 10
153.99999932944769
 20
73.925323039293303
 30
0.0
 40
24.0
 50
82.521016752186554
 51
84.9863030683468
  0
ARC
  5
5A27
  8
0
 10
153.99999932944769
 20
73.925323039293303
 30
0.0
 40
24.000000000000028
 50
94.521016752186867
 51
96.986303068345165
  0
ARC
  5
5A28
  8
0
 10
153.99999932944769
 20
73.925323039293303
 30
0.0
 40
24.000000000000011
 50
106.521016752186
 51
108.9863030683445
  0
ARC
  5
5A29
  8
0
 10
153.99999932944769
 20
73.925323039293303
 30
0.0
 40
24.000000000000011
 50
10.521016752186229
 51
12.98630306834457
  0
ARC
  5
5A2A
  8
0
 10
153.99999932944769
 20
73.925323039293303
 30
0.0
 40
24.000000000000028
 50
22.52101675218675
 51
24.986303068344121
  0
ARC
  5
5A2B
  8
0
 10
153.99999932944769
 20
73.925323039293303
 30
0.0
 40
23.999999999999979
 50
142.521016752186
 51
144.98630306834519
  0
ARC
  5
5A2C
  8
0
 10
153.99999932944769
 20
73.925323039293303
 30
0.0
 40
24.0
 50
46.521016752187101
 51
48.986303068346047
  0
ARC
  5
5A2D
  8
0
 10
153.99999932944769
 20
73.925323039293303
 30
0.0
 40
23.999999999999972
 50
166.521016752186
 51
168.98630306834471
  0
ARC
  5
5A2E
  8
0
 10
153.99999932944769
 20
73.925323039293303
 30
0.0
 40
23.999999999999979
 50
178.5210167521864
 51
180.9863030683461
  0
ARC
  5
5A2F
  8
0
 10
153.99999932944769
 20
73.925323039293303
 30
0.0
 40
23.999999999999989
 50
130.5210167521852
 51
132.98630306834519
  0
ARC
  5
5A30
  8
0
 10
153.99999932944769
 20
73.925323039293303
 30
0.0
 40
24.000000000000021
 50
118.52101675218471
 51
120.9863030683438
  0
ARC
  5
5A31
  8
0
 10
153.99999932944769
 20
73.925323039293303
 30
0.0
 40
24.000000000000011
 50
154.521016752186
 51
156.98630306834499
  0
LINE
  5
5A37
  8
0
 10
67.000000923871994
 20
56.425322964787483
 30
0.0
 11
79.999999329447746
 21
56.425322964787483
 31
0.0
  0
LINE
  5
5A38
  8
0
 10
79.999999329447746
 20
91.425323113799095
 30
0.0
 11
67.000000923871994
 21
91.425323113799095
 31
0.0
  0
LINE
  5
5A39
  8
3
 10
50.0
 20
73.512201791163534
 30
0.0
 11
67.000000923871994
 21
73.512201791163534
 31
0.0
  0
LINE
  5
5A3B
  8
3
 10
67.000000923871994
 20
74.544769315980375
 30
0.0
 11
50.0
 21
74.544769315980375
 31
0.0
  0
LINE
  5
5A41
  8
3
 10
67.000000923871994
 20
69.543014466762543
 30
0.0
 11
50.0
 21
69.543014466762543
 31
0.0
  0
LINE
  5
5A44
  8
3
 10
50.0
 20
68.532088026404381
 30
0.0
 11
67.000000923871994
 21
68.532088026404381
 31
0.0
  0
LINE
  5
5A47
  8
3
 10
67.000000923871994
 20
79.519451316446066
 30
0.0
 11
50.0
 21
79.519451316446066
 31
0.0
  0
LINE
  5
5A48
  8
3
 10
50.0
 20
78.510370757430792
 30
0.0
 11
67.000000923871994
 21
78.510370757430792
 31
0.0
  0
LINE
  5
5A51
  8
3
 10
67.000000923871994
 20
64.732788316905484
 30
0.0
 11
50.0
 21
64.732788316905484
 31
0.0
  0
LINE
  5
5A52
  8
3
 10
50.0
 20
63.787684962153428
 30
0.0
 11
67.000000923871994
 21
63.787684962153428
 31
0.0
  0
LINE
  5
5A5B
  8
3
 10
67.000000923871994
 20
84.249642863869667
 30
0.0
 11
50.0
 21
84.249642863869667
 31
0.0
  0
LINE
  5
5A5C
  8
3
 10
50.0
 20
83.308151178061962
 30
0.0
 11
67.000000923871994
 21
83.308151178061962
 31
0.0
  0
LINE
  5
5A99
  8
3
 10
67.000000923871994
 20
60.324318893253803
 30
0.0
 11
50.0
 21
60.324318893253803
 31
0.0
  0
LINE
  5
5A9C
  8
3
 10
50.0
 20
59.486344642937183
 30
0.0
 11
67.000000923871994
 21
59.486344642937183
 31
0.0
  0
LINE
  5
5A9F
  8
3
 10
50.0
 20
87.695856764912605
 30
0.0
 11
67.000000923871994
 21
87.695856764912605
 31
0.0
  0
LINE
  5
5AA2
  8
3
 10
67.000000923871994
 20
88.52861188352108
 30
0.0
 11
50.0
 21
88.52861188352108
 31
0.0
  0
LINE
  5
5ABF
  8
0
 10
79.999999329447746
 20
56.425322964787483
 30
0.0
 11
79.999999329447746
 21
91.425323113799095
 31
0.0
  0
LINE
  5
5AC0
  8
3
 10
67.000000923871994
 20
56.510280072689049
 30
0.0
 11
50.0
 21
56.510280072689049
 31
0.0
  0
LINE
  5
5AC1
  8
3
 10
50.0
 20
55.816057324409478
 30
0.0
 11
67.000000923871994
 21
55.816057324409478
 31
0.0
  0
LINE
  5
5AC6
  8
3
 10
50.0
 20
91.481724008917794
 30
0.0
 11
67.000000923871994
 21
91.481724008917794
 31
0.0
  0
LINE
  5
5AC9
  8
3
 10
67.000000923871994
 20
92.169347405433655
 30
0.0
 11
50.0
 21
92.169347405433655
 31
0.0
  0
LINE
  5
5AD4
  8
3
 10
67.000000923871994
 20
53.457359969615929
 30
0.0
 11
50.0
 21
53.457359969615929
 31
0.0
  0
LINE
  5
5AD7
  8
3
 10
50.0
 20
52.937233075499528
 30
0.0
 11
67.000000923871994
 21
52.937233075499528
 31
0.0
  0
LINE
  5
5ADA
  8
3
 10
67.000000923871994
 20
95.012731105089173
 30
0.0
 11
50.0
 21
95.012731105089173
 31
0.0
  0
LINE
  5
5ADB
  8
3
 10
50.0
 20
94.500293210148811
 30
0.0
 11
67.000000923871994
 21
94.500293210148811
 31
0.0
  0
LINE
  5
5AE4
  8
3
 10
67.000000923871994
 20
51.29899010062217
 30
0.0
 11
50.0
 21
51.29899010062217
 31
0.0
  0
LINE
  5
5AE7
  8
3
 10
50.0
 20
50.975687056779861
 30
0.0
 11
67.000000923871994
 21
50.975687056779861
 31
0.0
  0
LINE
  5
5AEA
  8
3
 10
50.0
 20
96.619636937975883
 30
0.0
 11
67.000000923871994
 21
96.619636937975883
 31
0.0
  0
LINE
  5
5AED
  8
3
 10
67.000000923871994
 20
96.934494748711586
 30
0.0
 11
50.0
 21
96.934494748711586
 31
0.0
  0
LINE
  5
5AF0
  8
3
 10
67.000000923871994
 20
50.129498541355133
 30
0.0
 11
50.0
 21
50.129498541355133
 31
0.0
  0
LINE
  5
5AF3
  8
3
 10
50.0
 20
97.747129574418054
 30
0.0
 11
67.000000923871994
 21
97.747129574418054
 31
0.0
  0
LINE
  5
5AF6
  8
3
 10
50.0
 20
50.017151236534112
 30
0.0
 11
67.000000923871994
 21
50.017151236534112
 31
0.0
  0
LINE
  5
5AF9
  8
0
 10
67.000000923871994
 20
97.850646078586564
 30
0.0
 11
50.0
 21
97.850646078586564
 31
0.0
  0
LINE
  5
5AFA
  8
0
 10
67.000000923871994
 20
50.0
 30
0.0
 11
67.000000923871994
 21
97.850646078586564
 31
0.0
  0
LINE
  5
5AFB
  8
0
 10
50.0
 20
50.0
 30
0.0
 11
50.0
 21
97.850646078586564
 31
0.0
  0
LINE
  5
5AFC
  8
0
 10
67.000000923871994
 20
50.0
 30
0.0
 11
50.0
 21
50.0
 31
0.0
  0
LINE
  5
5B0B
  8
2
 10
79.999999329447746
 20
80.996390618383884
 30
0.0
 11
50.0
 21
80.996390618383884
 31
0.0
  0
LINE
  5
5B10
  8
2
 10
79.999999329447746
 20
83.725323155522346
 30
0.0
 11
50.0
 21
83.725323155522346
 31
0.0
  0
LINE
  5
5B5A
  8
2
 10
50.0
 20
66.425323206931353
 30
0.0
 11
79.999999329447746
 21
66.425323206931353
 31
0.0
  0
LINE
  5
5B6D
  8
1
 10
153.99999932944769
 20
101.9253230392933
 30
0.0
 11
153.99999932944769
 21
45.925323039293303
 31
0.0
  0
LINE
  5
5B6E
  8
1
 10
181.99999932944769
 20
73.925323039293303
 30
0.0
 11
125.9999993294477
 21
73.925323039293303
 31
0.0
  0
CIRCLE
  5
5B77
  8
5
 10
153.99999932944769
 20
73.925323039293303
 30
0.0
 40
22.5
  0
LINE
  5
5BB9
  8
1
 10
83.999999329447746
 20
73.925323039293275
 30
0.0
 11
46.0
 21
73.925323039293275
 31
0.0
  0
ENDSEC
  0
EOF
