  0
SECTION
  2
HEADER
  9
$ACADVER
  1
AC1009
  9
$INSBASE
 10
0.0
 20
0.0
 30
0.0
  9
$EXTMIN
 10
0.0
 20
-2.960436562073669
 30
0.0
  9
$EXTMAX
 10
141.00000037252909
 20
85.967890620231614
 30
0.0
  9
$LIMMIN
 10
0.0
 20
0.0
  9
$LIMMAX
 10
275.0
 20
175.0
  9
$ORTHOMODE
 70
     1
  9
$REGENMODE
 70
     1
  9
$FILLMODE
 70
     1
  9
$QTEXTMODE
 70
     0
  9
$MIRRTEXT
 70
     0
  9
$DRAGMODE
 70
     2
  9
$LTSCALE
 40
5.0
  9
$OSMODE
 70
    37
  9
$ATTMODE
 70
     1
  9
$TEXTSIZE
 40
0.2
  9
$TRACEWID
 40
0.05
  9
$TEXTSTYLE
  7
STANDARD
  9
$CLAYER
  8
0
  9
$CELTYPE
  6
BYLAYER
  9
$CECOLOR
 62
   256
  9
$DIMSCALE
 40
1.0
  9
$DIMASZ
 40
3.0
  9
$DIMEXO
 40
1.0
  9
$DIMDLI
 40
6.0
  9
$DIMRND
 40
0.0
  9
$DIMDLE
 40
0.0
  9
$DIMEXE
 40
1.0
  9
$DIMTP
 40
495.0
  9
$DIMTM
 40
0.0
  9
$DIMTXT
 40
3.0
  9
$DIMCEN
 40
0.0
  9
$DIMTSZ
 40
0.0
  9
$DIMTOL
 70
     0
  9
$DIMLIM
 70
     0
  9
$DIMTIH
 70
     0
  9
$DIMTOH
 70
     0
  9
$DIMSE1
 70
     0
  9
$DIMSE2
 70
     0
  9
$DIMTAD
 70
     1
  9
$DIMZIN
 70
     8
  9
$DIMBLK
  1

  9
$DIMASO
 70
     0
  9
$DIMSHO
 70
     0
  9
$DIMPOST
  1

  9
$DIMAPOST
  1

  9
$DIMALT
 70
     0
  9
$DIMALTD
 70
     2
  9
$DIMALTF
 40
25.399999999999999
  9
$DIMLFAC
 40
1.0
  9
$DIMTOFL
 70
     1
  9
$DIMTVP
 40
0.0
  9
$DIMTIX
 70
     1
  9
$DIMSOXD
 70
     0
  9
$DIMSAH
 70
     0
  9
$DIMBLK1
  1

  9
$DIMBLK2
  1

  9
$DIMSTYLE
  2
STANDARD
  9
$DIMCLRD
 70
     0
  9
$DIMCLRE
 70
     0
  9
$DIMCLRT
 70
     0
  9
$DIMTFAC
 40
1.0
  9
$DIMGAP
 40
1.0
  9
$LUNITS
 70
     2
  9
$LUPREC
 70
     1
  9
$SKETCHINC
 40
0.1
  9
$FILLETRAD
 40
0.0
  9
$AUNITS
 70
     0
  9
$AUPREC
 70
     0
  9
$MENU
  1
E:\r13\win\SUPPORT\ACAD
  9
$ELEVATION
 40
0.0
  9
$PELEVATION
 40
0.0
  9
$THICKNESS
 40
0.0
  9
$LIMCHECK
 70
     0
  9
$BLIPMODE
 70
     0
  9
$CHAMFERA
 40
0.0
  9
$CHAMFERB
 40
0.0
  9
$SKPOLY
 70
     0
  9
$TDCREATE
 40
2450653.5278402781
  9
$TDUPDATE
 40
2459439.61272529
  9
$TDINDWG
 40
0.5586503125
  9
$TDUSRTIMER
 40
0.5586503125
  9
$USRTIMER
 70
     1
  9
$ANGBASE
 50
0.0
  9
$ANGDIR
 70
     0
  9
$PDMODE
 70
     0
  9
$PDSIZE
 40
0.0
  9
$PLINEWID
 40
0.0
  9
$COORDS
 70
     1
  9
$SPLFRAME
 70
     0
  9
$SPLINETYPE
 70
     6
  9
$SPLINESEGS
 70
     8
  9
$ATTDIA
 70
     0
  9
$ATTREQ
 70
     1
  9
$HANDLING
 70
     1
  9
$HANDSEED
  5
5336
  9
$SURFTAB1
 70
     6
  9
$SURFTAB2
 70
     6
  9
$SURFTYPE
 70
     6
  9
$SURFU
 70
     6
  9
$SURFV
 70
     6
  9
$UCSNAME
  2

  9
$UCSORG
 10
0.0
 20
0.0
 30
0.0
  9
$UCSXDIR
 10
1.0
 20
0.0
 30
0.0
  9
$UCSYDIR
 10
0.0
 20
1.0
 30
0.0
  9
$PUCSNAME
  2

  9
$PUCSORG
 10
0.0
 20
0.0
 30
0.0
  9
$PUCSXDIR
 10
1.0
 20
0.0
 30
0.0
  9
$PUCSYDIR
 10
0.0
 20
1.0
 30
0.0
  9
$USERI1
 70
     4
  9
$USERI2
 70
     1
  9
$USERI3
 70
     1
  9
$USERI4
 70
     0
  9
$USERI5
 70
     0
  9
$USERR1
 40
1.0
  9
$USERR2
 40
3.0
  9
$USERR3
 40
3.0
  9
$USERR4
 40
3.0
  9
$USERR5
 40
10.0
  9
$WORLDVIEW
 70
     1
  9
$SHADEDGE
 70
     3
  9
$SHADEDIF
 70
    70
  9
$TILEMODE
 70
     1
  9
$MAXACTVP
 70
    16
  9
$PLIMCHECK
 70
     0
  9
$PEXTMIN
 10
1.0000000000000000E+020
 20
1.0000000000000000E+020
 30
1.0000000000000000E+020
  9
$PEXTMAX
 10
-1.0000000000000000E+020
 20
-1.0000000000000000E+020
 30
-1.0000000000000000E+020
  9
$PLIMMIN
 10
0.0
 20
0.0
  9
$PLIMMAX
 10
12.0
 20
9.0
  9
$UNITMODE
 70
     0
  9
$VISRETAIN
 70
     0
  9
$PLINEGEN
 70
     0
  9
$PSLTSCALE
 70
     0
  0
ENDSEC
  0
SECTION
  2
TABLES
  0
TABLE
  2
VPORT
 70
     1
  0
VPORT
  2
*ACTIVE
 70
     0
 10
0.0
 20
0.0
 11
1.0
 21
1.0
 12
260.1957585644372
 22
100.0
 13
0.0
 23
0.0
 14
5.0
 24
5.0
 15
10.0
 25
10.0
 16
0.0
 26
0.0
 36
1.0
 17
0.0
 27
0.0
 37
0.0
 40
200.0
 41
2.6019575856443722
 42
50.0
 43
0.0
 44
0.0
 50
0.0
 51
0.0
 71
     0
 72
   100
 73
     1
 74
     0
 75
     0
 76
     0
 77
     0
 78
     0
  0
ENDTAB
  0
TABLE
  2
LTYPE
 70
     5
  0
LTYPE
  2
CONTINUOUS
 70
     0
  3
Solid Line
 72
    65
 73
     0
 40
0.0
  0
LTYPE
  2
CENTER
 70
     0
  3
____ _ ____ _ ____ _ ____ _ ____ _ ____ _ ____ 
 72
    65
 73
     4
 40
2.0
 49
1.25
 49
-0.25
 49
0.25
 49
-0.25
  0
LTYPE
  2
HIDDEN
 70
     0
  3
__ __ __ __ __ __ __ __ __ __ __ __ __ __ __ __
 72
    65
 73
     2
 40
0.375
 49
0.25
 49
-0.125
  0
LTYPE
  2
PHANTOM
 70
     0
  3
_____ _ _ _____ _ _ _____ _ _ _____ _ _ ____
 72
    65
 73
     6
 40
2.5
 49
1.25
 49
-0.25
 49
0.25
 49
-0.25
 49
0.25
 49
-0.25
  0
LTYPE
  2
PHANTOM2
 70
     0
  3
___ _ _ ___ _ _ ___ _ _ ___ _ _
 72
    65
 73
     6
 40
1.25
 49
0.625
 49
-0.125
 49
0.125
 49
-0.125
 49
0.125
 49
-0.125
  0
ENDTAB
  0
TABLE
  2
LAYER
 70
     6
  0
LAYER
  2
0
 70
     0
 62
     7
  6
CONTINUOUS
  0
LAYER
  2
1
 70
     0
 62
     1
  6
CENTER
  0
LAYER
  2
2
 70
     0
 62
     2
  6
HIDDEN
  0
LAYER
  2
5
 70
     0
 62
     3
  6
PHANTOM
  0
LAYER
  2
DEFPOINTS
 70
     0
 62
     7
  6
CONTINUOUS
  0
LAYER
  2
3
 70
     0
 62
     3
  6
CONTINUOUS
  0
ENDTAB
  0
TABLE
  2
STYLE
 70
     2
  0
STYLE
  2
STANDARD
 70
     0
 40
0.0
 41
1.0
 50
0.0
 71
     0
 42
0.2
  3
simplex
  4
bigfont
  0
STYLE
  2
STANDARD1
 70
     0
 40
0.0
 41
1.0
 50
0.0
 71
     0
 42
3.0
  3
txt
  4

  0
ENDTAB
  0
TABLE
  2
VIEW
 70
     0
  0
ENDTAB
  0
TABLE
  2
UCS
 70
     0
  0
ENDTAB
  0
TABLE
  2
APPID
 70
    10
  0
APPID
  2
ACAD
 70
     0
  0
APPID
  2
_CALL_MAC$
 70
     0
  0
APPID
  2
ACAD_MLEADERVER
 70
     0
  0
APPID
  2
ACAD_EXEMPT_FROM_CAD_STANDARDS
 70
     0
  0
APPID
  2
ACAD_NAV_VCDISPLAY
 70
     0
  0
APPID
  2
ACAECLAYERSTANDARD
 70
     0
  0
APPID
  2
ACCMTRANSPARENCY
 70
     0
  0
APPID
  2
ACAD_DSTYLE_DIMJAG
 70
     0
  0
APPID
  2
ACAD_DSTYLE_DIMTALN
 70
     0
  0
APPID
  2
ACAD_DSTYLE_DIMRADIAL_EXTENSION
 70
     0
  0
ENDTAB
  0
TABLE
  2
DIMSTYLE
 70
     1
  0
DIMSTYLE
  2
STANDARD
 70
     0
  3

  4

  5

  6

  7

 40
1.0
 41
0.18
 42
0.0625
 43
0.38
 44
0.18
 45
0.0
 46
0.0
 47
0.0
 48
0.0
140
0.18
141
0.09
142
0.0
143
25.399999999999999
144
1.0
145
0.0
146
1.0
147
0.09
 71
     0
 72
     0
 73
     1
 74
     1
 75
     0
 76
     0
 77
     0
 78
     0
170
     0
171
     2
172
     0
173
     0
174
     0
175
     0
176
     0
177
     0
178
     0
  0
ENDTAB
  0
ENDSEC
  0
SECTION
  2
BLOCKS
  0
BLOCK
  8
0
  2
$MODEL_SPACE
 70
     2
 10
0.0
 20
0.0
 30
0.0
  3
$MODEL_SPACE
  1

  0
ENDBLK
  5
7
  8
0
  0
BLOCK
 67
     1
  8
0
  2
$PAPER_SPACE
 70
     0
 10
0.0
 20
0.0
 30
0.0
  3
$PAPER_SPACE
  1

  0
ENDBLK
  5
A
 67
     1
  8
0
  0
ENDSEC
  0
SECTION
  2
ENTITIES
  0
TEXT
  5
2BF
  8
0
 62
     3
 10
0.0
 20
0.0
 30
0.0
 40
10.0
  1
ZCL-1.0-30-A12-K
  7
STANDARD1
  0
ARC
  5
4F4F
  8
0
 10
121.0000003725291
 20
65.967890620231614
 30
0.0
 40
6.0000000000000018
 50
109.4712206344895
 51
70.528779365510459
  0
LINE
  5
4F50
  8
0
 10
123.000000467524
 20
71.624744869768605
 30
0.0
 11
123.000000467524
 21
73.767890408635154
 31
0.0
  0
LINE
  5
4F51
  8
0
 10
119.0000002775342
 20
73.767890408635154
 30
0.0
 11
119.0000002775342
 21
71.624744869768605
 31
0.0
  0
CIRCLE
  5
4F52
  8
0
 10
121.0000003725291
 20
65.967890620231614
 30
0.0
 40
12.5
  0
LINE
  5
4F53
  8
0
 10
123.000000467524
 20
73.767890408635154
 30
0.0
 11
119.0000002775342
 21
73.767890408635154
 31
0.0
  0
ARC
  5
4F54
  8
0
 10
134.57324718951901
 20
70.004954501896506
 30
0.0
 40
5.282000000000024
 50
277.5442515836163
 51
297.18391683597599
  0
ARC
  5
4F55
  8
0
 10
135.4042680583546
 20
60.96916529865603
 30
0.0
 40
3.802000000000187
 50
92.073124138093505
 51
96.717198070204972
  0
ARC
  5
4F56
  8
0
 10
135.03430986505549
 20
64.157805913974073
 30
0.0
 40
0.5920000000000085
 50
97.254640645534877
 51
124.1226183753561
  0
ARC
  5
4F57
  8
0
 10
134.87982544906041
 20
64.388943286378748
 30
0.0
 40
0.3140000000000257
 50
124.44594960548891
 51
170.718063264253
  0
LINE
  5
4F58
  8
0
 10
134.52496761828661
 20
64.080062042921782
 30
0.0
 11
134.569936528802
 21
64.439589227549732
 31
0.0
  0
ARC
  5
4F59
  8
0
 10
134.8376056392454
 20
64.050846186652052
 30
0.0
 40
0.314000000000029
 50
174.66124302713891
 51
221.01526757574891
  0
ARC
  5
4F5A
  8
0
 10
135.04318455286659
 20
64.238042833724933
 30
0.0
 40
0.592000000000022
 50
221.6282213117112
 51
248.5330735731383
  0
ARC
  5
4F5B
  8
0
 10
136.19691854513479
 20
67.233552315897029
 30
0.0
 40
3.8019999999996639
 50
248.87291123999631
 51
253.5181599452076
  0
ARC
  5
4F5C
  8
0
 10
133.14892909580479
 20
58.686623842116141
 30
0.0
 40
5.2819999999999458
 50
48.478651055149591
 51
68.109386207210093
  0
ARC
  5
4F5D
  8
0
 10
121.0000003725291
 20
65.967890620231614
 30
0.0
 40
16.000000000000011
 50
345.63046302254992
 51
348.00000000000068
  0
ARC
  5
4F5E
  8
0
 10
135.11599195831181
 20
67.094698274483932
 30
0.0
 40
5.2819999999998766
 50
265.54425158361721
 51
285.1839168359773
  0
ARC
  5
4F5F
  8
0
 10
134.05020681620439
 20
58.083583790653151
 30
0.0
 40
3.8020000000005711
 50
80.073124138091742
 51
84.717198070203168
  0
ARC
  5
4F60
  8
0
 10
134.35128875879801
 20
61.279463591629941
 30
0.0
 40
0.5920000000000245
 50
85.254640645525313
 51
112.1226183753549
  0
ARC
  5
4F61
  8
0
 10
134.2482363598495
 20
61.537669174022042
 30
0.0
 40
0.3139999999999917
 50
112.445949605487
 51
158.71806326425221
  0
LINE
  5
4F62
  8
0
 10
133.8369130194188
 20
61.309316847473383
 30
0.0
 11
133.95564919710159
 21
61.651637963950627
 31
0.0
  0
ARC
  5
4F63
  8
0
 10
134.13664481451079
 20
61.215738299153919
 30
0.0
 40
0.3139999999999675
 50
162.66124302713069
 51
209.01526757574641
  0
ARC
  5
4F64
  8
0
 10
134.3766517070392
 20
61.35610199082619
 30
0.0
 40
0.5919999999999548
 50
209.62822131170469
 51
236.53307357314389
  0
ARC
  5
4F65
  8
0
 10
136.12797528476071
 20
64.046277618702334
 30
0.0
 40
3.8020000000002141
 50
236.8729112399968
 51
241.51815994520871
  0
ARC
  5
4F66
  8
0
 10
131.36958536755401
 20
56.319832678434459
 30
0.0
 40
5.2819999999999734
 50
36.478651055152199
 51
56.109386207209752
  0
ARC
  5
4F67
  8
0
 10
121.0000003725291
 20
65.967890620231614
 30
0.0
 40
16.0
 50
333.63046302255037
 51
336.00000000000108
  0
ARC
  5
4F68
  8
0
 10
135.04180015876301
 20
64.135195145557717
 30
0.0
 40
5.2819999999999361
 50
253.5442515836173
 51
273.1839168359765
  0
ARC
  5
4F69
  8
0
 10
132.12578893062769
 20
55.542584324206167
 30
0.0
 40
3.8019999999992411
 50
68.073124138090492
 51
72.71719807020466
  0
ARC
  5
4F6A
  8
0
 10
133.08475228347089
 20
58.606028028004687
 30
0.0
 40
0.5919999999999948
 50
73.254640645539851
 51
100.12261837537849
  0
ARC
  5
4F6B
  8
0
 10
133.03763578590329
 20
58.880016997425791
 30
0.0
 40
0.3139999999999945
 50
100.4459496055274
 51
146.71806326425411
  0
LINE
  5
4F6C
  8
0
 10
132.58782411366701
 20
58.742173667997122
 30
0.0
 11
132.7751382291317
 21
59.052327368408442
 31
0.0
  0
ARC
  5
4F6D
  8
0
 10
132.86154959104789
 20
58.588322271443722
 30
0.0
 40
0.3140000000000342
 50
150.6612430271249
 51
197.01526757577639
  0
ARC
  5
4F6E
  8
0
 10
133.12549500959901
 20
58.675718440849622
 30
0.0
 40
0.5919999999999829
 50
197.6282213117226
 51
224.53307357309961
  0
ARC
  5
4F6F
  8
0
 10
135.39786692864391
 20
60.942986630595747
 30
0.0
 40
3.8019999999997109
 50
224.87291123998941
 51
229.51815994520661
  0
ARC
  5
4F70
  8
0
 10
129.13704101623119
 20
54.374707943327827
 30
0.0
 40
5.2820000000000951
 50
24.478651055151239
 51
44.109386207208182
  0
ARC
  5
4F71
  8
0
 10
121.0000003725291
 20
65.967890620231614
 30
0.0
 40
16.000000000000011
 50
321.63046302254912
 51
324.00000000000051
  0
ARC
  5
4F72
  8
0
 10
134.35391432852481
 20
61.255789603123361
 30
0.0
 40
5.2820000000000151
 50
241.5442515836188
 51
261.18391683597622
  0
ARC
  5
4F73
  8
0
 10
129.71512069760541
 20
53.457220769064371
 30
0.0
 40
3.80199999999894
 50
56.073124138092403
 51
60.717198070200077
  0
ARC
  5
4F74
  8
0
 10
131.29005416056219
 20
56.254341185795823
 30
0.0
 40
0.5919999999999908
 50
61.25464064549795
 51
88.122618375401586
  0
ARC
  5
4F75
  8
0
 10
131.30093278140919
 20
56.532138909537302
 30
0.0
 40
0.3139999999999814
 50
88.445949605575066
 51
134.7180632642534
  0
LINE
  5
4F76
  8
0
 10
130.83229130506521
 20
56.49082846939563
 30
0.0
 11
131.07999610155821
 21
56.755260750651352
 31
0.0
  0
ARC
  5
4F77
  8
0
 10
131.06804774870739
 20
56.283428791673281
 30
0.0
 40
0.3140000000000362
 50
138.66124302712171
 51
185.01526757579089
  0
ARC
  5
4F78
  8
0
 10
131.34439601194009
 20
56.314037806836438
 30
0.0
 40
0.5920000000000193
 50
185.62822131173249
 51
212.53307357313949
  0
ARC
  5
4F79
  8
0
 10
134.03850271539619
 20
58.059308059001353
 30
0.0
 40
3.8019999999998029
 50
212.87291123999941
 51
217.51815994520689
  0
ARC
  5
4F7A
  8
0
 10
126.54886894292559
 20
52.93626092146453
 30
0.0
 40
5.2820000000000027
 50
12.47865105515165
 51
32.109386207209461
  0
ARC
  5
4F7B
  8
0
 10
121.0000003725291
 20
65.967890620231614
 30
0.0
 40
16.000000000000011
 50
309.63046302255151
 51
312.0000000000004
  0
ARC
  5
4F7C
  8
0
 10
133.0823983792209
 20
58.582325486305869
 30
0.0
 40
5.2819999999999796
 50
229.54425158361661
 51
249.1839168359773
  0
ARC
  5
4F7D
  8
0
 10
126.92355988658881
 20
51.918633519271673
 30
0.0
 40
3.8020000000004659
 50
44.073124138093391
 51
48.717198070200553
  0
ARC
  5
4F7E
  8
0
 10
129.04563130995999
 20
54.327183064653369
 30
0.0
 40
0.5919999999999926
 50
49.254640645506413
 51
76.122618375388043
  0
ARC
  5
4F7F
  8
0
 10
129.11402960128919
 20
54.596648449166331
 30
0.0
 40
0.314000000000016
 50
76.44594960554933
 51
122.7180632642516
  0
LINE
  5
4F80
  8
0
 10
128.64703974127769
 20
54.653677344322197
 30
0.0
 11
128.94431045651439
 21
54.860829561948769
 31
0.0
  0
ARC
  5
4F81
  8
0
 10
128.83452392417661
 20
54.40179276501464
 30
0.0
 40
0.3139999999999856
 50
126.661243027127
 51
173.01526757578611
  0
ARC
  5
4F82
  8
0
 10
129.11119728692151
 20
54.374276865094011
 30
0.0
 40
0.5920000000000503
 50
173.62822131172689
 51
200.53307357317951
  0
ARC
  5
4F83
  8
0
 10
132.1092933840884
 20
55.521272494921732
 30
0.0
 40
3.8019999999986802
 50
200.8729112400035
 51
205.51815994520999
  0
ARC
  5
4F84
  8
0
 10
123.718184686668
 20
52.067358650134523
 30
0.0
 40
5.2820000000000062
 50
0.4786510551511291
 51
20.109386207208509
  0
ARC
  5
4F85
  8
0
 10
121.0000003725291
 20
65.967890620231614
 30
0.0
 40
16.000000000000011
 50
297.63046302255111
 51
300.0
  0
ARC
  5
4F86
  8
0
 10
131.28282365924639
 20
56.231646005714531
 30
0.0
 40
5.2820000000000293
 50
217.54425158361769
 51
237.18391683597531
  0
ARC
  5
4F87
  8
0
 10
123.87311110041919
 20
50.99406622060922
 30
0.0
 40
3.8019999999973222
 50
32.073124138091359
 51
36.717198070198783
  0
ARC
  5
4F88
  8
0
 10
126.4495757801715
 20
52.908779722001931
 30
0.0
 40
0.5919999999999709
 50
37.254640645482631
 51
64.122618375419819
  0
ARC
  5
4F89
  8
0
 10
126.57250440844039
 20
53.158135836944773
 30
0.0
 40
0.3140000000000157
 50
64.445949605607467
 51
110.7180632642481
  0
LINE
  5
4F8A
  8
0
 10
126.1275765523315
 20
53.311011008918278
 30
0.0
 11
126.46142077073461
 21
53.451830707490437
 31
0.0
  0
ARC
  5
4F8B
  8
0
 10
126.2585938262237
 20
53.025650714924112
 30
0.0
 40
0.3139999999999862
 50
114.6612430271268
 51
161.01526757581411
  0
ARC
  5
4F8C
  8
0
 10
126.52350033490271
 20
52.941212476782191
 30
0.0
 40
0.5919999999999678
 50
161.62822131173971
 51
188.5330735730966
  0
ARC
  5
4F8D
  8
0
 10
129.69455463987501
 20
53.439804271354411
 30
0.0
 40
3.8019999999996501
 50
188.87291123999111
 51
193.5181599452084
  0
ARC
  5
4F8E
  8
0
 10
120.7687027325871
 20
51.805976328050647
 30
0.0
 40
5.2820000000000302
 50
348.47865105515211
 51
8.1093862072084821
  0
ARC
  5
4F8F
  8
0
 10
121.0000003725291
 20
65.967890620231614
 30
0.0
 40
16.0
 50
285.6304630225506
 51
288.00000000000227
  0
ARC
  5
4F90
  8
0
 10
129.03384021918171
 20
54.3064871344626
 30
0.0
 40
5.2819999999999663
 50
205.5442515836167
 51
225.18391683597619
  0
ARC
  5
4F91
  8
0
 10
120.6970935887225
 20
50.723926900588943
 30
0.0
 40
3.8019999999984981
 50
20.0731241380917
 51
24.71719807019706
  0
ARC
  5
4F92
  8
0
 10
123.6153476551049
 20
52.061122190169719
 30
0.0
 40
0.5919999999999601
 50
25.254640645483288
 51
52.122618375449314
  0
ARC
  5
4F93
  8
0
 10
123.7874340493811
 20
52.279470976776089
 30
0.0
 40
0.3140000000000043
 50
52.445949605668503
 51
98.718063264256244
  0
LINE
  5
4F94
  8
0
 10
123.38401340320711
 20
52.521511167287819
 30
0.0
 11
123.7398403268308
 21
52.589843235909932
 31
0.0
  0
ARC
  5
4F95
  8
0
 10
123.4528379608135
 20
52.215146652452873
 30
0.0
 40
0.3140000000000187
 50
102.6612430271302
 51
149.0152675758153
  0
ARC
  5
4F96
  8
0
 10
123.6943999298348
 20
52.077476432276121
 30
0.0
 40
0.5919999999999868
 50
149.62822131174241
 51
176.53307357313921
  0
ARC
  5
4F97
  8
0
 10
126.8998221530782
 20
51.905873537660788
 30
0.0
 40
3.8020000000004539
 50
176.87291123999771
 51
181.51815994520871
  0
ARC
  5
4F98
  8
0
 10
117.8293295952609
 20
52.163537616939479
 30
0.0
 40
5.2819999999999991
 50
336.47865105515137
 51
356.10938620720918
  0
ARC
  5
4F99
  8
0
 10
121.0000003725291
 20
65.967890620231614
 30
0.0
 40
16.000000000000021
 50
273.63046302255049
 51
276.00000000000171
  0
ARC
  5
4F9A
  8
0
 10
126.4337394271777
 20
52.89098755316121
 30
0.0
 40
5.2820000000000542
 50
193.5442515836171
 51
213.18391683597491
  0
ARC
  5
4F9B
  8
0
 10
117.53431455698529
 20
51.120021943770972
 30
0.0
 40
3.8020000000004521
 50
8.0731241380929735
 51
12.71719807019609
  0
ARC
  5
4F9C
  8
0
 10
120.666816303961
 20
51.821257170809922
 30
0.0
 40
0.5920000000000528
 50
13.254640645485241
 51
40.122618375430939
  0
ARC
  5
4F9D
  8
0
 10
120.8805394630527
 20
51.999055739351398
 30
0.0
 40
0.3140000000000319
 50
40.445949605633949
 51
86.718063264250858
  0
LINE
  5
4F9E
  8
0
 10
120.5362575806212
 20
52.31968238949775
 30
0.0
 11
120.898515737732
 21
52.312541007995598
 31
0.0
  0
ARC
  5
4F9F
  8
0
 10
120.53988132277451
 20
52.005703494360972
 30
0.0
 40
0.3139999999999998
 50
90.661243027121586
 51
137.01526757581851
  0
ARC
  5
4FA0
  8
0
 10
120.7475413349491
 20
51.82081814138607
 30
0.0
 40
0.592000000000005
 50
137.62822131174249
 51
164.5330735730964
  0
ARC
  5
4FA1
  8
0
 10
123.8472391439841
 20
50.986520427519871
 30
0.0
 40
3.801999999999778
 50
164.8729112399908
 51
169.51815994520791
  0
ARC
  5
4FA2
  8
0
 10
115.0285299854678
 20
53.12441537270719
 30
0.0
 40
5.2820000000000062
 50
324.47865105515189
 51
344.10938620720952
  0
ARC
  5
4FA3
  8
0
 10
121.0000003725291
 20
65.967890620231614
 30
0.0
 40
16.000000000000021
 50
261.63046302254958
 51
264.00000000000148
  0
ARC
  5
4FA4
  8
0
 10
123.5961581645126
 20
52.047011385833628
 30
0.0
 40
5.2819999999999618
 50
181.54425158361721
 51
201.18391683597631
  0
ARC
  5
4FA5
  8
0
 10
114.5230026255942
 20
52.165040096093868
 30
0.0
 40
3.8020000000010259
 50
356.0731241380937
 51
0.7171980701959644
  0
ARC
  5
4FA6
  8
0
 10
117.7328466954083
 20
52.19966791626873
 30
0.0
 40
0.5919999999999756
 50
1.2546406454878569
 51
28.12261837542346
  0
ARC
  5
4FA7
  8
0
 10
117.9788658917053
 20
52.329145616127811
 30
0.0
 40
0.3140000000000087
 50
28.44594960561956
 51
74.718063264251938
  0
LINE
  5
4FA8
  8
0
 10
117.7087694909424
 20
52.714346162974827
 30
0.0
 11
118.06162642687561
 21
52.632042393088341
 31
0.0
  0
ARC
  5
4FA9
  8
0
 10
117.64703409510599
 20
52.406474911676739
 30
0.0
 40
0.3139999999999965
 50
78.661243027135157
 51
125.01526757582749
  0
ARC
  5
4FAA
  8
0
 10
117.8117164114385
 20
52.182454803007047
 30
0.0
 40
0.592000000000009
 50
125.6282213117487
 51
152.53307357309831
  0
ARC
  5
4FAB
  8
0
 10
120.6702181380096
 20
50.721925083391028
 30
0.0
 40
3.80199999999867
 50
152.8729112399902
 51
157.51815994520899
  0
ARC
  5
4FAC
  8
0
 10
112.4887122858832
 20
54.646614626623688
 30
0.0
 40
5.2820000000000462
 50
312.47865105515177
 51
332.10938620720862
  0
ARC
  5
4FAD
  8
0
 10
121.0000003725291
 20
65.967890620231614
 30
0.0
 40
15.999999999999989
 50
249.6304630225516
 51
252.00000000000111
  0
ARC
  5
4FAE
  8
0
 10
120.6451123485906
 20
51.811444440839189
 30
0.0
 40
5.2819999999999379
 50
169.54425158361661
 51
189.18391683597579
  0
ARC
  5
4FAF
  8
0
 10
111.7947665758272
 20
53.81330904974719
 30
0.0
 40
3.8020000000020122
 50
344.07312413809422
 51
348.71719807019559
  0
ARC
  5
4FB0
  8
0
 10
114.9416673800883
 20
53.179816061153232
 30
0.0
 40
0.5919999999999845
 50
349.25464064548578
 51
16.1226183754091
  0
ARC
  5
4FB1
  8
0
 10
115.2092303941817
 20
53.255314095543191
 30
0.0
 40
0.3140000000000075
 50
16.445949605587298
 51
62.718063264253502
  0
LINE
  5
4FB2
  8
0
 10
115.02512414380909
 20
53.688253462314599
 30
0.0
 11
115.3531583063305
 21
53.534385003149502
 31
0.0
  0
ARC
  5
4FB3
  8
0
 10
114.90072758307819
 20
53.399945270348873
 30
0.0
 40
0.3139999999999918
 50
66.661243027121543
 51
113.0152675758651
  0
ARC
  5
4FB4
  8
0
 10
115.0152347961113
 20
53.146581159701093
 30
0.0
 40
0.5919999999999465
 50
113.628221311765
 51
140.53307357310101
  0
ARC
  5
4FB5
  8
0
 10
117.5076101981557
 20
51.123651591481071
 30
0.0
 40
3.8019999999990688
 50
140.87291123999009
 51
145.518159945208
  0
ARC
  5
4FB6
  8
0
 10
110.3208787173768
 20
56.663607966970211
 30
0.0
 40
5.2819999999998428
 50
300.4786510551528
 51
320.10938620720742
  0
ARC
  5
4FB7
  8
0
 10
121.0000003725291
 20
65.967890620231614
 30
0.0
 40
16.0
 50
237.63046302254901
 51
240.0
  0
ARC
  5
4FB8
  8
0
 10
117.7095768422564
 20
52.19458212404966
 30
0.0
 40
5.281999999999984
 50
157.54425158361701
 51
177.18391683597511
  0
ARC
  5
4FB9
  8
0
 10
109.46884341459059
 20
55.992791542183546
 30
0.0
 40
3.8020000000009828
 50
332.07312413809461
 51
336.71719807019741
  0
ARC
  5
4FBA
  8
0
 10
112.4152662876451
 20
54.718864428259451
 30
0.0
 40
0.5919999999999805
 50
337.25464064549232
 51
4.122618375379405
  0
ARC
  5
4FBB
  8
0
 10
112.6926793319091
 20
54.737083170797668
 30
0.0
 40
0.3139999999999918
 50
4.4459496055309078
 51
50.718063264251292
  0
LINE
  5
4FBC
  8
0
 10
112.6026093065739
 20
55.198839120566838
 30
0.0
 11
112.8914841488004
 21
54.980131983757012
 31
0.0
  0
ARC
  5
4FBD
  8
0
 10
112.42098855950741
 20
54.942695148503688
 30
0.0
 40
0.3140000000000089
 50
54.661243027131931
 51
101.0152675758718
  0
ARC
  5
4FBE
  8
0
 10
112.4803161545651
 20
54.671060263288922
 30
0.0
 40
0.5920000000000064
 50
101.6282213117742
 51
128.53307357317891
  0
ARC
  5
4FBF
  8
0
 10
114.4976364672671
 20
52.174142575691498
 30
0.0
 40
3.8019999999963061
 50
128.87291123999989
 51
133.51815994521201
  0
ARC
  5
4FC0
  8
0
 10
108.6197740093114
 20
59.087243106166177
 30
0.0
 40
5.2819999999999778
 50
288.47865105515149
 51
308.1093862072089
  0
ARC
  5
4FC1
  8
0
 10
121.0000003725291
 20
65.967890620231614
 30
0.0
 40
15.99999999999998
 50
225.63046302255131
 51
227.99999999999969
  0
ARC
  5
4FC2
  8
0
 10
114.9178486333989
 20
53.179679480210282
 30
0.0
 40
5.281999999999873
 50
145.54425158361749
 51
165.18391683597531
  0
ARC
  5
4FC3
  8
0
 10
107.6468871450455
 20
58.608233730166361
 30
0.0
 40
3.802000000000151
 50
320.0731241380916
 51
324.71719807019662
  0
ARC
  5
4FC4
  8
0
 10
110.26405926883589
 20
56.749549218771392
 30
0.0
 40
0.5920000000000256
 50
325.25464064548868
 51
352.12261837539648
  0
ARC
  5
4FC5
  8
0
 10
110.53919806206061
 20
56.709692422985682
 30
0.0
 40
0.3140000000000069
 50
352.44594960556771
 51
38.718063264251697
  0
LINE
  5
4FC6
  8
0
 10
110.5471002906561
 20
57.180085405707352
 30
0.0
 11
110.7841917350889
 21
56.906095892190933
 31
0.0
  0
ARC
  5
4FC7
  8
0
 10
110.3161935188317
 20
56.967298973530603
 30
0.0
 40
0.3139999999999837
 50
42.661243027096312
 51
89.015267575869345
  0
ARC
  5
4FC8
  8
0
 10
110.3177485953247
 20
56.689265061681503
 30
0.0
 40
0.5920000000000302
 50
89.628221311771028
 51
116.53307357317991
  0
ARC
  5
4FC9
  8
0
 10
111.77184724084719
 20
53.827486539188612
 30
0.0
 40
3.802000000001855
 50
116.8729112400041
 51
121.51815994520661
  0
ARC
  5
4FCA
  8
0
 10
107.45974460023599
 20
61.811595558736663
 30
0.0
 40
5.2820000000000018
 50
276.47865105515319
 51
296.10938620720918
  0
ARC
  5
4FCB
  8
0
 10
121.0000003725291
 20
65.967890620231614
 30
0.0
 40
16.0
 50
213.63046302255049
 51
216.00000000000151
  0
ARC
  5
4FCC
  8
0
 10
112.3919396409438
 20
54.723683027835008
 30
0.0
 40
5.2820000000000471
 50
133.54425158361499
 51
153.1839168359746
  0
ARC
  5
4FCD
  8
0
 10
106.4085259988865
 20
61.54532823979806
 30
0.0
 40
3.802000000001128
 50
308.07312413809331
 51
312.71719807019639
  0
ARC
  5
4FCE
  8
0
 10
108.58206439301919
 20
59.183119763036892
 30
0.0
 40
0.5919999999999991
 50
313.25464064548828
 51
340.12261837540052
  0
ARC
  5
4FCF
  8
0
 10
108.8429040496784
 20
59.08692936215725
 30
0.0
 40
0.3139999999999961
 50
340.44594960557379
 51
26.718063264253821
  0
LINE
  5
4FD0
  8
0
 10
108.9484338685871
 20
59.545399807393551
 30
0.0
 11
109.1233781576157
 21
59.228103794157498
 31
0.0
  0
ARC
  5
4FD1
  8
0
 10
108.6783321042557
 20
59.385271843148871
 30
0.0
 40
0.3140000000000075
 50
30.661243027112349
 51
77.015267575856086
  0
ARC
  5
4FD2
  8
0
 10
108.6220466978792
 20
59.112990320768077
 30
0.0
 40
0.5919999999999829
 50
77.628221311765273
 51
104.5330735731383
  0
ARC
  5
4FD3
  8
0
 10
109.4493725878697
 20
56.011424417154238
 30
0.0
 40
3.8020000000012688
 50
104.8729112399968
 51
109.5181599452068
  0
ARC
  5
4FD4
  8
0
 10
106.89148934176561
 20
64.717598049610885
 30
0.0
 40
5.2819999999999503
 50
264.47865105515177
 51
284.10938620720867
  0
ARC
  5
4FD5
  8
0
 10
121.0000003725291
 20
65.967890620231614
 30
0.0
 40
15.99999999999998
 50
201.63046302255071
 51
204.00000000000091
  0
ARC
  5
4FD6
  8
0
 10
110.24224420851689
 20
56.759112402941938
 30
0.0
 40
5.281999999999992
 50
121.5442515836163
 51
141.1839168359754
  0
ARC
  5
4FD7
  8
0
 10
105.80788230052001
 20
64.675709947260813
 30
0.0
 40
3.8019999999986811
 50
296.07312413809308
 51
300.71719807020258
  0
ARC
  5
4FD8
  8
0
 10
107.44279290737509
 20
61.913217350704507
 30
0.0
 40
0.5919999999999828
 50
301.25464064550971
 51
328.12261837536818
  0
ARC
  5
4FD9
  8
0
 10
107.6779334828252
 20
61.764897326822158
 30
0.0
 40
0.3139999999999905
 50
328.44594960551001
 51
14.718063264252841
  0
LINE
  5
4FDA
  8
0
 10
107.87647879123691
 20
62.191408080980182
 30
0.0
 11
107.9816306978464
 21
61.844673193991177
 31
0.0
  0
ARC
  5
4FDB
  8
0
 10
107.5789867189276
 20
62.090936740235058
 30
0.0
 40
0.3140000000000222
 50
18.661243027115511
 51
65.015267575878667
  0
ARC
  5
4FDC
  8
0
 10
107.46732077202741
 20
61.836307616402273
 30
0.0
 40
0.5919999999999966
 50
65.628221311777622
 51
92.533073573181113
  0
ARC
  5
4FDD
  8
0
 10
107.63171579514329
 20
58.630507644621488
 30
0.0
 40
3.8019999999991532
 50
92.872911240003361
 51
97.518159945208836
  0
ARC
  5
4FDE
  8
0
 10
106.9398437154867
 20
67.678244325390679
 30
0.0
 40
5.2819999999999441
 50
252.47865105515339
 51
272.10938620720913
  0
ARC
  5
4FDF
  8
0
 10
121.0000003725291
 20
65.967890620231614
 30
0.0
 40
16.0
 50
189.63046302255049
 51
192.00000000000119
  0
ARC
  5
4FE0
  8
0
 10
108.5627143418989
 20
59.197009574764898
 30
0.0
 40
5.282000000000016
 50
109.54425158361779
 51
129.1839168359752
  0
ARC
  5
4FE1
  8
0
 10
105.8712070617694
 20
67.862566150704765
 30
0.0
 40
3.8019999999983831
 50
284.07312413809268
 51
288.7171980702006
  0
ARC
  5
4FE2
  8
0
 10
106.89603644265731
 20
64.820523616731464
 30
0.0
 40
0.5919999999999756
 50
289.2546406455067
 51
316.12261837538841
  0
ARC
  5
4FE3
  8
0
 10
107.0952011654215
 20
64.626556266608503
 30
0.0
 40
0.3140000000000005
 50
316.44594960554349
 51
2.7180632642524509
  0
LINE
  5
4FE4
  8
0
 10
107.3780843093992
 20
65.00246679643169
 30
0.0
 11
107.4088477566839
 21
64.641446527093635
 31
0.0
  0
ARC
  5
4FE5
  8
0
 10
107.0662040314307
 20
64.966043125565861
 30
0.0
 40
0.314000000000004
 50
6.6612430271395517
 51
53.015267575854132
  0
ARC
  5
4FE6
  8
0
 10
106.90403788171901
 20
64.740194914838696
 30
0.0
 40
0.5919999999999767
 50
53.628221311762431
 51
80.533073573140157
  0
ARC
  5
4FE7
  8
0
 10
106.3983171865957
 20
61.570269716788601
 30
0.0
 40
3.8020000000013021
 50
80.872911239999411
 51
85.518159945207415
  0
ARC
  5
4FE8
  8
0
 10
107.60269440323771
 20
70.56413993706748
 30
0.0
 40
5.282000000000064
 50
240.478651055151
 51
260.10938620720799
  0
ARC
  5
4FE9
  8
0
 10
121.0000003725291
 20
65.967890620231614
 30
0.0
 40
16.0
 50
177.63046302254961
 51
180.0
  0
ARC
  5
4FEA
  8
0
 10
107.42675355553909
 20
61.930826738566793
 30
0.0
 40
5.2819999999999876
 50
97.544251583616301
 51
117.18391683597589
  0
ARC
  5
4FEB
  8
0
 10
106.5957326867035
 20
70.966615941807063
 30
0.0
 40
3.8020000000000151
 50
272.07312413809348
 51
276.71719807019838
  0
ARC
  5
4FEC
  8
0
 10
106.9656908800027
 20
67.77797532648917
 30
0.0
 40
0.5920000000000109
 50
277.25464064550528
 51
304.12261837538762
  0
ARC
  5
4FED
  8
0
 10
107.1201752959977
 20
67.546837954084481
 30
0.0
 40
0.3139999999999814
 50
304.44594960554809
 51
350.71806326425502
  0
LINE
  5
4FEE
  8
0
 10
107.47503312677151
 20
67.855719197541475
 30
0.0
 11
107.4300642162562
 21
67.496192012913525
 31
0.0
  0
ARC
  5
4FEF
  8
0
 10
107.16239510581261
 20
67.884935053811219
 30
0.0
 40
0.3139999999999967
 50
354.66124302714269
 51
41.015267575859859
  0
ARC
  5
4FF0
  8
0
 10
106.9568161921915
 20
67.697738406738324
 30
0.0
 40
0.592000000000025
 50
41.62822131176523
 51
68.533073573138267
  0
ARC
  5
4FF1
  8
0
 10
105.803082199923
 20
64.702228924565304
 30
0.0
 40
3.8020000000006249
 50
68.87291123999627
 51
73.518159945207543
  0
ARC
  5
4FF2
  8
0
 10
108.8510716492533
 20
73.24915739834718
 30
0.0
 40
5.2820000000000267
 50
228.4786510551537
 51
248.10938620721009
  0
ARC
  5
4FF3
  8
0
 10
121.0000003725291
 20
65.967890620231614
 30
0.0
 40
16.0
 50
165.63046302254929
 51
167.9999999999994
  0
ARC
  5
4FF4
  8
0
 10
106.88400878674641
 20
64.841082965979197
 30
0.0
 40
5.282000000000008
 50
85.544251583617182
 51
105.1839168359739
  0
ARC
  5
4FF5
  8
0
 10
107.9497939288535
 20
73.852197449809069
 30
0.0
 40
3.80199999999952
 50
260.07312413809171
 51
264.7171980701998
  0
ARC
  5
4FF6
  8
0
 10
107.64871198626
 20
70.656317648833308
 30
0.0
 40
0.5920000000000159
 50
265.25464064550238
 51
292.12261837540763
  0
ARC
  5
4FF7
  8
0
 10
107.7517643852086
 20
70.398112066441215
 30
0.0
 40
0.3139999999999897
 50
292.44594960558209
 51
338.71806326425281
  0
LINE
  5
4FF8
  8
0
 10
108.1630877256394
 20
70.626464392989874
 30
0.0
 11
108.0443515479565
 21
70.284143276512623
 31
0.0
  0
ARC
  5
4FF9
  8
0
 10
107.8633559305473
 20
70.72004294130933
 30
0.0
 40
0.3139999999999933
 50
342.66124302713882
 51
29.015267575856139
  0
ARC
  5
4FFA
  8
0
 10
107.6233490380189
 20
70.579679249637067
 30
0.0
 40
0.5919999999999606
 50
29.628221311761571
 51
56.533073573140079
  0
ARC
  5
4FFB
  8
0
 10
105.87202546029771
 20
67.889503621761406
 30
0.0
 40
3.8019999999996621
 50
56.872911239996817
 51
61.518159945208652
  0
ARC
  5
4FFC
  8
0
 10
110.63041537750399
 20
75.615948562028777
 30
0.0
 40
5.2819999999999654
 50
216.4786510551524
 51
236.1093862072097
  0
ARC
  5
4FFD
  8
0
 10
121.0000003725291
 20
65.967890620231614
 30
0.0
 40
16.0
 50
153.6304630225485
 51
156.0000000000006
  0
ARC
  5
4FFE
  8
0
 10
106.95820058629511
 20
67.80058609490554
 30
0.0
 40
5.2819999999999379
 50
73.544251583617324
 51
93.183916835976532
  0
ARC
  5
4FFF
  8
0
 10
109.87421181443089
 20
76.393196916258674
 30
0.0
 40
3.8020000000009149
 50
248.07312413809399
 51
252.7171980701979
  0
ARC
  5
5000
  8
0
 10
108.9152484615872
 20
73.329753212458556
 30
0.0
 40
0.5919999999999792
 50
253.25464064549899
 51
280.12261837544469
  0
ARC
  5
5001
  8
0
 10
108.9623649591548
 20
73.055764243037473
 30
0.0
 40
0.3139999999999985
 50
280.44594960565001
 51
326.71806326425377
  0
LINE
  5
5002
  8
0
 10
109.41217663139111
 20
73.193607572466135
 30
0.0
 11
109.2248625159264
 21
72.883453872054815
 31
0.0
  0
ARC
  5
5003
  8
0
 10
109.1384511540103
 20
73.347458969019527
 30
0.0
 40
0.3140000000000382
 50
330.66124302712711
 51
17.015267575884661
  0
ARC
  5
5004
  8
0
 10
108.8745057354591
 20
73.260062799613621
 30
0.0
 40
0.5919999999999872
 50
17.62822131178056
 51
44.533073573141387
  0
ARC
  5
5005
  8
0
 10
106.602133816416
 20
70.992794609869392
 30
0.0
 40
3.8019999999970939
 50
44.872911239994068
 51
49.51815994521084
  0
ARC
  5
5006
  8
0
 10
112.86295972882679
 20
77.56107329713538
 30
0.0
 40
5.2820000000000134
 50
204.47865105515149
 51
224.10938620720819
  0
ARC
  5
5007
  8
0
 10
121.0000003725291
 20
65.967890620231614
 30
0.0
 40
16.0
 50
141.63046302254889
 51
143.99999999999861
  0
ARC
  5
5008
  8
0
 10
107.64608641653329
 20
70.679991637339882
 30
0.0
 40
5.2820000000000364
 50
61.544251583618859
 51
81.183916835976206
  0
ARC
  5
5009
  8
0
 10
112.28488004745471
 20
78.478560471402247
 30
0.0
 40
3.802000000002852
 50
236.07312413809629
 51
240.71719807019639
  0
ARC
  5
500A
  8
0
 10
110.7099465844958
 20
75.681440054667448
 30
0.0
 40
0.5920000000000213
 50
241.2546406454868
 51
268.12261837543417
  0
ARC
  5
500B
  8
0
 10
110.6990679636489
 20
75.403642330925962
 30
0.0
 40
0.3140000000000155
 50
268.44594960563359
 51
314.718063264249
  0
LINE
  5
500C
  8
0
 10
111.1677094399929
 20
75.444952771067634
 30
0.0
 11
110.92000464349989
 21
75.180520489811911
 31
0.0
  0
ARC
  5
500D
  8
0
 10
110.9319529963507
 20
75.652352448789955
 30
0.0
 40
0.3139999999999922
 50
318.66124302711188
 51
5.0152675758830743
  0
ARC
  5
500E
  8
0
 10
110.6556047331181
 20
75.621743433626833
 30
0.0
 40
0.5919999999999371
 50
5.6282213117777564
 51
32.533073573182023
  0
ARC
  5
500F
  8
0
 10
107.9614980296633
 20
73.876473181462941
 30
0.0
 40
3.8019999999979932
 50
32.872911240002622
 51
37.518159945211337
  0
ARC
  5
5010
  8
0
 10
115.45113180213239
 20
78.999520318998691
 30
0.0
 40
5.2819999999999618
 50
192.47865105515211
 51
212.1093862072095
  0
ARC
  5
5011
  8
0
 10
121.0000003725291
 20
65.967890620231614
 30
0.0
 40
16.0
 50
129.63046302255131
 51
132.00000000000031
  0
ARC
  5
5012
  8
0
 10
108.9176023658372
 20
73.353455754157324
 30
0.0
 40
5.2820000000000338
 50
49.544251583616592
 51
69.183916835973875
  0
ARC
  5
5013
  8
0
 10
115.07644085846761
 20
80.017147721189943
 30
0.0
 40
3.8019999999982161
 50
224.07312413809331
 51
228.7171980702006
  0
ARC
  5
5014
  8
0
 10
112.954369435098
 20
77.608598175809888
 30
0.0
 40
0.5920000000000094
 50
229.25464064550201
 51
256.1226183754215
  0
ARC
  5
5015
  8
0
 10
112.8859711437689
 20
77.33913279129689
 30
0.0
 40
0.313999999999987
 50
256.44594960561301
 51
302.71806326425548
  0
LINE
  5
5016
  8
0
 10
113.35296100378039
 20
77.282103896141066
 30
0.0
 11
113.0556902885437
 21
77.074951678514495
 31
0.0
  0
ARC
  5
5017
  8
0
 10
113.16547682088149
 20
77.533988475448623
 30
0.0
 40
0.3140000000000133
 50
306.66124302713109
 51
353.01526757585509
  0
ARC
  5
5018
  8
0
 10
112.88880345813661
 20
77.561504375369225
 30
0.0
 40
0.5920000000000285
 50
353.62822131176563
 51
20.53307357322074
  0
ARC
  5
5019
  8
0
 10
109.8907073609692
 20
76.414508745541269
 30
0.0
 40
3.8019999999992211
 50
20.872911240010129
 51
25.518159945209732
  0
ARC
  5
501A
  8
0
 10
118.28181605839001
 20
79.868422590328734
 30
0.0
 40
5.2820000000000276
 50
180.47865105515189
 51
200.1093862072091
  0
ARC
  5
501B
  8
0
 10
121.0000003725291
 20
65.967890620231614
 30
0.0
 40
16.0
 50
117.6304630225511
 51
120.0
  0
ARC
  5
501C
  8
0
 10
110.7171770858117
 20
75.704135234748691
 30
0.0
 40
5.2820000000000871
 50
37.54425158361596
 51
57.183916835975232
  0
ARC
  5
501D
  8
0
 10
118.126889644641
 20
80.941715019855422
 30
0.0
 40
3.8019999999998531
 50
212.07312413809191
 51
216.7171980701942
  0
ARC
  5
501E
  8
0
 10
115.5504249648866
 20
79.027001518461347
 30
0.0
 40
0.5920000000000174
 50
217.2546406454768
 51
244.12261837540541
  0
ARC
  5
501F
  8
0
 10
115.42749633661769
 20
78.77764540351842
 30
0.0
 40
0.3139999999999795
 50
244.44594960557851
 51
290.71806326425508
  0
LINE
  5
5020
  8
0
 10
115.8724241927266
 20
78.624770231544986
 30
0.0
 11
115.5385799743235
 21
78.483950532972827
 31
0.0
  0
ARC
  5
5021
  8
0
 10
115.7414069188343
 20
78.910130525539145
 30
0.0
 40
0.3140000000000185
 50
294.66124302710892
 51
341.01526757588613
  0
ARC
  5
5022
  8
0
 10
115.4765004101554
 20
78.994568763681031
 30
0.0
 40
0.5919999999999811
 50
341.628221311782
 51
8.5330735731840264
  0
ARC
  5
5023
  8
0
 10
112.3054461051821
 20
78.495976969108625
 30
0.0
 40
3.802000000000632
 50
8.8729112400040808
 51
13.51815994520817
  0
ARC
  5
5024
  8
0
 10
121.2312980124709
 20
80.129804912412624
 30
0.0
 40
5.2820000000000418
 50
168.47865105515169
 51
188.10938620720901
  0
ARC
  5
5025
  8
0
 10
121.0000003725291
 20
65.967890620231614
 30
0.0
 40
16.0
 50
105.6304630225506
 51
107.99999999999881
  0
ARC
  5
5026
  8
0
 10
112.9661605258763
 20
77.6292941060006
 30
0.0
 40
5.2820000000000213
 50
25.544251583616759
 51
45.183916835976163
  0
ARC
  5
5027
  8
0
 10
121.3029071563372
 20
81.211854339875046
 30
0.0
 40
3.802000000000286
 50
200.07312413809279
 51
204.71719807019809
  0
ARC
  5
5028
  8
0
 10
118.3846530899531
 20
79.874659050293531
 30
0.0
 40
0.5919999999999592
 50
205.25464064549701
 51
232.1226183754039
  0
ARC
  5
5029
  8
0
 10
118.2125666956769
 20
79.656310263687161
 30
0.0
 40
0.3140000000000161
 50
232.44594960557399
 51
278.71806326425298
  0
LINE
  5
502A
  8
0
 10
118.615987341851
 20
79.414270073175445
 30
0.0
 11
118.2601604182274
 21
79.345938004553332
 31
0.0
  0
ARC
  5
502B
  8
0
 10
118.54716278424461
 20
79.72063458801037
 30
0.0
 40
0.3140000000000076
 50
282.66124302711012
 51
329.01526757588158
  0
ARC
  5
502C
  8
0
 10
118.3056008152233
 20
79.858304808187114
 30
0.0
 40
0.592000000000016
 50
329.62822131177938
 51
356.53307357313889
  0
ARC
  5
502D
  8
0
 10
115.10017859198079
 20
80.029907702802433
 30
0.0
 40
3.801999999999488
 50
356.87291123999819
 51
1.5181599452094969
  0
ARC
  5
502E
  8
0
 10
124.1706711497971
 20
79.772243623523764
 30
0.0
 40
5.2820000000000169
 50
156.4786510551512
 51
176.10938620720799
  0
ARC
  5
502F
  8
0
 10
121.0000003725291
 20
65.967890620231614
 30
0.0
 40
16.000000000000021
 50
93.630463022550487
 51
95.999999999998479
  0
ARC
  5
5030
  8
0
 10
115.5662613178803
 20
79.044793687302032
 30
0.0
 40
5.2820000000000773
 50
13.544251583617079
 51
33.183916835974671
  0
ARC
  5
5031
  8
0
 10
124.46568618807279
 20
80.815759296692335
 30
0.0
 40
3.8020000000004952
 50
188.07312413809331
 51
192.7171980701969
  0
ARC
  5
5032
  8
0
 10
121.333184441097
 20
80.114524069653314
 30
0.0
 40
0.5920000000000251
 50
193.25464064548501
 51
220.1226183753854
  0
ARC
  5
5033
  8
0
 10
121.1194612820054
 20
79.936725501111866
 30
0.0
 40
0.3140000000000206
 50
220.44594960554841
 51
266.71806326425087
  0
LINE
  5
5034
  8
0
 10
121.46374316443691
 20
79.616098850965514
 30
0.0
 11
121.1014850073262
 21
79.623240232467666
 31
0.0
  0
ARC
  5
5035
  8
0
 10
121.4601194222836
 20
79.93007774610227
 30
0.0
 40
0.3139999999999869
 50
270.66124302714439
 51
317.01526757574658
  0
ARC
  5
5036
  8
0
 10
121.252459410109
 20
80.114963099077201
 30
0.0
 40
0.5919999999999939
 50
317.62822131170338
 51
344.53307357309762
  0
ARC
  5
5037
  8
0
 10
118.1527616010744
 20
80.949260812943322
 30
0.0
 40
3.8019999999993659
 50
344.8729112399912
 51
349.51815994520769
  0
ARC
  5
5038
  8
0
 10
126.9714707595904
 20
78.811365867756081
 30
0.0
 40
5.2820000000000604
 50
144.47865105515169
 51
164.1093862072095
  0
ARC
  5
5039
  8
0
 10
121.0000003725291
 20
65.967890620231614
 30
0.0
 40
16.000000000000028
 50
81.630463022549606
 51
84.000000000001535
  0
ARC
  5
503A
  8
0
 10
118.4038425805454
 20
79.888769854629615
 30
0.0
 40
5.2820000000000826
 50
1.5442515836161701
 51
21.183916835975459
  0
ARC
  5
503B
  8
0
 10
127.47699811946281
 20
79.770741144369453
 30
0.0
 40
3.8019999999999818
 50
176.07312413809311
 51
180.7171980702048
  0
ARC
  5
503C
  8
0
 10
124.2671540496499
 20
79.736113324194548
 30
0.0
 40
0.5920000000000342
 50
181.25464064553461
 51
208.12261837538091
  0
ARC
  5
503D
  8
0
 10
124.02113485335271
 20
79.606635624335439
 30
0.0
 40
0.3139999999999988
 50
208.44594960553599
 51
254.71806326425531
  0
LINE
  5
503E
  8
0
 10
124.2912312541157
 20
79.221435077488437
 30
0.0
 11
123.9383743181825
 21
79.30373884737493
 31
0.0
  0
ARC
  5
503F
  8
0
 10
124.35296664995209
 20
79.529306328786532
 30
0.0
 40
0.3139999999999993
 50
258.66124302715838
 51
305.01526757570832
  0
ARC
  5
5040
  8
0
 10
124.18828433361961
 20
79.753326437456153
 30
0.0
 40
0.5919999999999486
 50
305.62822131168872
 51
332.5330735731024
  0
ARC
  5
5041
  8
0
 10
121.32978260704709
 20
81.213856157072868
 30
0.0
 40
3.8020000000002132
 50
332.87291123999239
 51
337.518159945207
  0
ARC
  5
5042
  8
0
 10
129.51128845917489
 20
77.289166613839541
 30
0.0
 40
5.2820000000001084
 50
132.4786510551518
 51
152.1093862072087
  0
ARC
  5
5043
  8
0
 10
121.0000003725291
 20
65.967890620231614
 30
0.0
 40
16.0
 50
69.630463022548071
 51
72.000000000001137
  0
ARC
  5
5044
  8
0
 10
121.3548883964674
 20
80.124336799624089
 30
0.0
 40
5.2820000000000187
 50
349.54425158361693
 51
9.1839168359747081
  0
ARC
  5
5045
  8
0
 10
130.2052341692293
 20
78.122472190716479
 30
0.0
 40
3.802000000000386
 50
164.07312413809279
 51
168.71719807020219
  0
ARC
  5
5046
  8
0
 10
127.0583333649697
 20
78.755965179310024
 30
0.0
 40
0.5919999999999909
 50
169.25464064552409
 51
196.12261837536721
  0
ARC
  5
5047
  8
0
 10
126.7907703508764
 20
78.680467144920073
 30
0.0
 40
0.3140000000000235
 50
196.44594960550819
 51
242.71806326425349
  0
LINE
  5
5048
  8
0
 10
126.97487660124899
 20
78.247527778148665
 30
0.0
 11
126.6468424387277
 21
78.401396237313762
 31
0.0
  0
ARC
  5
5049
  8
0
 10
127.09927316197989
 20
78.535835970114391
 30
0.0
 40
0.3139999999999977
 50
246.66124302714641
 51
293.01526757572009
  0
ARC
  5
504A
  8
0
 10
126.9847659489467
 20
78.789200080762228
 30
0.0
 40
0.5920000000000091
 50
293.62822131169031
 51
320.53307357309637
  0
ARC
  5
504B
  8
0
 10
124.4923905469027
 20
80.812129648981923
 30
0.0
 40
3.8019999999986158
 50
320.87291123999012
 51
325.5181599452082
  0
ARC
  5
504C
  8
0
 10
131.67912202768139
 20
75.272173273492868
 30
0.0
 40
5.282000000000088
 50
120.4786510551527
 51
140.10938620720739
  0
ARC
  5
504D
  8
0
 10
121.0000003725291
 20
65.967890620231614
 30
0.0
 40
16.000000000000011
 50
57.630463022549002
 51
60.0
  0
ARC
  5
504E
  8
0
 10
124.29042390280171
 20
79.741199116413597
 30
0.0
 40
5.2819999999999467
 50
337.54425158361693
 51
357.18391683597588
  0
ARC
  5
504F
  8
0
 10
132.5311573304684
 20
75.942989698279334
 30
0.0
 40
3.8020000000018981
 50
152.0731241380949
 51
156.71719807020199
  0
ARC
  5
5050
  8
0
 10
129.58473445741299
 20
77.216916812203806
 30
0.0
 40
0.5920000000000485
 50
157.2546406455258
 51
184.122618375347
  0
ARC
  5
5051
  8
0
 10
129.307321413149
 20
77.19869806966561
 30
0.0
 40
0.314000000000027
 50
184.44594960547431
 51
230.7180632642513
  0
LINE
  5
5052
  8
0
 10
129.39739143848419
 20
76.736942119896426
 30
0.0
 11
129.10851659625769
 21
76.955649256706252
 31
0.0
  0
ARC
  5
5053
  8
0
 10
129.57901218555071
 20
76.993086091959569
 30
0.0
 40
0.3140000000000006
 50
234.6612430271519
 51
281.01526757574243
  0
ARC
  5
5054
  8
0
 10
129.51968459049289
 20
77.264720977174335
 30
0.0
 40
0.5919999999999885
 50
281.62822131170441
 51
308.53307357314128
  0
ARC
  5
5055
  8
0
 10
127.5023642777885
 20
79.761638664774608
 30
0.0
 40
3.8020000000001022
 50
308.8729112399958
 51
313.51815994520769
  0
ARC
  5
5056
  8
0
 10
133.3802267357467
 20
72.848538134296959
 30
0.0
 40
5.2820000000001182
 50
108.4786510551515
 51
128.1093862072089
  0
ARC
  5
5057
  8
0
 10
121.0000003725291
 20
65.967890620231614
 30
0.0
 40
16.0
 50
45.630463022551289
 51
47.999999999999659
  0
ARC
  5
5058
  8
0
 10
127.0821521116591
 20
78.75610176025306
 30
0.0
 40
5.2819999999999601
 50
325.54425158361749
 51
345.18391683597559
  0
ARC
  5
5059
  8
0
 10
134.35311360001259
 20
73.327547510296853
 30
0.0
 40
3.8020000000002838
 50
140.07312413809419
 51
144.7171980702071
  0
ARC
  5
505A
  8
0
 10
131.73594147622211
 20
75.186232021691907
 30
0.0
 40
0.5919999999999438
 50
145.25464064554581
 51
172.12261837535721
  0
ARC
  5
505B
  8
0
 10
131.46080268299741
 20
75.226088817477574
 30
0.0
 40
0.3139999999999981
 50
172.44594960548829
 51
218.71806326425141
  0
LINE
  5
505C
  8
0
 10
131.452900454402
 20
74.755695834755912
 30
0.0
 11
131.21580900996929
 21
75.029685348272338
 31
0.0
  0
ARC
  5
505D
  8
0
 10
131.68380722622641
 20
74.968482266932654
 30
0.0
 40
0.3139999999999842
 50
222.6612430271345
 51
269.01526757571622
  0
ARC
  5
505E
  8
0
 10
131.6822521497335
 20
75.246516178781789
 30
0.0
 40
0.5920000000000606
 50
269.62822131168957
 51
296.5330735730962
  0
ARC
  5
505F
  8
0
 10
130.22815350421271
 20
78.10829470127139
 30
0.0
 40
3.8019999999981451
 50
296.87291123998949
 51
301.51815994521041
  0
ARC
  5
5060
  8
0
 10
134.54025614482211
 20
70.124185681726544
 30
0.0
 40
5.282000000000032
 50
96.478651055149925
 51
116.1093862072092
  0
ARC
  5
5061
  8
0
 10
121.0000003725291
 20
65.967890620231614
 30
0.0
 40
16.0
 50
33.630463022549343
 51
36.000000000001343
  0
ARC
  5
5062
  8
0
 10
129.6080611041144
 20
77.212098212628234
 30
0.0
 40
5.2819999999999956
 50
313.54425158361499
 51
333.18391683597582
  0
ARC
  5
5063
  8
0
 10
135.59147474617009
 20
70.390453000666795
 30
0.0
 40
3.8019999999989982
 50
128.07312413809319
 51
132.7171980702052
  0
ARC
  5
5064
  8
0
 10
133.41793635203891
 20
72.752661477426372
 30
0.0
 40
0.5920000000000146
 50
133.25464064554609
 51
160.12261837538389
  0
ARC
  5
5065
  8
0
 10
133.15709669537961
 20
72.848851878305993
 30
0.0
 40
0.3139999999999969
 50
160.44594960554051
 51
206.71806326425471
  0
LINE
  5
5066
  8
0
 10
133.0515668764711
 20
72.390381433069706
 30
0.0
 11
132.8766225874424
 21
72.707677446305752
 31
0.0
  0
ARC
  5
5067
  8
0
 10
133.3216686408023
 20
72.550509397314386
 30
0.0
 40
0.313999999999995
 50
210.66124302712791
 51
257.01526757573907
  0
ARC
  5
5068
  8
0
 10
133.377954047179
 20
72.822790919695223
 30
0.0
 40
0.5920000000000313
 50
257.62822131170532
 51
284.53307357314162
  0
ARC
  5
5069
  8
0
 10
132.5506281571885
 20
75.924356823308614
 30
0.0
 40
3.8020000000008629
 50
284.87291124000018
 51
289.51815994520689
  0
ARC
  5
506A
  8
0
 10
135.1085114032924
 20
67.218183190852287
 30
0.0
 40
5.2820000000000249
 50
84.478651055151744
 51
104.1093862072087
  0
ARC
  5
506B
  8
0
 10
121.0000003725291
 20
65.967890620231614
 30
0.0
 40
16.0
 50
21.630463022550131
 51
23.999999999999261
  0
ARC
  5
506C
  8
0
 10
131.75775653654131
 20
75.176668837521234
 30
0.0
 40
5.2819999999998766
 50
301.5442515836163
 51
321.18391683597582
  0
ARC
  5
506D
  8
0
 10
136.19211844453889
 20
67.260071293200767
 30
0.0
 40
3.8020000000005729
 50
116.07312413809321
 51
120.71719807020639
  0
ARC
  5
506E
  8
0
 10
134.55720783768299
 20
70.022563889758757
 30
0.0
 40
0.5919999999999983
 50
121.2546406455554
 51
148.12261837534021
  0
ARC
  5
506F
  8
0
 10
134.32206726223291
 20
70.170883913641106
 30
0.0
 40
0.314000000000014
 50
148.4459496054603
 51
194.718063264253
  0
LINE
  5
5070
  8
0
 10
134.12352195382121
 20
69.744373159483075
 30
0.0
 11
134.0183700472117
 21
70.091108046472073
 31
0.0
  0
ARC
  5
5071
  8
0
 10
134.42101402613051
 20
69.844844500228206
 30
0.0
 40
0.3140000000000026
 50
198.6612430271378
 51
245.01526757573501
  0
ARC
  5
5072
  8
0
 10
134.5326799730307
 20
70.099473624060977
 30
0.0
 40
0.5919999999999775
 50
245.62822131169901
 51
272.53307357309637
  0
ARC
  5
5073
  8
0
 10
134.36828494991471
 20
73.305273595843047
 30
0.0
 40
3.8020000000004188
 50
272.87291123999029
 51
277.51815994520553
  0
ARC
  5
5074
  8
0
 10
135.06015702957129
 20
64.257536915072563
 30
0.0
 40
5.2819999999999583
 50
72.47865105515001
 51
92.109386207209084
  0
ARC
  5
5075
  8
0
 10
121.0000003725291
 20
65.967890620231614
 30
0.0
 40
16.000000000000011
 50
9.6304630225497991
 51
12.00000000000043
  0
ARC
  5
5076
  8
0
 10
133.43728640315931
 20
72.73877166569828
 30
0.0
 40
5.2819999999999343
 50
289.54425158361778
 51
309.18391683597531
  0
ARC
  5
5077
  8
0
 10
136.12879368328879
 20
64.073215089757781
 30
0.0
 40
3.8019999999991141
 50
104.07312413809269
 51
108.71719807020401
  0
ARC
  5
5078
  8
0
 10
135.10396430240081
 20
67.11525762373175
 30
0.0
 40
0.5920000000000102
 50
109.25464064553429
 51
136.12261837538369
  0
ARC
  5
5079
  8
0
 10
134.9047995796366
 20
67.309224973854768
 30
0.0
 40
0.3140000000000168
 50
136.44594960554309
 51
182.71806326425411
  0
LINE
  5
507A
  8
0
 10
134.62191643565899
 20
66.933314444031566
 30
0.0
 11
134.59115298837429
 21
67.294334713369594
 31
0.0
  0
ARC
  5
507B
  8
0
 10
134.93379671362749
 20
66.969738114897382
 30
0.0
 40
0.3139999999999746
 50
186.66124302714081
 51
233.0152675757399
  0
ARC
  5
507C
  8
0
 10
135.09596286333911
 20
67.195586325624589
 30
0.0
 40
0.5919999999999909
 50
233.62822131170179
 51
260.53307357314009
  0
ARC
  5
507D
  8
0
 10
135.6016835584623
 20
70.365511523673206
 30
0.0
 40
3.8019999999998459
 50
260.87291123999609
 51
265.5181599452074
  0
ARC
  5
507E
  8
0
 10
134.3973063418203
 20
61.371641303395741
 30
0.0
 40
5.2820000000000951
 50
60.478651055151062
 51
80.109386207207947
  0
ARC
  5
507F
  8
0
 10
121.0000003725291
 20
65.967890620231614
 30
0.0
 40
16.0
 50
357.63046302255037
 51
0.0
  0
LINE
  5
5085
  8
0
 10
64.999999664723873
 20
53.467890433967113
 30
0.0
 11
75.000000372529016
 21
53.467890433967113
 31
0.0
  0
LINE
  5
5086
  8
0
 10
75.000000372529016
 20
78.467890806496158
 30
0.0
 11
64.999999664723873
 21
78.467890806496158
 31
0.0
  0
LINE
  5
5089
  8
3
 10
50.0
 20
65.967890620231614
 30
0.0
 11
64.999999664723873
 21
65.967890620231614
 31
0.0
  0
LINE
  5
508B
  8
3
 10
64.999999664723873
 20
66.629401594400406
 30
0.0
 11
50.0
 21
66.629401594400406
 31
0.0
  0
LINE
  5
5091
  8
3
 10
64.999999664723873
 20
63.291203184053302
 30
0.0
 11
50.0
 21
63.291203184053302
 31
0.0
  0
LINE
  5
5095
  8
3
 10
50.0
 20
62.641303474083543
 30
0.0
 11
64.999999664723873
 21
62.641303474083543
 31
0.0
  0
LINE
  5
5099
  8
3
 10
50.0
 20
69.294477766379714
 30
0.0
 11
64.999999664723873
 21
69.294477766379714
 31
0.0
  0
LINE
  5
509E
  8
3
 10
64.999999664723873
 20
69.938688725233064
 30
0.0
 11
50.0
 21
69.938688725233064
 31
0.0
  0
LINE
  5
50A3
  8
3
 10
64.999999664723873
 20
60.069989133626223
 30
0.0
 11
50.0
 21
60.069989133626223
 31
0.0
  0
LINE
  5
50A7
  8
3
 10
50.0
 20
59.460104163736098
 30
0.0
 11
64.999999664723873
 21
59.460104163736098
 31
0.0
  0
LINE
  5
50AC
  8
3
 10
64.999999664723873
 20
73.074432741850615
 30
0.0
 11
50.0
 21
73.074432741850615
 31
0.0
  0
LINE
  5
50AD
  8
3
 10
50.0
 20
72.475677076727152
 30
0.0
 11
64.999999664723873
 21
72.475677076727152
 31
0.0
  0
LINE
  5
50D9
  8
3
 10
64.999999664723873
 20
57.106541655957692
 30
0.0
 11
50.0
 21
57.106541655957692
 31
0.0
  0
LINE
  5
50DD
  8
3
 10
50.0
 20
56.563326343893998
 30
0.0
 11
64.999999664723873
 21
56.563326343893998
 31
0.0
  0
LINE
  5
50F4
  8
3
 10
64.999999664723873
 20
75.899587199091926
 30
0.0
 11
50.0
 21
75.899587199091926
 31
0.0
  0
LINE
  5
50F5
  8
3
 10
50.0
 20
75.372454896569266
 30
0.0
 11
64.999999664723873
 21
75.372454896569266
 31
0.0
  0
LINE
  5
50FD
  8
0
 10
75.000000372529016
 20
53.467890433967113
 30
0.0
 11
75.000000372529016
 21
78.467890806496158
 31
0.0
  0
LINE
  5
5110
  8
3
 10
64.999999664723873
 20
54.530377686023712
 30
0.0
 11
50.0
 21
54.530377686023712
 31
0.0
  0
LINE
  5
5111
  8
3
 10
50.0
 20
54.077573306858532
 30
0.0
 11
64.999999664723873
 21
54.077573306858532
 31
0.0
  0
LINE
  5
5117
  8
3
 10
64.999999664723873
 20
78.29067781567575
 30
0.0
 11
50.0
 21
78.29067781567575
 31
0.0
  0
LINE
  5
5118
  8
3
 10
50.0
 20
77.858207933604731
 30
0.0
 11
64.999999664723873
 21
77.858207933604731
 31
0.0
  0
LINE
  5
5126
  8
3
 10
64.999999664723873
 20
52.454087138175957
 30
0.0
 11
50.0
 21
52.454087138175957
 31
0.0
  0
LINE
  5
5127
  8
3
 10
50.0
 20
52.111484296619892
 30
0.0
 11
64.999999664723873
 21
52.111484296619892
 31
0.0
  0
LINE
  5
512C
  8
3
 10
64.999999664723873
 20
80.143205076456084
 30
0.0
 11
50.0
 21
80.143205076456084
 31
0.0
  0
LINE
  5
512D
  8
3
 10
50.0
 20
79.824296943843379
 30
0.0
 11
64.999999664723873
 21
79.824296943843379
 31
0.0
  0
LINE
  5
5132
  8
3
 10
64.999999664723873
 20
50.968415290117257
 30
0.0
 11
50.0
 21
50.968415290117257
 31
0.0
  0
LINE
  5
5135
  8
3
 10
50.0
 20
50.75098592787981
 30
0.0
 11
64.999999664723873
 21
50.75098592787981
 31
0.0
  0
LINE
  5
5138
  8
3
 10
50.0
 20
81.184795312583461
 30
0.0
 11
64.999999664723873
 21
81.184795312583461
 31
0.0
  0
LINE
  5
513B
  8
3
 10
64.999999664723873
 20
81.376201659441008
 30
0.0
 11
50.0
 21
81.376201659441008
 31
0.0
  0
LINE
  5
513E
  8
3
 10
64.999999664723873
 20
50.138292089104652
 30
0.0
 11
50.0
 21
50.138292089104652
 31
0.0
  0
LINE
  5
5141
  8
3
 10
50.0
 20
50.055540353059762
 30
0.0
 11
64.999999664723873
 21
50.055540353059762
 31
0.0
  0
LINE
  5
5144
  8
3
 10
50.0
 20
81.880240887403502
 30
0.0
 11
64.999999664723873
 21
81.880240887403502
 31
0.0
  0
LINE
  5
5147
  8
0
 10
64.999999664723873
 20
81.935781240463271
 30
0.0
 11
50.0
 21
81.935781240463271
 31
0.0
  0
LINE
  5
514A
  8
0
 10
64.999999664723873
 20
50.0
 30
0.0
 11
50.0
 21
50.0
 31
0.0
  0
LINE
  5
514B
  8
0
 10
64.99999966472393
 20
81.935781240463271
 30
0.0
 11
64.999999664723873
 21
50.0
 31
0.0
  0
LINE
  5
514C
  8
0
 10
50.0
 20
81.935781240463271
 30
0.0
 11
50.0
 21
50.0
 31
0.0
  0
LINE
  5
5165
  8
2
 10
75.000000372529016
 20
71.624744869768605
 30
0.0
 11
50.0
 21
71.624744869768605
 31
0.0
  0
LINE
  5
5173
  8
2
 10
75.000000372529016
 20
73.767890408635154
 30
0.0
 11
50.0
 21
73.767890408635154
 31
0.0
  0
LINE
  5
51CB
  8
2
 10
50.0
 20
59.967890568077557
 30
0.0
 11
75.000000372529016
 21
59.967890568077557
 31
0.0
  0
LINE
  5
5291
  8
1
 10
121.0000003725291
 20
85.967890620231614
 30
0.0
 11
121.0000003725291
 21
45.967890620231621
 31
0.0
  0
LINE
  5
5292
  8
1
 10
46.0
 20
65.967890620231614
 30
0.0
 11
79.00000037252903
 21
65.967890620231614
 31
0.0
  0
LINE
  5
52A3
  8
1
 10
101.0000003725291
 20
65.967890620231614
 30
0.0
 11
141.00000037252909
 21
65.967890620231614
 31
0.0
  0
CIRCLE
  5
52A4
  8
5
 10
121.0000003725291
 20
65.967890620231614
 30
0.0
 40
15.0
  0
ENDSEC
  0
EOF
