  0
SECTION
  2
HEADER
  9
$ACADVER
  1
AC1009
  9
$INSBASE
 10
0.0
 20
0.0
 30
0.0
  9
$EXTMIN
 10
0.0
 20
-2.960436562073669
 30
0.0
  9
$EXTMAX
 10
155.95791545484369
 20
122.2203702899925
 30
0.0
  9
$LIMMIN
 10
0.0
 20
0.0
  9
$LIMMAX
 10
390.0
 20
270.0
  9
$ORTHOMODE
 70
     1
  9
$REGENMODE
 70
     1
  9
$FILLMODE
 70
     1
  9
$QTEXTMODE
 70
     0
  9
$MIRRTEXT
 70
     1
  9
$DRAGMODE
 70
     2
  9
$LTSCALE
 40
5.0
  9
$OSMODE
 70
    55
  9
$ATTMODE
 70
     1
  9
$TEXTSIZE
 40
2.5
  9
$TRACEWID
 40
1.0
  9
$TEXTSTYLE
  7
STANDARD
  9
$CLAYER
  8
4
  9
$CELTYPE
  6
BYLAYER
  9
$CECOLOR
 62
   256
  9
$DIMSCALE
 40
2.0
  9
$DIMASZ
 40
3.0
  9
$DIMEXO
 40
1.0
  9
$DIMDLI
 40
6.0
  9
$DIMRND
 40
0.0
  9
$DIMDLE
 40
0.0
  9
$DIMEXE
 40
1.0
  9
$DIMTP
 40
495.0
  9
$DIMTM
 40
0.0
  9
$DIMTXT
 40
2.5
  9
$DIMCEN
 40
0.0
  9
$DIMTSZ
 40
0.0
  9
$DIMTOL
 70
     0
  9
$DIMLIM
 70
     0
  9
$DIMTIH
 70
     0
  9
$DIMTOH
 70
     0
  9
$DIMSE1
 70
     0
  9
$DIMSE2
 70
     0
  9
$DIMTAD
 70
     1
  9
$DIMZIN
 70
     8
  9
$DIMBLK
  1

  9
$DIMASO
 70
     0
  9
$DIMSHO
 70
     1
  9
$DIMPOST
  1

  9
$DIMAPOST
  1

  9
$DIMALT
 70
     0
  9
$DIMALTD
 70
     2
  9
$DIMALTF
 40
25.399999999999999
  9
$DIMLFAC
 40
1.0
  9
$DIMTOFL
 70
     1
  9
$DIMTVP
 40
0.0
  9
$DIMTIX
 70
     1
  9
$DIMSOXD
 70
     0
  9
$DIMSAH
 70
     0
  9
$DIMBLK1
  1

  9
$DIMBLK2
  1

  9
$DIMSTYLE
  2
ITM
  9
$DIMCLRD
 70
   256
  9
$DIMCLRE
 70
   256
  9
$DIMCLRT
 70
   256
  9
$DIMTFAC
 40
1.0
  9
$DIMGAP
 40
1.0
  9
$LUNITS
 70
     2
  9
$LUPREC
 70
     2
  9
$SKETCHINC
 40
1.0
  9
$FILLETRAD
 40
0.4
  9
$AUNITS
 70
     0
  9
$AUPREC
 70
     0
  9
$MENU
  1
.
  9
$ELEVATION
 40
0.0
  9
$PELEVATION
 40
0.0
  9
$THICKNESS
 40
0.0
  9
$LIMCHECK
 70
     0
  9
$BLIPMODE
 70
     0
  9
$CHAMFERA
 40
1.1999999999999991
  9
$CHAMFERB
 40
1.1999999999999991
  9
$SKPOLY
 70
     0
  9
$TDCREATE
 40
2453354.0921258219
  9
$TDUPDATE
 40
2456598.3926189588
  9
$TDINDWG
 40
513.80196025459998
  9
$TDUSRTIMER
 40
513.80168228009995
  9
$USRTIMER
 70
     1
  9
$ANGBASE
 50
0.0
  9
$ANGDIR
 70
     0
  9
$PDMODE
 70
     0
  9
$PDSIZE
 40
0.0
  9
$PLINEWID
 40
0.0
  9
$COORDS
 70
     1
  9
$SPLFRAME
 70
     0
  9
$SPLINETYPE
 70
     6
  9
$SPLINESEGS
 70
     8
  9
$ATTDIA
 70
     0
  9
$ATTREQ
 70
     1
  9
$HANDLING
 70
     1
  9
$HANDSEED
  5
582C1
  9
$SURFTAB1
 70
     6
  9
$SURFTAB2
 70
     6
  9
$SURFTYPE
 70
     6
  9
$SURFU
 70
     6
  9
$SURFV
 70
     6
  9
$UCSNAME
  2

  9
$UCSORG
 10
0.0
 20
0.0
 30
0.0
  9
$UCSXDIR
 10
1.0
 20
0.0
 30
0.0
  9
$UCSYDIR
 10
0.0
 20
1.0
 30
0.0
  9
$PUCSNAME
  2

  9
$PUCSORG
 10
0.0
 20
0.0
 30
0.0
  9
$PUCSXDIR
 10
1.0
 20
0.0
 30
0.0
  9
$PUCSYDIR
 10
0.0
 20
1.0
 30
0.0
  9
$USERI1
 70
     4
  9
$USERI2
 70
     1
  9
$USERI3
 70
     1
  9
$USERI4
 70
     0
  9
$USERI5
 70
     0
  9
$USERR1
 40
1.0
  9
$USERR2
 40
3.0
  9
$USERR3
 40
3.2000000000000002
  9
$USERR4
 40
3.0
  9
$USERR5
 40
10.0
  9
$WORLDVIEW
 70
     1
  9
$SHADEDGE
 70
     3
  9
$SHADEDIF
 70
    70
  9
$TILEMODE
 70
     1
  9
$MAXACTVP
 70
    16
  9
$PLIMCHECK
 70
     0
  9
$PEXTMIN
 10
0.0
 20
0.0
 30
0.0
  9
$PEXTMAX
 10
0.0
 20
0.0
 30
0.0
  9
$PLIMMIN
 10
0.0
 20
0.0
  9
$PLIMMAX
 10
12.0
 20
9.0
  9
$UNITMODE
 70
     0
  9
$VISRETAIN
 70
     0
  9
$PLINEGEN
 70
     0
  9
$PSLTSCALE
 70
     1
  0
ENDSEC
  0
SECTION
  2
TABLES
  0
TABLE
  2
VPORT
 70
     1
  0
VPORT
  2
*ACTIVE
 70
     0
 10
0.0
 20
0.0
 11
1.0
 21
1.0
 12
194.9940495262785
 22
197.0509055860143
 13
0.0
 23
0.0
 14
5.0
 24
5.0
 15
10.0
 25
10.0
 16
0.0
 26
0.0
 36
1.0
 17
0.0
 27
0.0
 37
0.0
 40
403.57315882993248
 41
1.7807262569832401
 42
50.0
 43
0.0
 44
0.0
 50
0.0
 51
0.0
 71
    16
 72
   500
 73
     1
 74
     1
 75
     0
 76
     0
 77
     0
 78
     1
  0
ENDTAB
  0
TABLE
  2
LTYPE
 70
     4
  0
LTYPE
  2
CONTINUOUS
 70
     0
  3
Solid line
 72
    65
 73
     0
 40
0.0
  0
LTYPE
  2
CENTER
 70
     0
  3
____ _ ____ _ ____ _ ____ _ ____ _ ____ _ ____
 72
    65
 73
     4
 40
2.0
 49
1.25
 49
-0.25
 49
0.25
 49
-0.25
  0
LTYPE
  2
HIDDEN
 70
     0
  3
_ _ _ _ _ _ _ _ _ _ _ _ _ _ _ _ _ _ _ _ _ _ _
 72
    65
 73
     2
 40
0.375
 49
0.25
 49
-0.125
  0
LTYPE
  2
PHANTOM2
 70
     0
  3
___ _ _ ___ _ _ ___ _ _ ___ _ _
 72
    65
 73
     6
 40
1.25
 49
0.625
 49
-0.125
 49
0.125
 49
-0.125
 49
0.125
 49
-0.125
  0
ENDTAB
  0
TABLE
  2
LAYER
 70
     7
  0
LAYER
  2
0
 70
     0
 62
     7
  6
CONTINUOUS
  0
LAYER
  2
1
 70
     0
 62
     1
  6
CENTER
  0
LAYER
  2
WAKU
 70
     0
 62
     5
  6
CONTINUOUS
  0
LAYER
  2
DEFPOINTS
 70
     0
 62
     7
  6
CONTINUOUS
  0
LAYER
  2
4
 70
     0
 62
     4
  6
CONTINUOUS
  0
LAYER
  2
3
 70
     0
 62
     3
  6
CONTINUOUS
  0
LAYER
  2
2
 70
     0
 62
     2
  6
HIDDEN
  0
ENDTAB
  0
TABLE
  2
STYLE
 70
     3
  0
STYLE
  2
STANDARD
 70
     0
 40
0.0
 41
1.0
 50
0.0
 71
     0
 42
2.5
  3
ROMANS
  4
EXTFONT
  0
STYLE
  2
K
 70
     0
 40
0.0
 41
0.75
 50
0.0
 71
     0
 42
3.2000000000000002
  3
ROMANS.shx
  4
EXTFONT.shx
  0
STYLE
  2
STANDARD1
 70
     0
 40
0.0
 41
1.0
 50
0.0
 71
     0
 42
3.0
  3
txt
  4

  0
ENDTAB
  0
TABLE
  2
VIEW
 70
     2
  0
VIEW
  2
OLE1
 70
     0
 40
151.81220504325799
 10
73.676474473531471
 20
85.209442582639014
 41
295.93771616027522
 11
0.0
 21
0.0
 31
1.0
 12
0.0
 22
0.0
 32
0.0
 42
50.0
 43
0.0
 44
0.0
 50
0.0
 71
    16
  0
VIEW
  2
OLE2
 70
     0
 40
12.66566269640963
 10
177.82767580922561
 20
80.089748755761136
 41
24.690026015785861
 11
0.0
 21
0.0
 31
1.0
 12
0.0
 22
0.0
 32
0.0
 42
50.0
 43
0.0
 44
0.0
 50
0.0
 71
    16
  0
ENDTAB
  0
TABLE
  2
UCS
 70
     0
  0
ENDTAB
  0
TABLE
  2
APPID
 70
    46
  0
APPID
  2
ACAD
 70
     0
  0
APPID
  2
COMM
 70
     0
  0
APPID
  2
DCO15
 70
     0
  0
APPID
  2
GENIUS_GENOREF_13
 70
     0
  0
APPID
  2
GENIUS_GENOENT_13
 70
     0
  0
APPID
  2
GENIUS_GENBH_13
 70
     0
  0
APPID
  2
GENIUS_GENOBJ_13
 70
     0
  0
APPID
  2
GENIUS_GENODEF_13
 70
     0
  0
APPID
  2
GENIUS_GENOLIS_13
 70
     0
  0
APPID
  2
GENIUS_GENOBJ-NBEHI-BHF_13
 70
     0
  0
APPID
  2
GENIUS_GENOBJ-NBEHI-BHB_13
 70
     0
  0
APPID
  2
GENIUS_GENOBJ-F-PART_13
 70
     0
  0
APPID
  2
GENIUS_GEFSTDP_13
 70
     0
  0
APPID
  2
GENIUS_GENOBJ-N-RSSYM_13
 70
     0
  0
APPID
  2
GENIUS_GENSYMENT_13
 70
     0
  0
APPID
  2
GENIUS_GENOBJ-N-TIT_13
 70
     0
  0
APPID
  2
GENIUS_GENTITLE_13
 70
     0
  0
APPID
  2
GENIUS_GENZVEED_13
 70
     0
  0
APPID
  2
GENIUS_GENOBJ-N-LEADER_13
 70
     0
  0
APPID
  2
GENIUS_GENOBJ-N-FIL_13
 70
     0
  0
APPID
  2
GENIUS_GENOBJ-N-SEC_13
 70
     0
  0
APPID
  2
GENIUS_GENOBJ-N-CRS_13
 70
     0
  0
APPID
  2
GENIUS_GENOBJ-N-ZOO_13
 70
     0
  0
APPID
  2
GENIUS_GENZOO_13
 70
     0
  0
APPID
  2
GENIUS_GENOBJ-F-TOL_13
 70
     0
  0
APPID
  2
GENIUS_GENFIL_13
 70
     0
  0
APPID
  2
GENIUS_GENOBJ-N-CHA_13
 70
     0
  0
APPID
  2
_CALL_MAC$
 70
     0
  0
APPID
  2
ASM_BASE
 70
     0
  0
APPID
  2
ASM_EXPLO_VER_2_00
 70
     0
  0
APPID
  2
ASM_CADM_VER_12_00
 70
     0
  0
APPID
  2
ASM_BASEFORO
 70
     0
  0
APPID
  2
ASM_BASETRAVI
 70
     0
  0
APPID
  2
ASM_BASETRAVI1
 70
     0
  0
APPID
  2
ASM_GRUPPI
 70
     0
  0
APPID
  2
ASM_CADM_ALBERO
 70
     0
  0
APPID
  2
ASM_GOLE
 70
     0
  0
APPID
  2
GENIUS_GEFINERT_13
 70
     0
  0
APPID
  2
GENIUS_GENOBJ-F-INER_13
 70
     0
  0
APPID
  2
GENIUS_GENDTOL_13
 70
     0
  0
APPID
  2
AD_SKETCHDIM
 70
     0
  0
APPID
  2
GENIUS_GENSCREG_15
 70
     0
  0
APPID
  2
GENIUS_GENOBJ-N-SDF_13
 70
     0
  0
APPID
  2
GENIUS_GENOBJ-N-CEN_13
 70
     0
  0
APPID
  2
ACAD_MLEADERVER
 70
     0
  0
APPID
  2
ACAD_NAV_VCDISPLAY
 70
     0
  0
ENDTAB
  0
TABLE
  2
DIMSTYLE
 70
     2
  0
DIMSTYLE
  2
ITM
 70
     0
  3

  4

  5

  6

  7

 40
0.0
 41
2.5
 42
1.0
 43
6.0
 44
1.0
 45
0.0
 46
0.0
 47
495.0
 48
0.0
140
3.0
141
0.0
142
0.0
143
25.399999999999999
144
1.0
145
0.0
146
1.0
147
1.0
 71
     0
 72
     0
 73
     0
 74
     0
 75
     0
 76
     0
 77
     3
 78
     8
170
     0
171
     2
172
     1
173
     0
174
     0
175
     0
176
     0
177
     0
178
     0
  0
DIMSTYLE
  2
STANDARD
 70
     0
  3

  4

  5

  6

  7

 40
1.0
 41
0.18
 42
0.0625
 43
0.38
 44
0.18
 45
0.0
 46
0.0
 47
0.0
 48
0.0
140
0.18
141
0.09
142
0.0
143
25.399999999999999
144
1.0
145
0.0
146
1.0
147
0.09
 71
     0
 72
     0
 73
     1
 74
     1
 75
     0
 76
     0
 77
     0
 78
     0
170
     0
171
     2
172
     0
173
     0
174
     0
175
     0
176
     0
177
     0
178
     0
  0
ENDTAB
  0
ENDSEC
  0
SECTION
  2
BLOCKS
  0
BLOCK
  8
0
  2
$MODEL_SPACE
 70
     0
 10
0.0
 20
0.0
 30
0.0
  3
$MODEL_SPACE
  1

  0
ENDBLK
  5
21
  8
0
  0
BLOCK
 67
     1
  8
0
  2
$PAPER_SPACE
 70
     0
 10
0.0
 20
0.0
 30
0.0
  3
$PAPER_SPACE
  1

  0
ENDBLK
  5
76
 67
     1
  8
0
  0
BLOCK
  8
0
  2
ARROW1
 70
     0
 10
0.0
 20
0.0
 30
0.0
  3
ARROW1
  1

  0
SOLID
  5
18C
  8
WAKU
  6
CONTINUOUS
 62
     4
 10
-1.0
 20
0.1666666666666714
 30
0.0
 11
-1.0
 21
-0.1666666666666714
 31
0.0
 12
0.0
 22
0.0
 32
0.0
 13
0.0
 23
0.0
 33
0.0
  0
ENDBLK
  5
3534A
  8
0
  0
ENDSEC
  0
SECTION
  2
ENTITIES
  0
LINE
  5
56B4B
  8
1
 10
94.935951312809721
 20
111.0971724323738
 30
0.0
 11
155.95791545484369
 21
111.0971724323738
 31
0.0
  0
LINE
  5
56B4C
  8
1
 10
125.4469333838268
 20
27.493049474409538
 30
0.0
 11
125.4469333838268
 21
62.299613843031871
 31
0.0
  0
LINE
  5
56B61
  8
1
 10
44.985674683156269
 20
27.83596370500381
 30
0.0
 11
44.985674683156269
 21
62.299613843031871
 31
0.0
  0
ARC
  5
56CEF
  8
0
 10
125.4469333838265
 20
111.0971724323737
 30
0.0
 40
27.500000000000298
 50
354.1507849007869
 51
5.8492150992129934
  0
ARC
  5
56CF0
  8
0
 10
125.4469333838269
 20
111.0971724323737
 30
0.0
 40
27.500000000000298
 50
174.15078490078699
 51
185.84921509921301
  0
POLYLINE
  5
56D04
  8
0
 66
     1
 10
0.0
 20
0.0
 30
0.0
  0
VERTEX
  5
57B86
  8
0
 10
152.80375567723181
 20
113.8997202030743
 30
0.0
  0
VERTEX
  5
57B87
  8
0
 10
152.79781771398461
 20
113.9487189021673
 30
0.0
  0
VERTEX
  5
57B88
  8
0
 10
152.7805016627953
 20
114.04599291174971
 30
0.0
  0
VERTEX
  5
57B89
  8
0
 10
152.75595695952001
 20
114.1419641731752
 30
0.0
  0
VERTEX
  5
57B8A
  8
0
 10
152.7409837204724
 20
114.1893314269071
 30
0.0
  0
VERTEX
  5
57B8B
  8
0
 10
152.72421528223819
 20
114.23621647909189
 30
0.0
  0
VERTEX
  5
57B8C
  8
0
 10
152.685309200727
 20
114.328327255179
 30
0.0
  0
VERTEX
  5
57B8D
  8
0
 10
152.63927145742909
 20
114.4178647252543
 30
0.0
  0
VERTEX
  5
57B8E
  8
0
 10
152.5861183343622
 20
114.5044079710747
 30
0.0
  0
VERTEX
  5
57B8F
  8
0
 10
152.525818891206
 20
114.5875627990314
 30
0.0
  0
VERTEX
  5
57B90
  8
0
 10
152.4584135820248
 20
114.6667898567721
 30
0.0
  0
VERTEX
  5
57B91
  8
0
 10
152.4220648335768
 20
114.7047528395053
 30
0.0
  0
VERTEX
  5
57B92
  8
0
 10
152.3839633657492
 20
114.7415179315967
 30
0.0
  0
VERTEX
  5
57B93
  8
0
 10
152.30253974496699
 20
114.81115149358141
 30
0.0
  0
VERTEX
  5
57B94
  8
0
 10
152.214222199028
 20
114.8750628409382
 30
0.0
  0
VERTEX
  5
57B95
  8
0
 10
152.11909498751299
 20
114.9325817969403
 30
0.0
  0
VERTEX
  5
57B96
  8
0
 10
152.01706626001979
 20
114.98305998341959
 30
0.0
  0
VERTEX
  5
57B97
  8
0
 10
151.9082119436805
 20
115.025642601947
 30
0.0
  0
VERTEX
  5
57B98
  8
0
 10
151.85131447702719
 20
115.0436590230434
 30
0.0
  0
VERTEX
  5
57B99
  8
0
 10
151.7928235353549
 20
115.0593170974587
 30
0.0
  0
VERTEX
  5
57B9A
  8
0
 10
151.67117616140609
 20
115.0830110884195
 30
0.0
  0
VERTEX
  5
57B9B
  8
0
 10
151.54338000868191
 20
115.0955371515664
 30
0.0
  0
VERTEX
  5
57B9C
  8
0
 10
151.47736429330899
 20
115.0971724323738
 30
0.0
  0
SEQEND
  5
57B9D
  8
0
  0
POLYLINE
  5
56D09
  8
0
 66
     1
 10
0.0
 20
0.0
 30
0.0
  0
VERTEX
  5
57B9E
  8
0
 10
151.47736429330911
 20
107.0971724323738
 30
0.0
  0
VERTEX
  5
57B9F
  8
0
 10
151.54338000868191
 20
107.0988077131811
 30
0.0
  0
VERTEX
  5
57BA0
  8
0
 10
151.6711761614059
 20
107.1113337763279
 30
0.0
  0
VERTEX
  5
57BA1
  8
0
 10
151.7928235353547
 20
107.1350277672889
 30
0.0
  0
VERTEX
  5
57BA2
  8
0
 10
151.8513144770269
 20
107.1506858417041
 30
0.0
  0
VERTEX
  5
57BA3
  8
0
 10
151.90821194368019
 20
107.16870226280049
 30
0.0
  0
VERTEX
  5
57BA4
  8
0
 10
152.0170662600195
 20
107.2112848813278
 30
0.0
  0
VERTEX
  5
57BA5
  8
0
 10
152.1190949875126
 20
107.261763067807
 30
0.0
  0
VERTEX
  5
57BA6
  8
0
 10
152.21422219902749
 20
107.319282023809
 30
0.0
  0
VERTEX
  5
57BA7
  8
0
 10
152.3025397449664
 20
107.3831933711658
 30
0.0
  0
VERTEX
  5
57BA8
  8
0
 10
152.38396336574871
 20
107.4528269331505
 30
0.0
  0
VERTEX
  5
57BA9
  8
0
 10
152.42206483357629
 20
107.48959202524181
 30
0.0
  0
VERTEX
  5
57BAA
  8
0
 10
152.45841358202441
 20
107.5275550079749
 30
0.0
  0
VERTEX
  5
57BAB
  8
0
 10
152.52581889120549
 20
107.60678206571561
 30
0.0
  0
VERTEX
  5
57BAC
  8
0
 10
152.5861183343618
 20
107.6899368936722
 30
0.0
  0
VERTEX
  5
57BAD
  8
0
 10
152.63927145742861
 20
107.77648013949261
 30
0.0
  0
VERTEX
  5
57BAE
  8
0
 10
152.68530920072681
 20
107.86601760956781
 30
0.0
  0
VERTEX
  5
57BAF
  8
0
 10
152.72421528223799
 20
107.9581283856551
 30
0.0
  0
VERTEX
  5
57BB0
  8
0
 10
152.7409837204722
 20
108.00501343784001
 30
0.0
  0
VERTEX
  5
57BB1
  8
0
 10
152.75595695951989
 20
108.052380691572
 30
0.0
  0
VERTEX
  5
57BB2
  8
0
 10
152.78050166279519
 20
108.1483519529976
 30
0.0
  0
VERTEX
  5
57BB3
  8
0
 10
152.7978177139845
 20
108.24562596257989
 30
0.0
  0
VERTEX
  5
57BB4
  8
0
 10
152.80375567723181
 20
108.2946246616732
 30
0.0
  0
SEQEND
  5
57BB5
  8
0
  0
POLYLINE
  5
56D0A
  8
0
 66
     1
 10
0.0
 20
0.0
 30
0.0
  0
VERTEX
  5
57BB6
  8
0
 10
145.8056360639475
 20
107.69329509055559
 30
0.0
  0
VERTEX
  5
57BB7
  8
0
 10
145.98674386911009
 20
107.67425989319339
 30
0.0
  0
VERTEX
  5
57BB8
  8
0
 10
146.3574241255362
 20
107.63529982831361
 30
0.0
  0
VERTEX
  5
57BB9
  8
0
 10
146.73435487834831
 20
107.5956828097911
 30
0.0
  0
VERTEX
  5
57BBA
  8
0
 10
146.9232988077392
 20
107.5758240025844
 30
0.0
  0
VERTEX
  5
57BBB
  8
0
 10
147.11158822823481
 20
107.5560339870346
 30
0.0
  0
VERTEX
  5
57BBC
  8
0
 10
147.4834629715136
 20
107.51694837652769
 30
0.0
  0
VERTEX
  5
57BBD
  8
0
 10
147.8444630692548
 20
107.4790057373237
 30
0.0
  0
VERTEX
  5
57BBE
  8
0
 10
148.189313188293
 20
107.4427605292809
 30
0.0
  0
VERTEX
  5
57BBF
  8
0
 10
148.5181232689375
 20
107.40820119720721
 30
0.0
  0
VERTEX
  5
57BC0
  8
0
 10
148.8497072098375
 20
107.3733503206725
 30
0.0
  0
VERTEX
  5
57BC1
  8
0
 10
149.0157738618289
 20
107.3558960122118
 30
0.0
  0
VERTEX
  5
57BC2
  8
0
 10
149.18103246597249
 20
107.3385266330023
 30
0.0
  0
VERTEX
  5
57BC3
  8
0
 10
149.50633274717379
 20
107.3043361957149
 30
0.0
  0
VERTEX
  5
57BC4
  8
0
 10
149.82043900574851
 20
107.2713222976152
 30
0.0
  0
VERTEX
  5
57BC5
  8
0
 10
150.11880847694809
 20
107.2399624025181
 30
0.0
  0
VERTEX
  5
57BC6
  8
0
 10
150.3974543706386
 20
107.2106755389519
 30
0.0
  0
VERTEX
  5
57BC7
  8
0
 10
150.65372917390999
 20
107.1837399717361
 30
0.0
  0
VERTEX
  5
57BC8
  8
0
 10
150.7778643032002
 20
107.1706928439025
 30
0.0
  0
VERTEX
  5
57BC9
  8
0
 10
150.90091223190191
 20
107.1577599854553
 30
0.0
  0
VERTEX
  5
57BCA
  8
0
 10
151.14102161803771
 20
107.13252347204541
 30
0.0
  0
VERTEX
  5
57BCB
  8
0
 10
151.3691267045815
 20
107.108548661364
 30
0.0
  0
VERTEX
  5
57BCC
  8
0
 10
151.47736429330911
 20
107.0971724323738
 30
0.0
  0
SEQEND
  5
57BCD
  8
0
  0
POLYLINE
  5
56D0E
  8
0
 66
     1
 10
0.0
 20
0.0
 30
0.0
  0
VERTEX
  5
57BCE
  8
0
 10
151.47736429330911
 20
115.0971724323738
 30
0.0
  0
VERTEX
  5
57BCF
  8
0
 10
151.3691267045815
 20
115.0857962033835
 30
0.0
  0
VERTEX
  5
57BD0
  8
0
 10
151.14102161803771
 20
115.0618213927022
 30
0.0
  0
VERTEX
  5
57BD1
  8
0
 10
150.90091223190191
 20
115.03658487929221
 30
0.0
  0
VERTEX
  5
57BD2
  8
0
 10
150.77786430320009
 20
115.02365202084501
 30
0.0
  0
VERTEX
  5
57BD3
  8
0
 10
150.65372917390999
 20
115.0106048930114
 30
0.0
  0
VERTEX
  5
57BD4
  8
0
 10
150.3974543706386
 20
114.9836693257956
 30
0.0
  0
VERTEX
  5
57BD5
  8
0
 10
150.11880847694809
 20
114.9543824622294
 30
0.0
  0
VERTEX
  5
57BD6
  8
0
 10
149.82043900574851
 20
114.92302256713241
 30
0.0
  0
VERTEX
  5
57BD7
  8
0
 10
149.50633274717379
 20
114.8900086690327
 30
0.0
  0
VERTEX
  5
57BD8
  8
0
 10
149.18103246597249
 20
114.8558182317454
 30
0.0
  0
VERTEX
  5
57BD9
  8
0
 10
149.0157738618289
 20
114.83844885253571
 30
0.0
  0
VERTEX
  5
57BDA
  8
0
 10
148.8497072098375
 20
114.82099454407511
 30
0.0
  0
VERTEX
  5
57BDB
  8
0
 10
148.5181232689375
 20
114.7861436675404
 30
0.0
  0
VERTEX
  5
57BDC
  8
0
 10
148.189313188293
 20
114.7515843354666
 30
0.0
  0
VERTEX
  5
57BDD
  8
0
 10
147.8444630692548
 20
114.7153391274238
 30
0.0
  0
VERTEX
  5
57BDE
  8
0
 10
147.4834629715136
 20
114.6773964882199
 30
0.0
  0
VERTEX
  5
57BDF
  8
0
 10
147.11158822823481
 20
114.6383108777129
 30
0.0
  0
VERTEX
  5
57BE0
  8
0
 10
146.9232988077392
 20
114.61852086216309
 30
0.0
  0
VERTEX
  5
57BE1
  8
0
 10
146.73435487834831
 20
114.59866205495641
 30
0.0
  0
VERTEX
  5
57BE2
  8
0
 10
146.3574241255362
 20
114.559045036434
 30
0.0
  0
VERTEX
  5
57BE3
  8
0
 10
145.98674386911009
 20
114.5200849715543
 30
0.0
  0
VERTEX
  5
57BE4
  8
0
 10
145.80563606394739
 20
114.501049774192
 30
0.0
  0
SEQEND
  5
57BE5
  8
0
  0
POLYLINE
  5
56D0F
  8
0
 66
     1
 10
0.0
 20
0.0
 30
0.0
  0
VERTEX
  5
57BE6
  8
0
 10
99.416502474344497
 20
107.0971724323738
 30
0.0
  0
VERTEX
  5
57BE7
  8
0
 10
99.524740063072045
 20
107.108548661364
 30
0.0
  0
VERTEX
  5
57BE8
  8
0
 10
99.752845149615837
 20
107.13252347204541
 30
0.0
  0
VERTEX
  5
57BE9
  8
0
 10
99.992954535751792
 20
107.1577599854553
 30
0.0
  0
VERTEX
  5
57BEA
  8
0
 10
100.1160024644534
 20
107.1706928439025
 30
0.0
  0
VERTEX
  5
57BEB
  8
0
 10
100.2401375937435
 20
107.1837399717361
 30
0.0
  0
VERTEX
  5
57BEC
  8
0
 10
100.49641239701511
 20
107.2106755389519
 30
0.0
  0
VERTEX
  5
57BED
  8
0
 10
100.7750582907055
 20
107.2399624025181
 30
0.0
  0
VERTEX
  5
57BEE
  8
0
 10
101.07342776190509
 20
107.2713222976152
 30
0.0
  0
VERTEX
  5
57BEF
  8
0
 10
101.38753402047971
 20
107.3043361957149
 30
0.0
  0
VERTEX
  5
57BF0
  8
0
 10
101.712834301681
 20
107.3385266330022
 30
0.0
  0
VERTEX
  5
57BF1
  8
0
 10
101.8780929058246
 20
107.3558960122118
 30
0.0
  0
VERTEX
  5
57BF2
  8
0
 10
102.0441595578161
 20
107.3733503206724
 30
0.0
  0
VERTEX
  5
57BF3
  8
0
 10
102.37574349871601
 20
107.40820119720721
 30
0.0
  0
VERTEX
  5
57BF4
  8
0
 10
102.70455357936051
 20
107.4427605292809
 30
0.0
  0
VERTEX
  5
57BF5
  8
0
 10
103.04940369839871
 20
107.4790057373237
 30
0.0
  0
VERTEX
  5
57BF6
  8
0
 10
103.4104037961399
 20
107.51694837652769
 30
0.0
  0
VERTEX
  5
57BF7
  8
0
 10
103.7822785394187
 20
107.5560339870346
 30
0.0
  0
VERTEX
  5
57BF8
  8
0
 10
103.9705679599144
 20
107.5758240025844
 30
0.0
  0
VERTEX
  5
57BF9
  8
0
 10
104.15951188930531
 20
107.5956828097911
 30
0.0
  0
VERTEX
  5
57BFA
  8
0
 10
104.53644264211739
 20
107.63529982831361
 30
0.0
  0
VERTEX
  5
57BFB
  8
0
 10
104.90712289854351
 20
107.67425989319339
 30
0.0
  0
VERTEX
  5
57BFC
  8
0
 10
105.0882307037061
 20
107.69329509055559
 30
0.0
  0
SEQEND
  5
57BFD
  8
0
  0
POLYLINE
  5
56D10
  8
0
 66
     1
 10
0.0
 20
0.0
 30
0.0
  0
VERTEX
  5
57BFE
  8
0
 10
98.090111090421715
 20
108.2946246616732
 30
0.0
  0
VERTEX
  5
57BFF
  8
0
 10
98.096049053668935
 20
108.24562596258041
 30
0.0
  0
VERTEX
  5
57C00
  8
0
 10
98.11336510485819
 20
108.148351952998
 30
0.0
  0
VERTEX
  5
57C01
  8
0
 10
98.137909808133372
 20
108.05238069157279
 30
0.0
  0
VERTEX
  5
57C02
  8
0
 10
98.152883047181035
 20
108.0050134378411
 30
0.0
  0
VERTEX
  5
57C03
  8
0
 10
98.169651485415116
 20
107.95812838565629
 30
0.0
  0
VERTEX
  5
57C04
  8
0
 10
98.208557566925947
 20
107.8660176095695
 30
0.0
  0
VERTEX
  5
57C05
  8
0
 10
98.254595310223735
 20
107.7764801394945
 30
0.0
  0
VERTEX
  5
57C06
  8
0
 10
98.307748433290612
 20
107.6899368936739
 30
0.0
  0
VERTEX
  5
57C07
  8
0
 10
98.368047876446894
 20
107.6067820657172
 30
0.0
  0
VERTEX
  5
57C08
  8
0
 10
98.435453185627921
 20
107.5275550079763
 30
0.0
  0
VERTEX
  5
57C09
  8
0
 10
98.471801934075984
 20
107.489592025243
 30
0.0
  0
VERTEX
  5
57C0A
  8
0
 10
98.509903401903571
 20
107.4528269331516
 30
0.0
  0
VERTEX
  5
57C0B
  8
0
 10
98.591327022685846
 20
107.3831933711668
 30
0.0
  0
VERTEX
  5
57C0C
  8
0
 10
98.679644568624894
 20
107.31928202380981
 30
0.0
  0
VERTEX
  5
57C0D
  8
0
 10
98.774771780139886
 20
107.26176306780761
 30
0.0
  0
VERTEX
  5
57C0E
  8
0
 10
98.876800507633106
 20
107.2112848813282
 30
0.0
  0
VERTEX
  5
57C0F
  8
0
 10
98.985654823972482
 20
107.16870226280071
 30
0.0
  0
VERTEX
  5
57C10
  8
0
 10
99.042552290625835
 20
107.1506858417043
 30
0.0
  0
VERTEX
  5
57C11
  8
0
 10
99.101043232298139
 20
107.135027767289
 30
0.0
  0
VERTEX
  5
57C12
  8
0
 10
99.22269060624717
 20
107.111333776328
 30
0.0
  0
VERTEX
  5
57C13
  8
0
 10
99.35048675897157
 20
107.0988077131811
 30
0.0
  0
VERTEX
  5
57C14
  8
0
 10
99.416502474344497
 20
107.0971724323738
 30
0.0
  0
SEQEND
  5
57C15
  8
0
  0
POLYLINE
  5
56D16
  8
0
 66
     1
 10
0.0
 20
0.0
 30
0.0
  0
VERTEX
  5
57C16
  8
0
 10
99.416502474344497
 20
115.0971724323738
 30
0.0
  0
VERTEX
  5
57C17
  8
0
 10
99.35048675897157
 20
115.0955371515664
 30
0.0
  0
VERTEX
  5
57C18
  8
0
 10
99.22269060624717
 20
115.0830110884195
 30
0.0
  0
VERTEX
  5
57C19
  8
0
 10
99.101043232298252
 20
115.0593170974586
 30
0.0
  0
VERTEX
  5
57C1A
  8
0
 10
99.042552290625963
 20
115.0436590230433
 30
0.0
  0
VERTEX
  5
57C1B
  8
0
 10
98.985654823972595
 20
115.0256426019468
 30
0.0
  0
VERTEX
  5
57C1C
  8
0
 10
98.87680050763322
 20
114.98305998341939
 30
0.0
  0
VERTEX
  5
57C1D
  8
0
 10
98.774771780140114
 20
114.9325817969401
 30
0.0
  0
VERTEX
  5
57C1E
  8
0
 10
98.679644568625122
 20
114.875062840938
 30
0.0
  0
VERTEX
  5
57C1F
  8
0
 10
98.591327022686187
 20
114.81115149358089
 30
0.0
  0
VERTEX
  5
57C20
  8
0
 10
98.509903401903898
 20
114.74151793159631
 30
0.0
  0
VERTEX
  5
57C21
  8
0
 10
98.471801934076325
 20
114.70475283950481
 30
0.0
  0
VERTEX
  5
57C22
  8
0
 10
98.435453185628262
 20
114.6667898567716
 30
0.0
  0
VERTEX
  5
57C23
  8
0
 10
98.368047876447235
 20
114.58756279903081
 30
0.0
  0
VERTEX
  5
57C24
  8
0
 10
98.307748433290953
 20
114.5044079710741
 30
0.0
  0
VERTEX
  5
57C25
  8
0
 10
98.254595310224104
 20
114.41786472525359
 30
0.0
  0
VERTEX
  5
57C26
  8
0
 10
98.208557566926174
 20
114.32832725517839
 30
0.0
  0
VERTEX
  5
57C27
  8
0
 10
98.169651485415216
 20
114.2362164790916
 30
0.0
  0
VERTEX
  5
57C28
  8
0
 10
98.152883047181163
 20
114.1893314269068
 30
0.0
  0
VERTEX
  5
57C29
  8
0
 10
98.137909808133486
 20
114.141964173175
 30
0.0
  0
VERTEX
  5
57C2A
  8
0
 10
98.11336510485819
 20
114.04599291174959
 30
0.0
  0
VERTEX
  5
57C2B
  8
0
 10
98.096049053668935
 20
113.9487189021672
 30
0.0
  0
VERTEX
  5
57C2C
  8
0
 10
98.090111090421715
 20
113.8997202030743
 30
0.0
  0
SEQEND
  5
57C2D
  8
0
  0
POLYLINE
  5
56D17
  8
0
 66
     1
 10
0.0
 20
0.0
 30
0.0
  0
VERTEX
  5
57C2E
  8
0
 10
105.088230703706
 20
114.501049774192
 30
0.0
  0
VERTEX
  5
57C2F
  8
0
 10
104.90712289854341
 20
114.5200849715543
 30
0.0
  0
VERTEX
  5
57C30
  8
0
 10
104.53644264211729
 20
114.559045036434
 30
0.0
  0
VERTEX
  5
57C31
  8
0
 10
104.15951188930519
 20
114.59866205495641
 30
0.0
  0
VERTEX
  5
57C32
  8
0
 10
103.97056795991431
 20
114.61852086216309
 30
0.0
  0
VERTEX
  5
57C33
  8
0
 10
103.7822785394187
 20
114.638310877713
 30
0.0
  0
VERTEX
  5
57C34
  8
0
 10
103.4104037961399
 20
114.6773964882199
 30
0.0
  0
VERTEX
  5
57C35
  8
0
 10
103.04940369839871
 20
114.7153391274238
 30
0.0
  0
VERTEX
  5
57C36
  8
0
 10
102.70455357936051
 20
114.7515843354666
 30
0.0
  0
VERTEX
  5
57C37
  8
0
 10
102.37574349871601
 20
114.7861436675404
 30
0.0
  0
VERTEX
  5
57C38
  8
0
 10
102.044159557816
 20
114.82099454407511
 30
0.0
  0
VERTEX
  5
57C39
  8
0
 10
101.8780929058246
 20
114.83844885253571
 30
0.0
  0
VERTEX
  5
57C3A
  8
0
 10
101.712834301681
 20
114.8558182317454
 30
0.0
  0
VERTEX
  5
57C3B
  8
0
 10
101.38753402047971
 20
114.8900086690327
 30
0.0
  0
VERTEX
  5
57C3C
  8
0
 10
101.07342776190509
 20
114.92302256713241
 30
0.0
  0
VERTEX
  5
57C3D
  8
0
 10
100.7750582907055
 20
114.9543824622294
 30
0.0
  0
VERTEX
  5
57C3E
  8
0
 10
100.49641239701501
 20
114.9836693257956
 30
0.0
  0
VERTEX
  5
57C3F
  8
0
 10
100.2401375937435
 20
115.0106048930114
 30
0.0
  0
VERTEX
  5
57C40
  8
0
 10
100.1160024644534
 20
115.02365202084501
 30
0.0
  0
VERTEX
  5
57C41
  8
0
 10
99.992954535751792
 20
115.03658487929221
 30
0.0
  0
VERTEX
  5
57C42
  8
0
 10
99.752845149615837
 20
115.0618213927022
 30
0.0
  0
VERTEX
  5
57C43
  8
0
 10
99.524740063072045
 20
115.0857962033835
 30
0.0
  0
VERTEX
  5
57C44
  8
0
 10
99.416502474344497
 20
115.0971724323738
 30
0.0
  0
SEQEND
  5
57C45
  8
0
  0
POLYLINE
  5
56D22
  8
0
 66
     1
 10
0.0
 20
0.0
 30
0.0
  0
VERTEX
  5
57C46
  8
0
 10
145.80563606394031
 20
107.6932950905564
 30
0.0
  0
VERTEX
  5
57C47
  8
0
 10
145.73903325430649
 20
107.7002953279294
 30
0.0
  0
VERTEX
  5
57C48
  8
0
 10
145.60589016488191
 20
107.7142892305243
 30
0.0
  0
VERTEX
  5
57C49
  8
0
 10
145.472870647116
 20
107.72827014521449
 30
0.0
  0
VERTEX
  5
57C4A
  8
0
 10
145.40642229156131
 20
107.7352541488098
 30
0.0
  0
VERTEX
  5
57C4B
  8
0
 10
145.34002289854359
 20
107.742233006235
 30
0.0
  0
VERTEX
  5
57C4C
  8
0
 10
145.20739505446181
 20
107.7561727543622
 30
0.0
  0
VERTEX
  5
57C4D
  8
0
 10
145.0750351704886
 20
107.770084338747
 30
0.0
  0
VERTEX
  5
57C4E
  8
0
 10
144.94299120515089
 20
107.7839627187452
 30
0.0
  0
VERTEX
  5
57C4F
  8
0
 10
144.81131100250769
 20
107.79780286574371
 30
0.0
  0
VERTEX
  5
57C50
  8
0
 10
144.6800422748139
 20
107.8115997649822
 30
0.0
  0
VERTEX
  5
57C51
  8
0
 10
144.61457708385711
 20
107.8184804338143
 30
0.0
  0
VERTEX
  5
57C52
  8
0
 10
144.54923258523311
 20
107.8253484173711
 30
0.0
  0
VERTEX
  5
57C53
  8
0
 10
144.4189293306035
 20
107.8390438413014
 30
0.0
  0
VERTEX
  5
57C54
  8
0
 10
144.2891797242649
 20
107.85268107445179
 30
0.0
  0
VERTEX
  5
57C55
  8
0
 10
144.16003077895101
 20
107.8662551755843
 30
0.0
  0
VERTEX
  5
57C56
  8
0
 10
144.0315292897555
 20
107.8797612263366
 30
0.0
  0
VERTEX
  5
57C57
  8
0
 10
143.90372181717649
 20
107.89319433300339
 30
0.0
  0
VERTEX
  5
57C58
  8
0
 10
143.84009281897301
 20
107.8998820102002
 30
0.0
  0
VERTEX
  5
57C59
  8
0
 10
143.7766546702461
 20
107.90654962830889
 30
0.0
  0
VERTEX
  5
57C5A
  8
0
 10
143.65037388975111
 20
107.9198222731716
 30
0.0
  0
VERTEX
  5
57C5B
  8
0
 10
143.52492523155061
 20
107.9330074584568
 30
0.0
  0
VERTEX
  5
57C5C
  8
0
 10
143.46252716502471
 20
107.9395657595211
 30
0.0
  0
SEQEND
  5
57C5D
  8
0
  0
POLYLINE
  5
56D23
  8
0
 66
     1
 10
0.0
 20
0.0
 30
0.0
  0
VERTEX
  5
57C5E
  8
0
 10
143.46252716502471
 20
114.2547791052265
 30
0.0
  0
VERTEX
  5
57C5F
  8
0
 10
143.52492523155061
 20
114.26133740629071
 30
0.0
  0
VERTEX
  5
57C60
  8
0
 10
143.65037388975111
 20
114.274522591576
 30
0.0
  0
VERTEX
  5
57C61
  8
0
 10
143.7766546702461
 20
114.2877952364387
 30
0.0
  0
VERTEX
  5
57C62
  8
0
 10
143.84009281897301
 20
114.29446285454731
 30
0.0
  0
VERTEX
  5
57C63
  8
0
 10
143.9037218171764
 20
114.3011505317442
 30
0.0
  0
VERTEX
  5
57C64
  8
0
 10
144.0315292897555
 20
114.31458363841089
 30
0.0
  0
VERTEX
  5
57C65
  8
0
 10
144.16003077895101
 20
114.32808968916331
 30
0.0
  0
VERTEX
  5
57C66
  8
0
 10
144.2891797242649
 20
114.3416637902959
 30
0.0
  0
VERTEX
  5
57C67
  8
0
 10
144.4189293306035
 20
114.3553010234461
 30
0.0
  0
VERTEX
  5
57C68
  8
0
 10
144.54923258523311
 20
114.3689964473766
 30
0.0
  0
VERTEX
  5
57C69
  8
0
 10
144.61457708385711
 20
114.37586443093321
 30
0.0
  0
VERTEX
  5
57C6A
  8
0
 10
144.6800422748139
 20
114.3827450997653
 30
0.0
  0
VERTEX
  5
57C6B
  8
0
 10
144.81131100250769
 20
114.3965419990038
 30
0.0
  0
VERTEX
  5
57C6C
  8
0
 10
144.94299120515089
 20
114.41038214600231
 30
0.0
  0
VERTEX
  5
57C6D
  8
0
 10
145.0750351704886
 20
114.42426052600059
 30
0.0
  0
VERTEX
  5
57C6E
  8
0
 10
145.20739505446181
 20
114.43817211038539
 30
0.0
  0
VERTEX
  5
57C6F
  8
0
 10
145.34002289854359
 20
114.45211185851259
 30
0.0
  0
VERTEX
  5
57C70
  8
0
 10
145.40642229156131
 20
114.4590907159378
 30
0.0
  0
VERTEX
  5
57C71
  8
0
 10
145.472870647116
 20
114.466074719533
 30
0.0
  0
VERTEX
  5
57C72
  8
0
 10
145.60589016488191
 20
114.48005563422331
 30
0.0
  0
VERTEX
  5
57C73
  8
0
 10
145.73903325430649
 20
114.4940495368181
 30
0.0
  0
VERTEX
  5
57C74
  8
0
 10
145.8056360639402
 20
114.5010497741912
 30
0.0
  0
SEQEND
  5
57C75
  8
0
  0
POLYLINE
  5
56D26
  8
0
 66
     1
 10
0.0
 20
0.0
 30
0.0
  0
VERTEX
  5
57C76
  8
0
 10
107.4313396026289
 20
114.2547791052265
 30
0.0
  0
VERTEX
  5
57C77
  8
0
 10
107.6904821680147
 20
114.2275421240669
 30
0.0
  0
VERTEX
  5
57C78
  8
0
 10
108.2096772453778
 20
114.1729725225068
 30
0.0
  0
VERTEX
  5
57C79
  8
0
 10
108.7300558687058
 20
114.1182785252533
 30
0.0
  0
VERTEX
  5
57C7A
  8
0
 10
108.99067784750071
 20
114.09088605147871
 30
0.0
  0
SEQEND
  5
57C7B
  8
0
  0
POLYLINE
  5
56D27
  8
0
 66
     1
 10
0.0
 20
0.0
 30
0.0
  0
VERTEX
  5
57C7C
  8
0
 10
108.99067784750071
 20
114.09088605147871
 30
0.0
  0
VERTEX
  5
57C7D
  8
0
 10
109.32653369386681
 20
114.0591621928851
 30
0.0
  0
VERTEX
  5
57C7E
  8
0
 10
110.00250938728411
 20
114.01688044179009
 30
0.0
  0
VERTEX
  5
57C7F
  8
0
 10
110.68272028473901
 20
114.0032483664864
 30
0.0
  0
VERTEX
  5
57C80
  8
0
 10
111.0238653812652
 20
114.0073033837464
 30
0.0
  0
VERTEX
  5
57C81
  8
0
 10
111.365410602312
 20
114.01865610342681
 30
0.0
  0
VERTEX
  5
57C82
  8
0
 10
112.0488135130319
 20
114.0633527443028
 30
0.0
  0
VERTEX
  5
57C83
  8
0
 10
112.7311418510568
 20
114.1374448601975
 30
0.0
  0
VERTEX
  5
57C84
  8
0
 10
113.4108928037889
 20
114.24094537992001
 30
0.0
  0
VERTEX
  5
57C85
  8
0
 10
114.0866593672518
 20
114.37379400115429
 30
0.0
  0
VERTEX
  5
57C86
  8
0
 10
114.75665110462459
 20
114.5357507493201
 30
0.0
  0
VERTEX
  5
57C87
  8
0
 10
115.08892878334071
 20
114.6275304103705
 30
0.0
  0
VERTEX
  5
57C88
  8
0
 10
115.4191033608453
 20
114.72643211738919
 30
0.0
  0
VERTEX
  5
57C89
  8
0
 10
116.07227555876899
 20
114.94530891077331
 30
0.0
  0
VERTEX
  5
57C8A
  8
0
 10
116.7144585825875
 20
115.1917049968019
 30
0.0
  0
VERTEX
  5
57C8B
  8
0
 10
117.3440449969262
 20
115.4648245534989
 30
0.0
  0
VERTEX
  5
57C8C
  8
0
 10
117.9594364016934
 20
115.7637153018099
 30
0.0
  0
VERTEX
  5
57C8D
  8
0
 10
118.5590726130703
 20
116.0872692270358
 30
0.0
  0
VERTEX
  5
57C8E
  8
0
 10
118.8525169448142
 20
116.2579100858876
 30
0.0
  0
VERTEX
  5
57C8F
  8
0
 10
119.1414723392283
 20
116.43423617640011
 30
0.0
  0
VERTEX
  5
57C90
  8
0
 10
119.70522438965099
 20
116.80321410469421
 30
0.0
  0
VERTEX
  5
57C91
  8
0
 10
120.2509252642807
 20
117.19408947062939
 30
0.0
  0
VERTEX
  5
57C92
  8
0
 10
120.5190000091455
 20
117.39919374737291
 30
0.0
  0
SEQEND
  5
57C93
  8
0
  0
POLYLINE
  5
56D28
  8
0
 66
     1
 10
0.0
 20
0.0
 30
0.0
  0
VERTEX
  5
57C94
  8
0
 10
120.5190000091455
 20
117.39919374737291
 30
0.0
  0
VERTEX
  5
57C95
  8
0
 10
120.5573685093254
 20
117.42900908045959
 30
0.0
  0
VERTEX
  5
57C96
  8
0
 10
120.6347902534155
 20
117.488047058936
 30
0.0
  0
VERTEX
  5
57C97
  8
0
 10
120.713110995224
 20
117.5462751291187
 30
0.0
  0
VERTEX
  5
57C98
  8
0
 10
120.75260311970619
 20
117.575078218302
 30
0.0
  0
VERTEX
  5
57C99
  8
0
 10
120.7923134868754
 20
117.6036702318741
 30
0.0
  0
VERTEX
  5
57C9A
  8
0
 10
120.87237999620071
 20
117.6602099382668
 30
0.0
  0
VERTEX
  5
57C9B
  8
0
 10
120.95329234812949
 20
117.7158724740963
 30
0.0
  0
VERTEX
  5
57C9C
  8
0
 10
121.0350321808845
 20
117.77063688312769
 30
0.0
  0
VERTEX
  5
57C9D
  8
0
 10
121.1175815515967
 20
117.82448338941801
 30
0.0
  0
VERTEX
  5
57C9E
  8
0
 10
121.20092159418751
 20
117.877392479116
 30
0.0
  0
VERTEX
  5
57C9F
  8
0
 10
121.2428820376758
 20
117.90348951864939
 30
0.0
  0
VERTEX
  5
57CA0
  8
0
 10
121.2850327801294
 20
117.9293451003428
 30
0.0
  0
VERTEX
  5
57CA1
  8
0
 10
121.36989500522751
 20
117.980322732885
 30
0.0
  0
VERTEX
  5
57CA2
  8
0
 10
121.45548762561209
 20
118.0303074201863
 30
0.0
  0
VERTEX
  5
57CA3
  8
0
 10
121.54178949487959
 20
118.0792817989347
 30
0.0
  0
VERTEX
  5
57CA4
  8
0
 10
121.628779002412
 20
118.1272291262904
 30
0.0
  0
VERTEX
  5
57CA5
  8
0
 10
121.7164341129144
 20
118.1741333047909
 30
0.0
  0
VERTEX
  5
57CA6
  8
0
 10
121.76050427713891
 20
118.19718936484411
 30
0.0
  0
VERTEX
  5
57CA7
  8
0
 10
121.80473240720561
 20
118.21997890495889
 30
0.0
  0
VERTEX
  5
57CA8
  8
0
 10
121.8936511243063
 20
118.2647511856332
 30
0.0
  0
VERTEX
  5
57CA9
  8
0
 10
121.983167204862
 20
118.30843611202521
 30
0.0
  0
VERTEX
  5
57CAA
  8
0
 10
122.02814197979789
 20
118.3298666285733
 30
0.0
  0
VERTEX
  5
57CAB
  8
0
 10
122.07325733594951
 20
118.35102037150089
 30
0.0
  0
VERTEX
  5
57CAC
  8
0
 10
122.16389799730359
 20
118.39249138707591
 30
0.0
  0
VERTEX
  5
57CAD
  8
0
 10
122.255065509011
 20
118.4328373285996
 30
0.0
  0
VERTEX
  5
57CAE
  8
0
 10
122.3008394021963
 20
118.45258490610679
 30
0.0
  0
VERTEX
  5
57CAF
  8
0
 10
122.3467360807079
 20
118.4720471215963
 30
0.0
  0
VERTEX
  5
57CB0
  8
0
 10
122.43888912565281
 20
118.510111777928
 30
0.0
  0
VERTEX
  5
57CB1
  8
0
 10
122.5315144536353
 20
118.5470269585696
 30
0.0
  0
VERTEX
  5
57CB2
  8
0
 10
122.624589390251
 20
118.5827835885804
 30
0.0
  0
VERTEX
  5
57CB3
  8
0
 10
122.7180892471104
 20
118.6173725412478
 30
0.0
  0
VERTEX
  5
57CB4
  8
0
 10
122.8119888747337
 20
118.6507853052976
 30
0.0
  0
VERTEX
  5
57CB5
  8
0
 10
122.8590806273647
 20
118.6670481322035
 30
0.0
  0
VERTEX
  5
57CB6
  8
0
 10
122.906262703556
 20
118.68301401353079
 30
0.0
  0
VERTEX
  5
57CB7
  8
0
 10
123.0008847857313
 20
118.71405146881349
 30
0.0
  0
VERTEX
  5
57CB8
  8
0
 10
123.09582883774419
 20
118.74389116745159
 30
0.0
  0
VERTEX
  5
57CB9
  8
0
 10
123.1910682838471
 20
118.7725273199795
 30
0.0
  0
VERTEX
  5
57CBA
  8
0
 10
123.2865763003491
 20
118.799954869381
 30
0.0
  0
VERTEX
  5
57CBB
  8
0
 10
123.3823258607846
 20
118.82616950675531
 30
0.0
  0
VERTEX
  5
57CBC
  8
0
 10
123.4302827300824
 20
118.83882084474379
 30
0.0
  0
VERTEX
  5
57CBD
  8
0
 10
123.4782897819979
 20
118.8511676844344
 30
0.0
  0
VERTEX
  5
57CBE
  8
0
 10
123.5744407711819
 20
118.8749466265498
 30
0.0
  0
VERTEX
  5
57CBF
  8
0
 10
123.6707514739162
 20
118.89750433703691
 30
0.0
  0
VERTEX
  5
57CC0
  8
0
 10
123.7671945232491
 20
118.9188396050592
 30
0.0
  0
VERTEX
  5
57CC1
  8
0
 10
123.863742589876
 20
118.9389520078241
 30
0.0
  0
VERTEX
  5
57CC2
  8
0
 10
123.9603684321979
 20
118.9578419105155
 30
0.0
  0
VERTEX
  5
57CC3
  8
0
 10
124.0087020219821
 20
118.9668287495077
 30
0.0
  0
VERTEX
  5
57CC4
  8
0
 10
124.05704482720211
 20
118.9755104423962
 30
0.0
  0
VERTEX
  5
57CC5
  8
0
 10
124.153744235288
 20
118.99195943558691
 30
0.0
  0
VERTEX
  5
57CC6
  8
0
 10
124.250438717709
 20
119.007191428176
 30
0.0
  0
VERTEX
  5
57CC7
  8
0
 10
124.3470999837037
 20
119.0212096920019
 30
0.0
  0
VERTEX
  5
57CC8
  8
0
 10
124.4436994395649
 20
119.03401825757921
 30
0.0
  0
VERTEX
  5
57CC9
  8
0
 10
124.54020823785341
 20
119.04562193587179
 30
0.0
  0
VERTEX
  5
57CCA
  8
0
 10
124.5884195683447
 20
119.0509736637741
 30
0.0
  0
VERTEX
  5
57CCB
  8
0
 10
124.6365973267458
 20
119.056026336963
 30
0.0
  0
VERTEX
  5
57CCC
  8
0
 10
124.7328374995172
 20
119.0652378856699
 30
0.0
  0
VERTEX
  5
57CCD
  8
0
 10
124.82889944417281
 20
119.0732638341467
 30
0.0
  0
VERTEX
  5
57CCE
  8
0
 10
124.9247537932573
 20
119.0801122715053
 30
0.0
  0
VERTEX
  5
57CCF
  8
0
 10
125.0203711738788
 20
119.08579213048461
 30
0.0
  0
VERTEX
  5
57CD0
  8
0
 10
125.1157222580001
 20
119.0903131911824
 30
0.0
  0
VERTEX
  5
57CD1
  8
0
 10
125.16328879857561
 20
119.0921424604138
 30
0.0
  0
VERTEX
  5
57CD2
  8
0
 10
125.2107778130579
 20
119.09368608185839
 30
0.0
  0
VERTEX
  5
57CD3
  8
0
 10
125.3055087529857
 20
119.0959222768051
 30
0.0
  0
VERTEX
  5
57CD4
  8
0
 10
125.3998861897237
 20
119.097034091273
 30
0.0
  0
VERTEX
  5
57CD5
  8
0
 10
125.4469333838267
 20
119.0971724323738
 30
0.0
  0
VERTEX
  5
57CD6
  8
0
 10
125.4939805779298
 20
119.097034091273
 30
0.0
  0
VERTEX
  5
57CD7
  8
0
 10
125.5883580146678
 20
119.0959222768051
 30
0.0
  0
VERTEX
  5
57CD8
  8
0
 10
125.6830889545956
 20
119.09368608185839
 30
0.0
  0
VERTEX
  5
57CD9
  8
0
 10
125.7305779690779
 20
119.0921424604138
 30
0.0
  0
VERTEX
  5
57CDA
  8
0
 10
125.7781445096534
 20
119.0903131911824
 30
0.0
  0
VERTEX
  5
57CDB
  8
0
 10
125.87349559377471
 20
119.08579213048461
 30
0.0
  0
VERTEX
  5
57CDC
  8
0
 10
125.9691129743962
 20
119.0801122715053
 30
0.0
  0
VERTEX
  5
57CDD
  8
0
 10
126.0649673234807
 20
119.0732638341467
 30
0.0
  0
VERTEX
  5
57CDE
  8
0
 10
126.1610292681364
 20
119.0652378856699
 30
0.0
  0
VERTEX
  5
57CDF
  8
0
 10
126.25726944090771
 20
119.056026336963
 30
0.0
  0
VERTEX
  5
57CE0
  8
0
 10
126.3054471993088
 20
119.0509736637741
 30
0.0
  0
VERTEX
  5
57CE1
  8
0
 10
126.3536585298002
 20
119.04562193587179
 30
0.0
  0
VERTEX
  5
57CE2
  8
0
 10
126.4501673280886
 20
119.03401825757921
 30
0.0
  0
VERTEX
  5
57CE3
  8
0
 10
126.54676678394981
 20
119.0212096920019
 30
0.0
  0
VERTEX
  5
57CE4
  8
0
 10
126.6434280499445
 20
119.007191428176
 30
0.0
  0
VERTEX
  5
57CE5
  8
0
 10
126.7401225323656
 20
118.99195943558691
 30
0.0
  0
VERTEX
  5
57CE6
  8
0
 10
126.8368219404514
 20
118.9755104423962
 30
0.0
  0
VERTEX
  5
57CE7
  8
0
 10
126.8851647456714
 20
118.9668287495077
 30
0.0
  0
VERTEX
  5
57CE8
  8
0
 10
126.9334983354556
 20
118.9578419105155
 30
0.0
  0
VERTEX
  5
57CE9
  8
0
 10
127.03012417777749
 20
118.9389520078241
 30
0.0
  0
VERTEX
  5
57CEA
  8
0
 10
127.1266722444044
 20
118.9188396050592
 30
0.0
  0
VERTEX
  5
57CEB
  8
0
 10
127.22311529373729
 20
118.89750433703691
 30
0.0
  0
VERTEX
  5
57CEC
  8
0
 10
127.31942599647159
 20
118.8749466265498
 30
0.0
  0
VERTEX
  5
57CED
  8
0
 10
127.4155769856556
 20
118.8511676844344
 30
0.0
  0
VERTEX
  5
57CEE
  8
0
 10
127.463584037571
 20
118.83882084474379
 30
0.0
  0
VERTEX
  5
57CEF
  8
0
 10
127.5115409068689
 20
118.82616950675531
 30
0.0
  0
VERTEX
  5
57CF0
  8
0
 10
127.6072904673044
 20
118.799954869381
 30
0.0
  0
VERTEX
  5
57CF1
  8
0
 10
127.7027984838064
 20
118.7725273199795
 30
0.0
  0
VERTEX
  5
57CF2
  8
0
 10
127.7980379299093
 20
118.74389116745159
 30
0.0
  0
VERTEX
  5
57CF3
  8
0
 10
127.8929819819222
 20
118.71405146881349
 30
0.0
  0
VERTEX
  5
57CF4
  8
0
 10
127.9876040640977
 20
118.68301401353079
 30
0.0
  0
VERTEX
  5
57CF5
  8
0
 10
128.03478614028879
 20
118.6670481322035
 30
0.0
  0
VERTEX
  5
57CF6
  8
0
 10
128.08187789291989
 20
118.6507853052976
 30
0.0
  0
VERTEX
  5
57CF7
  8
0
 10
128.17577752054311
 20
118.6173725412478
 30
0.0
  0
VERTEX
  5
57CF8
  8
0
 10
128.26927737740249
 20
118.5827835885804
 30
0.0
  0
VERTEX
  5
57CF9
  8
0
 10
128.3623523140181
 20
118.5470269585696
 30
0.0
  0
VERTEX
  5
57CFA
  8
0
 10
128.4549776420005
 20
118.510111777928
 30
0.0
  0
VERTEX
  5
57CFB
  8
0
 10
128.54713068694559
 20
118.4720471215963
 30
0.0
  0
VERTEX
  5
57CFC
  8
0
 10
128.5930273654572
 20
118.45258490610679
 30
0.0
  0
VERTEX
  5
57CFD
  8
0
 10
128.6388012586425
 20
118.4328373285996
 30
0.0
  0
VERTEX
  5
57CFE
  8
0
 10
128.7299687703499
 20
118.39249138707591
 30
0.0
  0
VERTEX
  5
57CFF
  8
0
 10
128.82060943170401
 20
118.35102037150089
 30
0.0
  0
VERTEX
  5
57D00
  8
0
 10
128.86572478785561
 20
118.3298666285733
 30
0.0
  0
VERTEX
  5
57D01
  8
0
 10
128.91069956279151
 20
118.30843611202521
 30
0.0
  0
VERTEX
  5
57D02
  8
0
 10
129.00021564334719
 20
118.2647511856332
 30
0.0
  0
VERTEX
  5
57D03
  8
0
 10
129.08913436044779
 20
118.21997890495889
 30
0.0
  0
VERTEX
  5
57D04
  8
0
 10
129.1333624905146
 20
118.19718936484399
 30
0.0
  0
VERTEX
  5
57D05
  8
0
 10
129.17743265473931
 20
118.1741333047908
 30
0.0
  0
VERTEX
  5
57D06
  8
0
 10
129.2650877652415
 20
118.1272291262904
 30
0.0
  0
VERTEX
  5
57D07
  8
0
 10
129.3520772727739
 20
118.0792817989347
 30
0.0
  0
VERTEX
  5
57D08
  8
0
 10
129.43837914204141
 20
118.0303074201863
 30
0.0
  0
VERTEX
  5
57D09
  8
0
 10
129.52397176242599
 20
117.980322732885
 30
0.0
  0
VERTEX
  5
57D0A
  8
0
 10
129.60883398752409
 20
117.9293451003428
 30
0.0
  0
VERTEX
  5
57D0B
  8
0
 10
129.65098472997769
 20
117.90348951864939
 30
0.0
  0
VERTEX
  5
57D0C
  8
0
 10
129.692945173466
 20
117.877392479116
 30
0.0
  0
VERTEX
  5
57D0D
  8
0
 10
129.77628521605669
 20
117.82448338941801
 30
0.0
  0
VERTEX
  5
57D0E
  8
0
 10
129.85883458676901
 20
117.77063688312769
 30
0.0
  0
VERTEX
  5
57D0F
  8
0
 10
129.94057441952401
 20
117.7158724740963
 30
0.0
  0
VERTEX
  5
57D10
  8
0
 10
130.0214867714528
 20
117.6602099382668
 30
0.0
  0
VERTEX
  5
57D11
  8
0
 10
130.10155328077821
 20
117.6036702318741
 30
0.0
  0
VERTEX
  5
57D12
  8
0
 10
130.14126364794731
 20
117.575078218302
 30
0.0
  0
VERTEX
  5
57D13
  8
0
 10
130.18075577242951
 20
117.5462751291187
 30
0.0
  0
VERTEX
  5
57D14
  8
0
 10
130.25907651423799
 20
117.4880470589359
 30
0.0
  0
VERTEX
  5
57D15
  8
0
 10
130.33649825832811
 20
117.42900908045959
 30
0.0
  0
VERTEX
  5
57D16
  8
0
 10
130.37486675850801
 20
117.39919374737291
 30
0.0
  0
SEQEND
  5
57D17
  8
0
  0
POLYLINE
  5
56D29
  8
0
 66
     1
 10
0.0
 20
0.0
 30
0.0
  0
VERTEX
  5
57D18
  8
0
 10
130.37486675850801
 20
117.39919374737291
 30
0.0
  0
VERTEX
  5
57D19
  8
0
 10
130.6429415879048
 20
117.1940894073562
 30
0.0
  0
VERTEX
  5
57D1A
  8
0
 10
131.18864257007749
 20
116.8032139731218
 30
0.0
  0
VERTEX
  5
57D1B
  8
0
 10
131.75239456843551
 20
116.4342360889172
 30
0.0
  0
VERTEX
  5
57D1C
  8
0
 10
132.04134993477501
 20
116.2579100191971
 30
0.0
  0
VERTEX
  5
57D1D
  8
0
 10
132.3347942373984
 20
116.08726918004641
 30
0.0
  0
VERTEX
  5
57D1E
  8
0
 10
132.93443038817571
 20
115.7637152904267
 30
0.0
  0
VERTEX
  5
57D1F
  8
0
 10
133.54982173117091
 20
115.4648245716765
 30
0.0
  0
VERTEX
  5
57D20
  8
0
 10
134.17940808520001
 20
115.1917050376027
 30
0.0
  0
VERTEX
  5
57D21
  8
0
 10
134.8215910504403
 20
114.9453089676899
 30
0.0
  0
VERTEX
  5
57D22
  8
0
 10
135.4747631954445
 20
114.72643218319079
 30
0.0
  0
VERTEX
  5
57D23
  8
0
 10
135.8049377498275
 20
114.62753047786551
 30
0.0
  0
VERTEX
  5
57D24
  8
0
 10
136.13721540804809
 20
114.5357508168015
 30
0.0
  0
VERTEX
  5
57D25
  8
0
 10
136.80720711350091
 20
114.37379406399801
 30
0.0
  0
VERTEX
  5
57D26
  8
0
 10
137.4829736600789
 20
114.2409454328775
 30
0.0
  0
VERTEX
  5
57D27
  8
0
 10
138.16272461179511
 20
114.13744489992651
 30
0.0
  0
VERTEX
  5
57D28
  8
0
 10
138.84505294421371
 20
114.0633527712871
 30
0.0
  0
VERTEX
  5
57D29
  8
0
 10
139.52845587308559
 20
114.0186561162669
 30
0.0
  0
VERTEX
  5
57D2A
  8
0
 10
139.87000111304599
 20
114.0073033899107
 30
0.0
  0
VERTEX
  5
57D2B
  8
0
 10
140.21114623541041
 20
114.00324836678941
 30
0.0
  0
VERTEX
  5
57D2C
  8
0
 10
140.89135720700071
 20
114.0168804346258
 30
0.0
  0
VERTEX
  5
57D2D
  8
0
 10
141.56733300724269
 20
114.0591621873067
 30
0.0
  0
VERTEX
  5
57D2E
  8
0
 10
141.90318892015279
 20
114.09088605147871
 30
0.0
  0
SEQEND
  5
57D2F
  8
0
  0
POLYLINE
  5
56D2A
  8
0
 66
     1
 10
0.0
 20
0.0
 30
0.0
  0
VERTEX
  5
57D30
  8
0
 10
141.90318892015279
 20
114.09088605147871
 30
0.0
  0
VERTEX
  5
57D31
  8
0
 10
142.1638108989477
 20
114.1182785252533
 30
0.0
  0
VERTEX
  5
57D32
  8
0
 10
142.68418952227569
 20
114.1729725225068
 30
0.0
  0
VERTEX
  5
57D33
  8
0
 10
143.20338459963909
 20
114.2275421240669
 30
0.0
  0
VERTEX
  5
57D34
  8
0
 10
143.46252716502471
 20
114.2547791052265
 30
0.0
  0
SEQEND
  5
57D35
  8
0
  0
POLYLINE
  5
56D2C
  8
0
 66
     1
 10
0.0
 20
0.0
 30
0.0
  0
VERTEX
  5
57D36
  8
0
 10
143.46252716502471
 20
107.9395657595211
 30
0.0
  0
VERTEX
  5
57D37
  8
0
 10
143.20338459963909
 20
107.96680274068071
 30
0.0
  0
VERTEX
  5
57D38
  8
0
 10
142.68418952227569
 20
108.0213723422407
 30
0.0
  0
VERTEX
  5
57D39
  8
0
 10
142.1638108989477
 20
108.0760663394942
 30
0.0
  0
VERTEX
  5
57D3A
  8
0
 10
141.90318892015279
 20
108.1034588132688
 30
0.0
  0
SEQEND
  5
57D3B
  8
0
  0
POLYLINE
  5
56D2D
  8
0
 66
     1
 10
0.0
 20
0.0
 30
0.0
  0
VERTEX
  5
57D3C
  8
0
 10
141.90318892015279
 20
108.1034588132688
 30
0.0
  0
VERTEX
  5
57D3D
  8
0
 10
141.5673330737867
 20
108.13518267186249
 30
0.0
  0
VERTEX
  5
57D3E
  8
0
 10
140.8913573803695
 20
108.1774644229574
 30
0.0
  0
VERTEX
  5
57D3F
  8
0
 10
140.2111464829145
 20
108.1910964982611
 30
0.0
  0
VERTEX
  5
57D40
  8
0
 10
139.87000138638831
 20
108.1870414810012
 30
0.0
  0
VERTEX
  5
57D41
  8
0
 10
139.52845616534151
 20
108.1756887613208
 30
0.0
  0
VERTEX
  5
57D42
  8
0
 10
138.84505325462169
 20
108.1309921204447
 30
0.0
  0
VERTEX
  5
57D43
  8
0
 10
138.16272491659669
 20
108.0569000045501
 30
0.0
  0
VERTEX
  5
57D44
  8
0
 10
137.48297396386459
 20
107.9533994848275
 30
0.0
  0
VERTEX
  5
57D45
  8
0
 10
136.80720740040169
 20
107.8205508635932
 30
0.0
  0
VERTEX
  5
57D46
  8
0
 10
136.1372156630288
 20
107.6585941154275
 30
0.0
  0
VERTEX
  5
57D47
  8
0
 10
135.8049379843128
 20
107.56681445437709
 30
0.0
  0
VERTEX
  5
57D48
  8
0
 10
135.47476340680799
 20
107.4679127473583
 30
0.0
  0
VERTEX
  5
57D49
  8
0
 10
134.82159120888451
 20
107.2490359539743
 30
0.0
  0
VERTEX
  5
57D4A
  8
0
 10
134.17940818506599
 20
107.0026398679456
 30
0.0
  0
VERTEX
  5
57D4B
  8
0
 10
133.54982177072739
 20
106.72952031124861
 30
0.0
  0
VERTEX
  5
57D4C
  8
0
 10
132.93443036596
 20
106.4306295629376
 30
0.0
  0
VERTEX
  5
57D4D
  8
0
 10
132.33479415458331
 20
106.1070756377118
 30
0.0
  0
VERTEX
  5
57D4E
  8
0
 10
132.04134982283929
 20
105.9364347788599
 30
0.0
  0
VERTEX
  5
57D4F
  8
0
 10
131.75239442842519
 20
105.7601086883475
 30
0.0
  0
VERTEX
  5
57D50
  8
0
 10
131.1886423780025
 20
105.3911307600533
 30
0.0
  0
VERTEX
  5
57D51
  8
0
 10
130.6429415033729
 20
105.0002553941182
 30
0.0
  0
VERTEX
  5
57D52
  8
0
 10
130.37486675850801
 20
104.7951511173746
 30
0.0
  0
SEQEND
  5
57D53
  8
0
  0
POLYLINE
  5
56D2E
  8
0
 66
     1
 10
0.0
 20
0.0
 30
0.0
  0
VERTEX
  5
57D54
  8
0
 10
130.37486675850801
 20
104.7951511173746
 30
0.0
  0
VERTEX
  5
57D55
  8
0
 10
130.33649825832811
 20
104.765335784288
 30
0.0
  0
VERTEX
  5
57D56
  8
0
 10
130.25907651423799
 20
104.7062978058117
 30
0.0
  0
VERTEX
  5
57D57
  8
0
 10
130.18075577242951
 20
104.64806973562879
 30
0.0
  0
VERTEX
  5
57D58
  8
0
 10
130.14126364794731
 20
104.6192666464456
 30
0.0
  0
VERTEX
  5
57D59
  8
0
 10
130.10155328077821
 20
104.5906746328734
 30
0.0
  0
VERTEX
  5
57D5A
  8
0
 10
130.0214867714528
 20
104.5341349264808
 30
0.0
  0
VERTEX
  5
57D5B
  8
0
 10
129.94057441952401
 20
104.47847239065131
 30
0.0
  0
VERTEX
  5
57D5C
  8
0
 10
129.85883458676901
 20
104.4237079816198
 30
0.0
  0
VERTEX
  5
57D5D
  8
0
 10
129.77628521605669
 20
104.3698614753296
 30
0.0
  0
VERTEX
  5
57D5E
  8
0
 10
129.692945173466
 20
104.31695238563159
 30
0.0
  0
VERTEX
  5
57D5F
  8
0
 10
129.65098472997769
 20
104.2908553460982
 30
0.0
  0
VERTEX
  5
57D60
  8
0
 10
129.60883398752409
 20
104.26499976440471
 30
0.0
  0
VERTEX
  5
57D61
  8
0
 10
129.52397176242599
 20
104.21402213186251
 30
0.0
  0
VERTEX
  5
57D62
  8
0
 10
129.43837914204141
 20
104.1640374445612
 30
0.0
  0
VERTEX
  5
57D63
  8
0
 10
129.3520772727739
 20
104.11506306581281
 30
0.0
  0
VERTEX
  5
57D64
  8
0
 10
129.2650877652415
 20
104.0671157384571
 30
0.0
  0
VERTEX
  5
57D65
  8
0
 10
129.17743265473931
 20
104.02021155995681
 30
0.0
  0
VERTEX
  5
57D66
  8
0
 10
129.1333624905146
 20
103.9971554999036
 30
0.0
  0
VERTEX
  5
57D67
  8
0
 10
129.08913436044779
 20
103.9743659597886
 30
0.0
  0
VERTEX
  5
57D68
  8
0
 10
129.00021564334719
 20
103.9295936791143
 30
0.0
  0
VERTEX
  5
57D69
  8
0
 10
128.91069956279151
 20
103.8859087527223
 30
0.0
  0
VERTEX
  5
57D6A
  8
0
 10
128.86572478785561
 20
103.86447823617419
 30
0.0
  0
VERTEX
  5
57D6B
  8
0
 10
128.82060943170401
 20
103.8433244932466
 30
0.0
  0
VERTEX
  5
57D6C
  8
0
 10
128.7299687703499
 20
103.8018534776717
 30
0.0
  0
VERTEX
  5
57D6D
  8
0
 10
128.6388012586425
 20
103.761507536148
 30
0.0
  0
VERTEX
  5
57D6E
  8
0
 10
128.5930273654572
 20
103.7417599586407
 30
0.0
  0
VERTEX
  5
57D6F
  8
0
 10
128.54713068694559
 20
103.7222977431512
 30
0.0
  0
VERTEX
  5
57D70
  8
0
 10
128.4549776420005
 20
103.6842330868195
 30
0.0
  0
VERTEX
  5
57D71
  8
0
 10
128.3623523140181
 20
103.6473179061779
 30
0.0
  0
VERTEX
  5
57D72
  8
0
 10
128.26927737740249
 20
103.61156127616709
 30
0.0
  0
VERTEX
  5
57D73
  8
0
 10
128.17577752054311
 20
103.5769723234997
 30
0.0
  0
VERTEX
  5
57D74
  8
0
 10
128.08187789291989
 20
103.5435595594499
 30
0.0
  0
VERTEX
  5
57D75
  8
0
 10
128.03478614028879
 20
103.5272967325441
 30
0.0
  0
VERTEX
  5
57D76
  8
0
 10
127.9876040640977
 20
103.5113308512167
 30
0.0
  0
VERTEX
  5
57D77
  8
0
 10
127.8929819819222
 20
103.480293395934
 30
0.0
  0
VERTEX
  5
57D78
  8
0
 10
127.7980379299093
 20
103.450453697296
 30
0.0
  0
VERTEX
  5
57D79
  8
0
 10
127.7027984838064
 20
103.421817544768
 30
0.0
  0
VERTEX
  5
57D7A
  8
0
 10
127.6072904673044
 20
103.3943899953665
 30
0.0
  0
VERTEX
  5
57D7B
  8
0
 10
127.5115409068689
 20
103.3681753579923
 30
0.0
  0
VERTEX
  5
57D7C
  8
0
 10
127.463584037571
 20
103.3555240200037
 30
0.0
  0
VERTEX
  5
57D7D
  8
0
 10
127.4155769856556
 20
103.34317718031321
 30
0.0
  0
VERTEX
  5
57D7E
  8
0
 10
127.31942599647159
 20
103.31939823819781
 30
0.0
  0
VERTEX
  5
57D7F
  8
0
 10
127.22311529373729
 20
103.2968405277106
 30
0.0
  0
VERTEX
  5
57D80
  8
0
 10
127.1266722444044
 20
103.2755052596883
 30
0.0
  0
VERTEX
  5
57D81
  8
0
 10
127.03012417777749
 20
103.25539285692339
 30
0.0
  0
VERTEX
  5
57D82
  8
0
 10
126.9334983354556
 20
103.23650295423199
 30
0.0
  0
VERTEX
  5
57D83
  8
0
 10
126.8851647456713
 20
103.22751611523979
 30
0.0
  0
VERTEX
  5
57D84
  8
0
 10
126.8368219404514
 20
103.21883442235141
 30
0.0
  0
VERTEX
  5
57D85
  8
0
 10
126.7401225323656
 20
103.2023854291607
 30
0.0
  0
VERTEX
  5
57D86
  8
0
 10
126.6434280499445
 20
103.18715343657151
 30
0.0
  0
VERTEX
  5
57D87
  8
0
 10
126.54676678394981
 20
103.1731351727457
 30
0.0
  0
VERTEX
  5
57D88
  8
0
 10
126.4501673280886
 20
103.1603266071684
 30
0.0
  0
VERTEX
  5
57D89
  8
0
 10
126.3536585298002
 20
103.1487229288757
 30
0.0
  0
VERTEX
  5
57D8A
  8
0
 10
126.3054471993088
 20
103.14337120097341
 30
0.0
  0
VERTEX
  5
57D8B
  8
0
 10
126.25726944090771
 20
103.13831852778461
 30
0.0
  0
VERTEX
  5
57D8C
  8
0
 10
126.1610292681364
 20
103.1291069790776
 30
0.0
  0
VERTEX
  5
57D8D
  8
0
 10
126.0649673234807
 20
103.12108103060081
 30
0.0
  0
VERTEX
  5
57D8E
  8
0
 10
125.9691129743962
 20
103.11423259324231
 30
0.0
  0
VERTEX
  5
57D8F
  8
0
 10
125.87349559377471
 20
103.108552734263
 30
0.0
  0
VERTEX
  5
57D90
  8
0
 10
125.7781445096534
 20
103.1040316735651
 30
0.0
  0
VERTEX
  5
57D91
  8
0
 10
125.7305779690779
 20
103.1022024043337
 30
0.0
  0
VERTEX
  5
57D92
  8
0
 10
125.6830889545956
 20
103.1006587828891
 30
0.0
  0
VERTEX
  5
57D93
  8
0
 10
125.5883580146678
 20
103.09842258794239
 30
0.0
  0
VERTEX
  5
57D94
  8
0
 10
125.4939805779298
 20
103.0973107734745
 30
0.0
  0
VERTEX
  5
57D95
  8
0
 10
125.4469333838267
 20
103.0971724323738
 30
0.0
  0
VERTEX
  5
57D96
  8
0
 10
125.3998861897237
 20
103.0973107734745
 30
0.0
  0
VERTEX
  5
57D97
  8
0
 10
125.3055087529857
 20
103.09842258794239
 30
0.0
  0
VERTEX
  5
57D98
  8
0
 10
125.2107778130578
 20
103.1006587828891
 30
0.0
  0
VERTEX
  5
57D99
  8
0
 10
125.16328879857561
 20
103.1022024043337
 30
0.0
  0
VERTEX
  5
57D9A
  8
0
 10
125.1157222580001
 20
103.1040316735651
 30
0.0
  0
VERTEX
  5
57D9B
  8
0
 10
125.0203711738788
 20
103.108552734263
 30
0.0
  0
VERTEX
  5
57D9C
  8
0
 10
124.9247537932573
 20
103.11423259324231
 30
0.0
  0
VERTEX
  5
57D9D
  8
0
 10
124.82889944417281
 20
103.12108103060081
 30
0.0
  0
VERTEX
  5
57D9E
  8
0
 10
124.7328374995172
 20
103.1291069790776
 30
0.0
  0
VERTEX
  5
57D9F
  8
0
 10
124.6365973267458
 20
103.13831852778461
 30
0.0
  0
VERTEX
  5
57DA0
  8
0
 10
124.5884195683447
 20
103.14337120097341
 30
0.0
  0
VERTEX
  5
57DA1
  8
0
 10
124.54020823785341
 20
103.1487229288757
 30
0.0
  0
VERTEX
  5
57DA2
  8
0
 10
124.4436994395649
 20
103.1603266071684
 30
0.0
  0
VERTEX
  5
57DA3
  8
0
 10
124.3470999837037
 20
103.1731351727457
 30
0.0
  0
VERTEX
  5
57DA4
  8
0
 10
124.250438717709
 20
103.18715343657151
 30
0.0
  0
VERTEX
  5
57DA5
  8
0
 10
124.153744235288
 20
103.2023854291607
 30
0.0
  0
VERTEX
  5
57DA6
  8
0
 10
124.05704482720211
 20
103.21883442235141
 30
0.0
  0
VERTEX
  5
57DA7
  8
0
 10
124.0087020219821
 20
103.22751611523979
 30
0.0
  0
VERTEX
  5
57DA8
  8
0
 10
123.9603684321979
 20
103.23650295423199
 30
0.0
  0
VERTEX
  5
57DA9
  8
0
 10
123.863742589876
 20
103.25539285692339
 30
0.0
  0
VERTEX
  5
57DAA
  8
0
 10
123.7671945232491
 20
103.2755052596883
 30
0.0
  0
VERTEX
  5
57DAB
  8
0
 10
123.6707514739162
 20
103.2968405277106
 30
0.0
  0
VERTEX
  5
57DAC
  8
0
 10
123.5744407711819
 20
103.31939823819781
 30
0.0
  0
VERTEX
  5
57DAD
  8
0
 10
123.4782897819977
 20
103.34317718031321
 30
0.0
  0
VERTEX
  5
57DAE
  8
0
 10
123.4302827300824
 20
103.3555240200037
 30
0.0
  0
VERTEX
  5
57DAF
  8
0
 10
123.3823258607846
 20
103.3681753579923
 30
0.0
  0
VERTEX
  5
57DB0
  8
0
 10
123.2865763003491
 20
103.3943899953665
 30
0.0
  0
VERTEX
  5
57DB1
  8
0
 10
123.1910682838471
 20
103.421817544768
 30
0.0
  0
VERTEX
  5
57DB2
  8
0
 10
123.09582883774419
 20
103.450453697296
 30
0.0
  0
VERTEX
  5
57DB3
  8
0
 10
123.0008847857313
 20
103.480293395934
 30
0.0
  0
VERTEX
  5
57DB4
  8
0
 10
122.906262703556
 20
103.5113308512167
 30
0.0
  0
VERTEX
  5
57DB5
  8
0
 10
122.8590806273647
 20
103.5272967325441
 30
0.0
  0
VERTEX
  5
57DB6
  8
0
 10
122.8119888747337
 20
103.5435595594499
 30
0.0
  0
VERTEX
  5
57DB7
  8
0
 10
122.7180892471104
 20
103.5769723234997
 30
0.0
  0
VERTEX
  5
57DB8
  8
0
 10
122.624589390251
 20
103.61156127616709
 30
0.0
  0
VERTEX
  5
57DB9
  8
0
 10
122.5315144536353
 20
103.6473179061779
 30
0.0
  0
VERTEX
  5
57DBA
  8
0
 10
122.43888912565281
 20
103.6842330868195
 30
0.0
  0
VERTEX
  5
57DBB
  8
0
 10
122.3467360807079
 20
103.7222977431512
 30
0.0
  0
VERTEX
  5
57DBC
  8
0
 10
122.3008394021963
 20
103.7417599586407
 30
0.0
  0
VERTEX
  5
57DBD
  8
0
 10
122.255065509011
 20
103.761507536148
 30
0.0
  0
VERTEX
  5
57DBE
  8
0
 10
122.16389799730359
 20
103.8018534776717
 30
0.0
  0
VERTEX
  5
57DBF
  8
0
 10
122.07325733594941
 20
103.8433244932466
 30
0.0
  0
VERTEX
  5
57DC0
  8
0
 10
122.02814197979789
 20
103.86447823617419
 30
0.0
  0
VERTEX
  5
57DC1
  8
0
 10
121.983167204862
 20
103.8859087527223
 30
0.0
  0
VERTEX
  5
57DC2
  8
0
 10
121.8936511243063
 20
103.9295936791143
 30
0.0
  0
VERTEX
  5
57DC3
  8
0
 10
121.80473240720561
 20
103.9743659597886
 30
0.0
  0
VERTEX
  5
57DC4
  8
0
 10
121.76050427713891
 20
103.9971554999036
 30
0.0
  0
VERTEX
  5
57DC5
  8
0
 10
121.7164341129144
 20
104.02021155995681
 30
0.0
  0
VERTEX
  5
57DC6
  8
0
 10
121.628779002412
 20
104.0671157384571
 30
0.0
  0
VERTEX
  5
57DC7
  8
0
 10
121.54178949487959
 20
104.11506306581281
 30
0.0
  0
VERTEX
  5
57DC8
  8
0
 10
121.45548762561209
 20
104.1640374445612
 30
0.0
  0
VERTEX
  5
57DC9
  8
0
 10
121.36989500522751
 20
104.21402213186251
 30
0.0
  0
VERTEX
  5
57DCA
  8
0
 10
121.2850327801294
 20
104.26499976440471
 30
0.0
  0
VERTEX
  5
57DCB
  8
0
 10
121.2428820376758
 20
104.2908553460982
 30
0.0
  0
VERTEX
  5
57DCC
  8
0
 10
121.20092159418751
 20
104.31695238563159
 30
0.0
  0
VERTEX
  5
57DCD
  8
0
 10
121.1175815515967
 20
104.3698614753296
 30
0.0
  0
VERTEX
  5
57DCE
  8
0
 10
121.0350321808845
 20
104.4237079816198
 30
0.0
  0
VERTEX
  5
57DCF
  8
0
 10
120.95329234812949
 20
104.47847239065131
 30
0.0
  0
VERTEX
  5
57DD0
  8
0
 10
120.87237999620071
 20
104.5341349264808
 30
0.0
  0
VERTEX
  5
57DD1
  8
0
 10
120.7923134868754
 20
104.5906746328734
 30
0.0
  0
VERTEX
  5
57DD2
  8
0
 10
120.75260311970619
 20
104.6192666464456
 30
0.0
  0
VERTEX
  5
57DD3
  8
0
 10
120.713110995224
 20
104.64806973562879
 30
0.0
  0
VERTEX
  5
57DD4
  8
0
 10
120.6347902534155
 20
104.7062978058117
 30
0.0
  0
VERTEX
  5
57DD5
  8
0
 10
120.5573685093254
 20
104.765335784288
 30
0.0
  0
VERTEX
  5
57DD6
  8
0
 10
120.5190000091455
 20
104.7951511173746
 30
0.0
  0
SEQEND
  5
57DD7
  8
0
  0
POLYLINE
  5
56D2F
  8
0
 66
     1
 10
0.0
 20
0.0
 30
0.0
  0
VERTEX
  5
57DD8
  8
0
 10
120.5190000091455
 20
104.7951511173746
 30
0.0
  0
VERTEX
  5
57DD9
  8
0
 10
120.25092517974871
 20
105.0002554573914
 30
0.0
  0
VERTEX
  5
57DDA
  8
0
 10
119.7052241975761
 20
105.39113089162571
 30
0.0
  0
VERTEX
  5
57DDB
  8
0
 10
119.141472199218
 20
105.7601087758304
 30
0.0
  0
VERTEX
  5
57DDC
  8
0
 10
118.85251683287851
 20
105.93643484555049
 30
0.0
  0
VERTEX
  5
57DDD
  8
0
 10
118.55907253025519
 20
106.1070756847011
 30
0.0
  0
VERTEX
  5
57DDE
  8
0
 10
117.95943637947779
 20
106.4306295743208
 30
0.0
  0
VERTEX
  5
57DDF
  8
0
 10
117.3440450364826
 20
106.729520293071
 30
0.0
  0
VERTEX
  5
57DE0
  8
0
 10
116.7144586824535
 20
107.0026398271449
 30
0.0
  0
VERTEX
  5
57DE1
  8
0
 10
116.0722757172132
 20
107.2490358970576
 30
0.0
  0
VERTEX
  5
57DE2
  8
0
 10
115.419103572209
 20
107.4679126815567
 30
0.0
  0
VERTEX
  5
57DE3
  8
0
 10
115.088929017826
 20
107.566814386882
 30
0.0
  0
VERTEX
  5
57DE4
  8
0
 10
114.7566513596053
 20
107.658594047946
 30
0.0
  0
VERTEX
  5
57DE5
  8
0
 10
114.0866596541526
 20
107.8205508007495
 30
0.0
  0
VERTEX
  5
57DE6
  8
0
 10
113.41089310757449
 20
107.9533994318701
 30
0.0
  0
VERTEX
  5
57DE7
  8
0
 10
112.73114215585829
 20
108.056899964821
 30
0.0
  0
VERTEX
  5
57DE8
  8
0
 10
112.0488138234398
 20
108.13099209346051
 30
0.0
  0
VERTEX
  5
57DE9
  8
0
 10
111.3654108945679
 20
108.1756887484806
 30
0.0
  0
VERTEX
  5
57DEA
  8
0
 10
111.0238656546075
 20
108.1870414748369
 30
0.0
  0
VERTEX
  5
57DEB
  8
0
 10
110.6827205322431
 20
108.1910964979581
 30
0.0
  0
VERTEX
  5
57DEC
  8
0
 10
110.0025095606527
 20
108.1774644301217
 30
0.0
  0
VERTEX
  5
57DED
  8
0
 10
109.3265337604108
 20
108.13518267744089
 30
0.0
  0
VERTEX
  5
57DEE
  8
0
 10
108.99067784750071
 20
108.1034588132688
 30
0.0
  0
SEQEND
  5
57DEF
  8
0
  0
POLYLINE
  5
56D30
  8
0
 66
     1
 10
0.0
 20
0.0
 30
0.0
  0
VERTEX
  5
57DF0
  8
0
 10
108.99067784750071
 20
108.1034588132688
 30
0.0
  0
VERTEX
  5
57DF1
  8
0
 10
108.7300558687058
 20
108.0760663394942
 30
0.0
  0
VERTEX
  5
57DF2
  8
0
 10
108.2096772453779
 20
108.0213723422407
 30
0.0
  0
VERTEX
  5
57DF3
  8
0
 10
107.6904821680147
 20
107.96680274068071
 30
0.0
  0
VERTEX
  5
57DF4
  8
0
 10
107.4313396026289
 20
107.9395657595211
 30
0.0
  0
SEQEND
  5
57DF5
  8
0
  0
POLYLINE
  5
56D32
  8
0
 66
     1
 10
0.0
 20
0.0
 30
0.0
  0
VERTEX
  5
57DF6
  8
0
 10
105.08823070371319
 20
114.5010497741912
 30
0.0
  0
VERTEX
  5
57DF7
  8
0
 10
105.154833513347
 20
114.4940495368181
 30
0.0
  0
VERTEX
  5
57DF8
  8
0
 10
105.28797660277149
 20
114.48005563422331
 30
0.0
  0
VERTEX
  5
57DF9
  8
0
 10
105.4209961205375
 20
114.466074719533
 30
0.0
  0
VERTEX
  5
57DFA
  8
0
 10
105.48744447609209
 20
114.4590907159378
 30
0.0
  0
VERTEX
  5
57DFB
  8
0
 10
105.5538438691099
 20
114.45211185851259
 30
0.0
  0
VERTEX
  5
57DFC
  8
0
 10
105.68647171319169
 20
114.43817211038539
 30
0.0
  0
VERTEX
  5
57DFD
  8
0
 10
105.8188315971649
 20
114.42426052600059
 30
0.0
  0
VERTEX
  5
57DFE
  8
0
 10
105.9508755625025
 20
114.41038214600231
 30
0.0
  0
VERTEX
  5
57DFF
  8
0
 10
106.0825557651458
 20
114.3965419990038
 30
0.0
  0
VERTEX
  5
57E00
  8
0
 10
106.21382449283961
 20
114.3827450997653
 30
0.0
  0
VERTEX
  5
57E01
  8
0
 10
106.27928968379641
 20
114.37586443093321
 30
0.0
  0
VERTEX
  5
57E02
  8
0
 10
106.34463418242041
 20
114.3689964473766
 30
0.0
  0
VERTEX
  5
57E03
  8
0
 10
106.47493743705
 20
114.3553010234461
 30
0.0
  0
VERTEX
  5
57E04
  8
0
 10
106.60468704338859
 20
114.3416637902959
 30
0.0
  0
VERTEX
  5
57E05
  8
0
 10
106.73383598870259
 20
114.32808968916331
 30
0.0
  0
VERTEX
  5
57E06
  8
0
 10
106.86233747789809
 20
114.31458363841089
 30
0.0
  0
VERTEX
  5
57E07
  8
0
 10
106.9901449504771
 20
114.3011505317442
 30
0.0
  0
VERTEX
  5
57E08
  8
0
 10
107.0537739486806
 20
114.29446285454731
 30
0.0
  0
VERTEX
  5
57E09
  8
0
 10
107.1172120974075
 20
114.2877952364387
 30
0.0
  0
VERTEX
  5
57E0A
  8
0
 10
107.2434928779025
 20
114.274522591576
 30
0.0
  0
VERTEX
  5
57E0B
  8
0
 10
107.36894153610309
 20
114.26133740629071
 30
0.0
  0
VERTEX
  5
57E0C
  8
0
 10
107.4313396026289
 20
114.2547791052265
 30
0.0
  0
SEQEND
  5
57E0D
  8
0
  0
POLYLINE
  5
56D34
  8
0
 66
     1
 10
0.0
 20
0.0
 30
0.0
  0
VERTEX
  5
57E0E
  8
0
 10
107.4313396026289
 20
107.9395657595211
 30
0.0
  0
VERTEX
  5
57E0F
  8
0
 10
107.36894153610309
 20
107.9330074584568
 30
0.0
  0
VERTEX
  5
57E10
  8
0
 10
107.2434928779025
 20
107.9198222731716
 30
0.0
  0
VERTEX
  5
57E11
  8
0
 10
107.1172120974075
 20
107.90654962830889
 30
0.0
  0
VERTEX
  5
57E12
  8
0
 10
107.0537739486806
 20
107.8998820102002
 30
0.0
  0
VERTEX
  5
57E13
  8
0
 10
106.9901449504771
 20
107.89319433300329
 30
0.0
  0
VERTEX
  5
57E14
  8
0
 10
106.86233747789809
 20
107.8797612263366
 30
0.0
  0
VERTEX
  5
57E15
  8
0
 10
106.73383598870259
 20
107.8662551755843
 30
0.0
  0
VERTEX
  5
57E16
  8
0
 10
106.60468704338869
 20
107.85268107445179
 30
0.0
  0
VERTEX
  5
57E17
  8
0
 10
106.47493743705
 20
107.8390438413014
 30
0.0
  0
VERTEX
  5
57E18
  8
0
 10
106.34463418242051
 20
107.8253484173711
 30
0.0
  0
VERTEX
  5
57E19
  8
0
 10
106.27928968379651
 20
107.8184804338143
 30
0.0
  0
VERTEX
  5
57E1A
  8
0
 10
106.21382449283971
 20
107.8115997649822
 30
0.0
  0
VERTEX
  5
57E1B
  8
0
 10
106.0825557651459
 20
107.79780286574371
 30
0.0
  0
VERTEX
  5
57E1C
  8
0
 10
105.9508755625027
 20
107.7839627187452
 30
0.0
  0
VERTEX
  5
57E1D
  8
0
 10
105.818831597165
 20
107.770084338747
 30
0.0
  0
VERTEX
  5
57E1E
  8
0
 10
105.68647171319181
 20
107.7561727543622
 30
0.0
  0
VERTEX
  5
57E1F
  8
0
 10
105.5538438691099
 20
107.742233006235
 30
0.0
  0
VERTEX
  5
57E20
  8
0
 10
105.48744447609219
 20
107.7352541488098
 30
0.0
  0
VERTEX
  5
57E21
  8
0
 10
105.42099612053759
 20
107.72827014521449
 30
0.0
  0
VERTEX
  5
57E22
  8
0
 10
105.28797660277159
 20
107.7142892305243
 30
0.0
  0
VERTEX
  5
57E23
  8
0
 10
105.154833513347
 20
107.7002953279294
 30
0.0
  0
VERTEX
  5
57E24
  8
0
 10
105.08823070371329
 20
107.6932950905564
 30
0.0
  0
SEQEND
  5
57E25
  8
0
  0
LINE
  5
56D37
  8
1
 10
125.4469333838267
 20
122.2203702899925
 30
0.0
 11
125.4469333838267
 21
99.973974574755019
 31
0.0
  0
POLYLINE
  5
56D3E
  8
0
 66
     1
 10
0.0
 20
0.0
 30
0.0
  0
VERTEX
  5
57E26
  8
0
 10
145.80563606394031
 20
58.737810048562558
 30
0.0
  0
VERTEX
  5
57E27
  8
0
 10
145.73903325430661
 20
58.736148260497437
 30
0.0
  0
VERTEX
  5
57E28
  8
0
 10
145.605890164882
 20
58.730923433305648
 30
0.0
  0
VERTEX
  5
57E29
  8
0
 10
145.47287064711611
 20
58.723165277981948
 30
0.0
  0
VERTEX
  5
57E2A
  8
0
 10
145.4064222915614
 20
58.71833704489201
 30
0.0
  0
VERTEX
  5
57E2B
  8
0
 10
145.34002289854371
 20
58.712876605572113
 30
0.0
  0
VERTEX
  5
57E2C
  8
0
 10
145.20739505446181
 20
58.700061144015208
 30
0.0
  0
VERTEX
  5
57E2D
  8
0
 10
145.0750351704886
 20
58.684723536792731
 30
0.0
  0
VERTEX
  5
57E2E
  8
0
 10
144.94299120515089
 20
58.666869341245743
 30
0.0
  0
VERTEX
  5
57E2F
  8
0
 10
144.81131100250769
 20
58.646505026561961
 30
0.0
  0
VERTEX
  5
57E30
  8
0
 10
144.6800422748139
 20
58.623637971431329
 30
0.0
  0
VERTEX
  5
57E31
  8
0
 10
144.61457708385711
 20
58.611268470079729
 30
0.0
  0
VERTEX
  5
57E32
  8
0
 10
144.54923258523311
 20
58.598276461372301
 30
0.0
  0
VERTEX
  5
57E33
  8
0
 10
144.4189293306035
 20
58.570429685730019
 30
0.0
  0
VERTEX
  5
57E34
  8
0
 10
144.2891797242649
 20
58.540107734346869
 30
0.0
  0
VERTEX
  5
57E35
  8
0
 10
144.16003077895101
 20
58.507321593906013
 30
0.0
  0
VERTEX
  5
57E36
  8
0
 10
144.0315292897555
 20
58.472083143950861
 30
0.0
  0
VERTEX
  5
57E37
  8
0
 10
143.9037218171764
 20
58.434405152580908
 30
0.0
  0
VERTEX
  5
57E38
  8
0
 10
143.84009281897301
 20
58.414655560729003
 30
0.0
  0
VERTEX
  5
57E39
  8
0
 10
143.7766546702461
 20
58.394301271825057
 30
0.0
  0
VERTEX
  5
57E3A
  8
0
 10
143.65037388975111
 20
58.351786032695159
 30
0.0
  0
VERTEX
  5
57E3B
  8
0
 10
143.52492523155061
 20
58.306874839920859
 30
0.0
  0
VERTEX
  5
57E3C
  8
0
 10
143.46252716502471
 20
58.283525812435201
 30
0.0
  0
SEQEND
  5
57E3D
  8
0
  0
POLYLINE
  5
56D3F
  8
0
 66
     1
 10
0.0
 20
0.0
 30
0.0
  0
VERTEX
  5
57E3E
  8
0
 10
145.9469333838268
 20
58.739236260468729
 30
0.0
  0
VERTEX
  5
57E3F
  8
0
 10
145.94287324743769
 20
58.739235082989588
 30
0.0
  0
VERTEX
  5
57E40
  8
0
 10
145.91131094913371
 20
58.739145620035302
 30
0.0
  0
VERTEX
  5
57E41
  8
0
 10
145.8486100650322
 20
58.738545692475682
 30
0.0
  0
VERTEX
  5
57E42
  8
0
 10
145.8056360551297
 20
58.737810048384638
 30
0.0
  0
SEQEND
  5
57E43
  8
0
  0
POLYLINE
  5
56D45
  8
0
 66
     1
 10
0.0
 20
0.0
 30
0.0
  0
VERTEX
  5
57E44
  8
0
 10
108.99067784750071
 20
57.855038519861651
 30
0.0
  0
VERTEX
  5
57E45
  8
0
 10
108.7300558687058
 20
57.923759106771762
 30
0.0
  0
VERTEX
  5
57E46
  8
0
 10
108.2096772453778
 20
58.064436684767671
 30
0.0
  0
VERTEX
  5
57E47
  8
0
 10
107.6904821680146
 20
58.209421388130302
 30
0.0
  0
VERTEX
  5
57E48
  8
0
 10
107.4313396026288
 20
58.283525812435201
 30
0.0
  0
SEQEND
  5
57E49
  8
0
  0
POLYLINE
  5
56D46
  8
0
 66
     1
 10
0.0
 20
0.0
 30
0.0
  0
VERTEX
  5
57E4A
  8
0
 10
120.5190000091456
 20
55.926152312390983
 30
0.0
  0
VERTEX
  5
57E4B
  8
0
 10
120.25092517974871
 20
55.947075021535291
 30
0.0
  0
VERTEX
  5
57E4C
  8
0
 10
119.7052241975761
 20
55.993113178685697
 30
0.0
  0
VERTEX
  5
57E4D
  8
0
 10
119.141472199218
 20
56.045538319228747
 30
0.0
  0
VERTEX
  5
57E4E
  8
0
 10
118.85251683287851
 20
56.07432921426529
 30
0.0
  0
VERTEX
  5
57E4F
  8
0
 10
118.55907253025519
 20
56.104901430693552
 30
0.0
  0
VERTEX
  5
57E50
  8
0
 10
117.95943637947791
 20
56.171562287941711
 30
0.0
  0
VERTEX
  5
57E51
  8
0
 10
117.3440450364827
 20
56.245837902062028
 30
0.0
  0
VERTEX
  5
57E52
  8
0
 10
116.7144586824536
 20
56.327994431483837
 30
0.0
  0
VERTEX
  5
57E53
  8
0
 10
116.0722757172132
 20
56.418245740328771
 30
0.0
  0
VERTEX
  5
57E54
  8
0
 10
115.4191035722091
 20
56.516752684387377
 30
0.0
  0
VERTEX
  5
57E55
  8
0
 10
115.088929017826
 20
56.569132445845987
 30
0.0
  0
VERTEX
  5
57E56
  8
0
 10
114.7566513596055
 20
56.623604103027567
 30
0.0
  0
VERTEX
  5
57E57
  8
0
 10
114.0866596541527
 20
56.73882095857369
 30
0.0
  0
VERTEX
  5
57E58
  8
0
 10
113.41089310757449
 20
56.862353271411521
 30
0.0
  0
VERTEX
  5
57E59
  8
0
 10
112.73114215585851
 20
56.994075971861342
 30
0.0
  0
VERTEX
  5
57E5A
  8
0
 10
112.0488138234399
 20
57.133871392574193
 30
0.0
  0
VERTEX
  5
57E5B
  8
0
 10
111.3654108945679
 20
57.281542702230588
 30
0.0
  0
VERTEX
  5
57E5C
  8
0
 10
111.0238656546075
 20
57.358232595247628
 30
0.0
  0
VERTEX
  5
57E5D
  8
0
 10
110.6827205322432
 20
57.436763252872552
 30
0.0
  0
VERTEX
  5
57E5E
  8
0
 10
110.0025095606528
 20
57.599133750709377
 30
0.0
  0
VERTEX
  5
57E5F
  8
0
 10
109.3265337604109
 20
57.768180066830617
 30
0.0
  0
VERTEX
  5
57E60
  8
0
 10
108.99067784750071
 20
57.855038519861651
 30
0.0
  0
SEQEND
  5
57E61
  8
0
  0
POLYLINE
  5
56D47
  8
0
 66
     1
 10
0.0
 20
0.0
 30
0.0
  0
VERTEX
  5
57E62
  8
0
 10
130.37486675850801
 20
55.926152312390983
 30
0.0
  0
VERTEX
  5
57E63
  8
0
 10
130.33649825832819
 20
55.923248903916623
 30
0.0
  0
VERTEX
  5
57E64
  8
0
 10
130.25907651423799
 20
55.917459757450622
 30
0.0
  0
VERTEX
  5
57E65
  8
0
 10
130.18075577242959
 20
55.91169791500284
 30
0.0
  0
VERTEX
  5
57E66
  8
0
 10
130.1412636479474
 20
55.908828634936647
 30
0.0
  0
VERTEX
  5
57E67
  8
0
 10
130.10155328077821
 20
55.905967861865989
 30
0.0
  0
VERTEX
  5
57E68
  8
0
 10
130.0214867714528
 20
55.900274068142622
 30
0.0
  0
VERTEX
  5
57E69
  8
0
 10
129.94057441952401
 20
55.894620980569478
 30
0.0
  0
VERTEX
  5
57E6A
  8
0
 10
129.85883458676909
 20
55.889013000014657
 30
0.0
  0
VERTEX
  5
57E6B
  8
0
 10
129.77628521605681
 20
55.88345443760285
 30
0.0
  0
VERTEX
  5
57E6C
  8
0
 10
129.692945173466
 20
55.877949602945598
 30
0.0
  0
VERTEX
  5
57E6D
  8
0
 10
129.65098472997769
 20
55.875218673434361
 30
0.0
  0
VERTEX
  5
57E6E
  8
0
 10
129.60883398752409
 20
55.872502779266149
 30
0.0
  0
VERTEX
  5
57E6F
  8
0
 10
129.52397176242599
 20
55.867118211398868
 30
0.0
  0
VERTEX
  5
57E70
  8
0
 10
129.43837914204141
 20
55.861800097547537
 30
0.0
  0
VERTEX
  5
57E71
  8
0
 10
129.35207727277401
 20
55.85655258123326
 30
0.0
  0
VERTEX
  5
57E72
  8
0
 10
129.2650877652415
 20
55.851379743452313
 30
0.0
  0
VERTEX
  5
57E73
  8
0
 10
129.17743265473931
 20
55.846285595068601
 30
0.0
  0
VERTEX
  5
57E74
  8
0
 10
129.1333624905146
 20
55.843769261804503
 30
0.0
  0
VERTEX
  5
57E75
  8
0
 10
129.0891343604479
 20
55.841274069463473
 30
0.0
  0
VERTEX
  5
57E76
  8
0
 10
129.00021564334719
 20
55.836349015464307
 30
0.0
  0
VERTEX
  5
57E77
  8
0
 10
128.91069956279151
 20
55.831514190575959
 30
0.0
  0
VERTEX
  5
57E78
  8
0
 10
128.8657247878557
 20
55.829131761704851
 30
0.0
  0
VERTEX
  5
57E79
  8
0
 10
128.8206094317041
 20
55.826773254537123
 30
0.0
  0
VERTEX
  5
57E7A
  8
0
 10
128.7299687703501
 20
55.82212976322468
 30
0.0
  0
VERTEX
  5
57E7B
  8
0
 10
128.63880125864259
 20
55.81758716292871
 30
0.0
  0
VERTEX
  5
57E7C
  8
0
 10
128.5930273654572
 20
55.815354742592042
 30
0.0
  0
VERTEX
  5
57E7D
  8
0
 10
128.54713068694559
 20
55.813148785020999
 30
0.0
  0
VERTEX
  5
57E7E
  8
0
 10
128.4549776420007
 20
55.80881768998416
 30
0.0
  0
VERTEX
  5
57E7F
  8
0
 10
128.36235231401821
 20
55.804596365908317
 30
0.0
  0
VERTEX
  5
57E80
  8
0
 10
128.2692773774026
 20
55.800487795267159
 30
0.0
  0
VERTEX
  5
57E81
  8
0
 10
128.17577752054311
 20
55.796494924686172
 30
0.0
  0
VERTEX
  5
57E82
  8
0
 10
128.08187789291989
 20
55.792620585980799
 30
0.0
  0
VERTEX
  5
57E83
  8
0
 10
128.0347861402889
 20
55.790728718040789
 30
0.0
  0
VERTEX
  5
57E84
  8
0
 10
127.9876040640977
 20
55.788867489729022
 30
0.0
  0
VERTEX
  5
57E85
  8
0
 10
127.8929819819222
 20
55.7852382192291
 30
0.0
  0
VERTEX
  5
57E86
  8
0
 10
127.7980379299094
 20
55.781735224861009
 30
0.0
  0
VERTEX
  5
57E87
  8
0
 10
127.7027984838065
 20
55.778360818866318
 30
0.0
  0
VERTEX
  5
57E88
  8
0
 10
127.60729046730449
 20
55.775117170564279
 30
0.0
  0
VERTEX
  5
57E89
  8
0
 10
127.5115409068689
 20
55.77200630201925
 30
0.0
  0
VERTEX
  5
57E8A
  8
0
 10
127.4635840375712
 20
55.770501250824637
 30
0.0
  0
VERTEX
  5
57E8B
  8
0
 10
127.4155769856557
 20
55.769030084174929
 30
0.0
  0
VERTEX
  5
57E8C
  8
0
 10
127.31942599647159
 20
55.766190233467469
 30
0.0
  0
VERTEX
  5
57E8D
  8
0
 10
127.22311529373729
 20
55.763488308933809
 30
0.0
  0
VERTEX
  5
57E8E
  8
0
 10
127.1266722444044
 20
55.760925709826338
 30
0.0
  0
VERTEX
  5
57E8F
  8
0
 10
127.03012417777749
 20
55.758503673747107
 30
0.0
  0
VERTEX
  5
57E90
  8
0
 10
126.9334983354556
 20
55.75622327534235
 30
0.0
  0
VERTEX
  5
57E91
  8
0
 10
126.8851647456714
 20
55.755136481795958
 30
0.0
  0
VERTEX
  5
57E92
  8
0
 10
126.8368219404515
 20
55.754085428101703
 30
0.0
  0
VERTEX
  5
57E93
  8
0
 10
126.7401225323656
 20
55.752090890938931
 30
0.0
  0
VERTEX
  5
57E94
  8
0
 10
126.6434280499445
 20
55.750240267245779
 30
0.0
  0
VERTEX
  5
57E95
  8
0
 10
126.54676678394981
 20
55.748534001127169
 30
0.0
  0
VERTEX
  5
57E96
  8
0
 10
126.4501673280887
 20
55.746972374143311
 30
0.0
  0
VERTEX
  5
57E97
  8
0
 10
126.3536585298002
 20
55.745555502611083
 30
0.0
  0
VERTEX
  5
57E98
  8
0
 10
126.3054471993088
 20
55.744901340766667
 30
0.0
  0
VERTEX
  5
57E99
  8
0
 10
126.25726944090771
 20
55.744283335465418
 30
0.0
  0
VERTEX
  5
57E9A
  8
0
 10
126.1610292681364
 20
55.743155652688202
 30
0.0
  0
VERTEX
  5
57E9B
  8
0
 10
126.0649673234808
 20
55.742172064303091
 30
0.0
  0
VERTEX
  5
57E9C
  8
0
 10
125.9691129743962
 20
55.741332009941303
 30
0.0
  0
VERTEX
  5
57E9D
  8
0
 10
125.87349559377471
 20
55.740634758975162
 30
0.0
  0
VERTEX
  5
57E9E
  8
0
 10
125.7781445096534
 20
55.740079411220229
 30
0.0
  0
VERTEX
  5
57E9F
  8
0
 10
125.730577969078
 20
55.739854623677289
 30
0.0
  0
VERTEX
  5
57EA0
  8
0
 10
125.6830889545957
 20
55.739664898205902
 30
0.0
  0
VERTEX
  5
57EA1
  8
0
 10
125.5883580146679
 20
55.739389985009453
 30
0.0
  0
VERTEX
  5
57EA2
  8
0
 10
125.4939805779298
 20
55.739253272653642
 30
0.0
  0
VERTEX
  5
57EA3
  8
0
 10
125.4469333838268
 20
55.739236260468729
 30
0.0
  0
VERTEX
  5
57EA4
  8
0
 10
125.3998861897237
 20
55.739253272653642
 30
0.0
  0
VERTEX
  5
57EA5
  8
0
 10
125.3055087529857
 20
55.739389985009453
 30
0.0
  0
VERTEX
  5
57EA6
  8
0
 10
125.2107778130579
 20
55.739664898205902
 30
0.0
  0
VERTEX
  5
57EA7
  8
0
 10
125.16328879857561
 20
55.739854623677289
 30
0.0
  0
VERTEX
  5
57EA8
  8
0
 10
125.1157222580001
 20
55.740079411220229
 30
0.0
  0
VERTEX
  5
57EA9
  8
0
 10
125.0203711738789
 20
55.740634758975162
 30
0.0
  0
VERTEX
  5
57EAA
  8
0
 10
124.92475379325739
 20
55.741332009941303
 30
0.0
  0
VERTEX
  5
57EAB
  8
0
 10
124.82889944417281
 20
55.742172064303091
 30
0.0
  0
VERTEX
  5
57EAC
  8
0
 10
124.7328374995172
 20
55.743155652688202
 30
0.0
  0
VERTEX
  5
57EAD
  8
0
 10
124.6365973267459
 20
55.744283335465418
 30
0.0
  0
VERTEX
  5
57EAE
  8
0
 10
124.5884195683447
 20
55.744901340766667
 30
0.0
  0
VERTEX
  5
57EAF
  8
0
 10
124.54020823785341
 20
55.745555502611083
 30
0.0
  0
VERTEX
  5
57EB0
  8
0
 10
124.4436994395649
 20
55.746972374143311
 30
0.0
  0
VERTEX
  5
57EB1
  8
0
 10
124.3470999837038
 20
55.748534001127169
 30
0.0
  0
VERTEX
  5
57EB2
  8
0
 10
124.250438717709
 20
55.750240267245779
 30
0.0
  0
VERTEX
  5
57EB3
  8
0
 10
124.153744235288
 20
55.752090890938931
 30
0.0
  0
VERTEX
  5
57EB4
  8
0
 10
124.05704482720211
 20
55.754085428101583
 30
0.0
  0
VERTEX
  5
57EB5
  8
0
 10
124.0087020219822
 20
55.755136481795958
 30
0.0
  0
VERTEX
  5
57EB6
  8
0
 10
123.960368432198
 20
55.75622327534235
 30
0.0
  0
VERTEX
  5
57EB7
  8
0
 10
123.863742589876
 20
55.758503673747001
 30
0.0
  0
VERTEX
  5
57EB8
  8
0
 10
123.7671945232491
 20
55.760925709826338
 30
0.0
  0
VERTEX
  5
57EB9
  8
0
 10
123.6707514739162
 20
55.763488308933809
 30
0.0
  0
VERTEX
  5
57EBA
  8
0
 10
123.5744407711819
 20
55.766190233467469
 30
0.0
  0
VERTEX
  5
57EBB
  8
0
 10
123.4782897819979
 20
55.769030084174929
 30
0.0
  0
VERTEX
  5
57EBC
  8
0
 10
123.4302827300824
 20
55.770501250824637
 30
0.0
  0
VERTEX
  5
57EBD
  8
0
 10
123.3823258607846
 20
55.77200630201925
 30
0.0
  0
VERTEX
  5
57EBE
  8
0
 10
123.2865763003491
 20
55.775117170564279
 30
0.0
  0
VERTEX
  5
57EBF
  8
0
 10
123.1910682838471
 20
55.778360818866318
 30
0.0
  0
VERTEX
  5
57EC0
  8
0
 10
123.09582883774419
 20
55.781735224861009
 30
0.0
  0
VERTEX
  5
57EC1
  8
0
 10
123.0008847857313
 20
55.7852382192291
 30
0.0
  0
VERTEX
  5
57EC2
  8
0
 10
122.906262703556
 20
55.788867489729022
 30
0.0
  0
VERTEX
  5
57EC3
  8
0
 10
122.8590806273647
 20
55.790728718040789
 30
0.0
  0
VERTEX
  5
57EC4
  8
0
 10
122.8119888747337
 20
55.792620585980799
 30
0.0
  0
VERTEX
  5
57EC5
  8
0
 10
122.7180892471106
 20
55.796494924686172
 30
0.0
  0
VERTEX
  5
57EC6
  8
0
 10
122.624589390251
 20
55.800487795267159
 30
0.0
  0
VERTEX
  5
57EC7
  8
0
 10
122.5315144536354
 20
55.804596365908317
 30
0.0
  0
VERTEX
  5
57EC8
  8
0
 10
122.43888912565291
 20
55.80881768998416
 30
0.0
  0
VERTEX
  5
57EC9
  8
0
 10
122.346736080708
 20
55.813148785020999
 30
0.0
  0
VERTEX
  5
57ECA
  8
0
 10
122.3008394021963
 20
55.815354742592042
 30
0.0
  0
VERTEX
  5
57ECB
  8
0
 10
122.255065509011
 20
55.81758716292871
 30
0.0
  0
VERTEX
  5
57ECC
  8
0
 10
122.16389799730359
 20
55.82212976322468
 30
0.0
  0
VERTEX
  5
57ECD
  8
0
 10
122.07325733594951
 20
55.826773254537123
 30
0.0
  0
VERTEX
  5
57ECE
  8
0
 10
122.02814197979789
 20
55.829131761704851
 30
0.0
  0
VERTEX
  5
57ECF
  8
0
 10
121.983167204862
 20
55.831514190575959
 30
0.0
  0
VERTEX
  5
57ED0
  8
0
 10
121.8936511243063
 20
55.836349015464307
 30
0.0
  0
VERTEX
  5
57ED1
  8
0
 10
121.80473240720571
 20
55.841274069463473
 30
0.0
  0
VERTEX
  5
57ED2
  8
0
 10
121.76050427713901
 20
55.843769261804503
 30
0.0
  0
VERTEX
  5
57ED3
  8
0
 10
121.7164341129144
 20
55.846285595068601
 30
0.0
  0
VERTEX
  5
57ED4
  8
0
 10
121.6287790024121
 20
55.851379743452313
 30
0.0
  0
VERTEX
  5
57ED5
  8
0
 10
121.54178949487959
 20
55.85655258123326
 30
0.0
  0
VERTEX
  5
57ED6
  8
0
 10
121.45548762561219
 20
55.861800097547537
 30
0.0
  0
VERTEX
  5
57ED7
  8
0
 10
121.36989500522751
 20
55.867118211398761
 30
0.0
  0
VERTEX
  5
57ED8
  8
0
 10
121.2850327801295
 20
55.872502779266149
 30
0.0
  0
VERTEX
  5
57ED9
  8
0
 10
121.2428820376759
 20
55.875218673434361
 30
0.0
  0
VERTEX
  5
57EDA
  8
0
 10
121.20092159418761
 20
55.877949602945598
 30
0.0
  0
VERTEX
  5
57EDB
  8
0
 10
121.1175815515968
 20
55.88345443760285
 30
0.0
  0
VERTEX
  5
57EDC
  8
0
 10
121.0350321808845
 20
55.889013000014657
 30
0.0
  0
VERTEX
  5
57EDD
  8
0
 10
120.95329234812959
 20
55.894620980569478
 30
0.0
  0
VERTEX
  5
57EDE
  8
0
 10
120.87237999620071
 20
55.900274068142622
 30
0.0
  0
VERTEX
  5
57EDF
  8
0
 10
120.7923134868754
 20
55.905967861865989
 30
0.0
  0
VERTEX
  5
57EE0
  8
0
 10
120.75260311970619
 20
55.908828634936647
 30
0.0
  0
VERTEX
  5
57EE1
  8
0
 10
120.713110995224
 20
55.91169791500284
 30
0.0
  0
VERTEX
  5
57EE2
  8
0
 10
120.6347902534155
 20
55.917459757450622
 30
0.0
  0
VERTEX
  5
57EE3
  8
0
 10
120.5573685093254
 20
55.923248903916623
 30
0.0
  0
VERTEX
  5
57EE4
  8
0
 10
120.5190000091456
 20
55.926152312390983
 30
0.0
  0
SEQEND
  5
57EE5
  8
0
  0
POLYLINE
  5
56D48
  8
0
 66
     1
 10
0.0
 20
0.0
 30
0.0
  0
VERTEX
  5
57EE6
  8
0
 10
141.90318892015279
 20
57.855038519861772
 30
0.0
  0
VERTEX
  5
57EE7
  8
0
 10
141.5673330737867
 20
57.768180083851021
 30
0.0
  0
VERTEX
  5
57EE8
  8
0
 10
140.8913573803695
 20
57.59913379307978
 30
0.0
  0
VERTEX
  5
57EE9
  8
0
 10
140.2111464829145
 20
57.436763310548962
 30
0.0
  0
VERTEX
  5
57EEA
  8
0
 10
139.87000138638831
 20
57.358232657396357
 30
0.0
  0
VERTEX
  5
57EEB
  8
0
 10
139.52845616534159
 20
57.281542767027773
 30
0.0
  0
VERTEX
  5
57EEC
  8
0
 10
138.84505325462169
 20
57.133871457903993
 30
0.0
  0
VERTEX
  5
57EED
  8
0
 10
138.16272491659669
 20
56.994076032610799
 30
0.0
  0
VERTEX
  5
57EEE
  8
0
 10
137.48297396386471
 20
56.862353328603731
 30
0.0
  0
VERTEX
  5
57EEF
  8
0
 10
136.80720740040169
 20
56.738821009456167
 30
0.0
  0
VERTEX
  5
57EF0
  8
0
 10
136.1372156630288
 20
56.623604145505517
 30
0.0
  0
VERTEX
  5
57EF1
  8
0
 10
135.8049379843128
 20
56.569132483663239
 30
0.0
  0
VERTEX
  5
57EF2
  8
0
 10
135.47476340680811
 20
56.516752717362131
 30
0.0
  0
VERTEX
  5
57EF3
  8
0
 10
134.82159120888451
 20
56.41824576340219
 30
0.0
  0
VERTEX
  5
57EF4
  8
0
 10
134.17940818506599
 20
56.327994445011662
 30
0.0
  0
VERTEX
  5
57EF5
  8
0
 10
133.54982177072739
 20
56.245837907027642
 30
0.0
  0
VERTEX
  5
57EF6
  8
0
 10
132.93443036596011
 20
56.171562285367727
 30
0.0
  0
VERTEX
  5
57EF7
  8
0
 10
132.33479415458339
 20
56.104901421875653
 30
0.0
  0
VERTEX
  5
57EF8
  8
0
 10
132.04134982283949
 20
56.074329202859879
 30
0.0
  0
VERTEX
  5
57EF9
  8
0
 10
131.75239442842519
 20
56.045538305593951
 30
0.0
  0
VERTEX
  5
57EFA
  8
0
 10
131.18864237800261
 20
55.993113161666777
 30
0.0
  0
VERTEX
  5
57EFB
  8
0
 10
130.6429415033729
 20
55.947075014762063
 30
0.0
  0
VERTEX
  5
57EFC
  8
0
 10
130.37486675850801
 20
55.926152312390983
 30
0.0
  0
SEQEND
  5
57EFD
  8
0
  0
POLYLINE
  5
56D49
  8
0
 66
     1
 10
0.0
 20
0.0
 30
0.0
  0
VERTEX
  5
57EFE
  8
0
 10
143.4625271650246
 20
58.283525812435322
 30
0.0
  0
VERTEX
  5
57EFF
  8
0
 10
143.20338459963889
 20
58.209421388130423
 30
0.0
  0
VERTEX
  5
57F00
  8
0
 10
142.68418952227569
 20
58.064436684767777
 30
0.0
  0
VERTEX
  5
57F01
  8
0
 10
142.16381089894779
 20
57.923759106771762
 30
0.0
  0
VERTEX
  5
57F02
  8
0
 10
141.90318892015279
 20
57.855038519861772
 30
0.0
  0
SEQEND
  5
57F03
  8
0
  0
POLYLINE
  5
56D4C
  8
0
 66
     1
 10
0.0
 20
0.0
 30
0.0
  0
VERTEX
  5
57F04
  8
0
 10
107.4313396026288
 20
58.283525812435322
 30
0.0
  0
VERTEX
  5
57F05
  8
0
 10
107.36894153610289
 20
58.306874839920859
 30
0.0
  0
VERTEX
  5
57F06
  8
0
 10
107.2434928779025
 20
58.351786032695159
 30
0.0
  0
VERTEX
  5
57F07
  8
0
 10
107.1172120974074
 20
58.394301271825057
 30
0.0
  0
VERTEX
  5
57F08
  8
0
 10
107.0537739486805
 20
58.414655560729003
 30
0.0
  0
VERTEX
  5
57F09
  8
0
 10
106.9901449504771
 20
58.434405152580908
 30
0.0
  0
VERTEX
  5
57F0A
  8
0
 10
106.86233747789809
 20
58.472083143950861
 30
0.0
  0
VERTEX
  5
57F0B
  8
0
 10
106.73383598870259
 20
58.507321593906013
 30
0.0
  0
VERTEX
  5
57F0C
  8
0
 10
106.60468704338859
 20
58.540107734346869
 30
0.0
  0
VERTEX
  5
57F0D
  8
0
 10
106.47493743705
 20
58.570429685730019
 30
0.0
  0
VERTEX
  5
57F0E
  8
0
 10
106.34463418242051
 20
58.598276461372301
 30
0.0
  0
VERTEX
  5
57F0F
  8
0
 10
106.27928968379641
 20
58.611268470079729
 30
0.0
  0
VERTEX
  5
57F10
  8
0
 10
106.21382449283961
 20
58.623637971431329
 30
0.0
  0
VERTEX
  5
57F11
  8
0
 10
106.0825557651458
 20
58.646505026561961
 30
0.0
  0
VERTEX
  5
57F12
  8
0
 10
105.9508755625025
 20
58.666869341245743
 30
0.0
  0
VERTEX
  5
57F13
  8
0
 10
105.8188315971649
 20
58.684723536792731
 30
0.0
  0
VERTEX
  5
57F14
  8
0
 10
105.68647171319181
 20
58.700061144015208
 30
0.0
  0
VERTEX
  5
57F15
  8
0
 10
105.5538438691099
 20
58.712876605572113
 30
0.0
  0
VERTEX
  5
57F16
  8
0
 10
105.48744447609219
 20
58.71833704489201
 30
0.0
  0
VERTEX
  5
57F17
  8
0
 10
105.42099612053759
 20
58.723165277981948
 30
0.0
  0
VERTEX
  5
57F18
  8
0
 10
105.28797660277159
 20
58.730923433305648
 30
0.0
  0
VERTEX
  5
57F19
  8
0
 10
105.154833513347
 20
58.736148260497437
 30
0.0
  0
VERTEX
  5
57F1A
  8
0
 10
105.08823070371329
 20
58.737810048562558
 30
0.0
  0
SEQEND
  5
57F1B
  8
0
  0
POLYLINE
  5
56D4F
  8
0
 66
     1
 10
0.0
 20
0.0
 30
0.0
  0
VERTEX
  5
57F1C
  8
0
 10
105.0882307125238
 20
58.737810048384638
 30
0.0
  0
VERTEX
  5
57F1D
  8
0
 10
105.045255877123
 20
58.738545704071861
 30
0.0
  0
VERTEX
  5
57F1E
  8
0
 10
104.98255494668319
 20
58.739145624471931
 30
0.0
  0
VERTEX
  5
57F1F
  8
0
 10
104.9509933800683
 20
58.739235083070881
 30
0.0
  0
VERTEX
  5
57F20
  8
0
 10
104.9469333838268
 20
58.739236260468729
 30
0.0
  0
SEQEND
  5
57F21
  8
0
  0
POLYLINE
  5
56D54
  8
0
 66
     1
 10
0.0
 20
0.0
 30
0.0
  0
VERTEX
  5
57F22
  8
0
 10
141.90318892015279
 20
49.163830212421331
 30
0.0
  0
VERTEX
  5
57F23
  8
0
 10
141.81533097932581
 20
49.289730660746287
 30
0.0
  0
VERTEX
  5
57F24
  8
0
 10
141.65080935593511
 20
49.551384350300637
 30
0.0
  0
VERTEX
  5
57F25
  8
0
 10
141.50309257002331
 20
49.824703455088653
 30
0.0
  0
VERTEX
  5
57F26
  8
0
 10
141.4361574095085
 20
49.965126325492868
 30
0.0
  0
VERTEX
  5
57F27
  8
0
 10
141.4254723935033
 20
49.988747469872372
 30
0.0
  0
VERTEX
  5
57F28
  8
0
 10
141.4045139004819
 20
50.036165015557813
 30
0.0
  0
VERTEX
  5
57F29
  8
0
 10
141.3841078303941
 20
50.083812250647853
 30
0.0
  0
VERTEX
  5
57F2A
  8
0
 10
141.3741131533485
 20
50.107720912620387
 30
0.0
  0
VERTEX
  5
57F2B
  8
0
 10
141.3642584645354
 20
50.131684597477729
 30
0.0
  0
VERTEX
  5
57F2C
  8
0
 10
141.34497220492781
 20
50.179771903580352
 30
0.0
  0
VERTEX
  5
57F2D
  8
0
 10
141.32625517758839
 20
50.228063756864252
 30
0.0
  0
VERTEX
  5
57F2E
  8
0
 10
141.30811320875489
 20
50.276549520818449
 30
0.0
  0
VERTEX
  5
57F2F
  8
0
 10
141.2905518102524
 20
50.325218351653589
 30
0.0
  0
VERTEX
  5
57F30
  8
0
 10
141.2735761658999
 20
50.374059216070712
 30
0.0
  0
VERTEX
  5
57F31
  8
0
 10
141.26530952867731
 20
50.398540665665692
 30
0.0
  0
VERTEX
  5
57F32
  8
0
 10
141.25719111897561
 20
50.423060909675669
 30
0.0
  0
VERTEX
  5
57F33
  8
0
 10
141.2414011607689
 20
50.47221207605493
 30
0.0
  0
VERTEX
  5
57F34
  8
0
 10
141.2262104202473
 20
50.521501226528251
 30
0.0
  0
VERTEX
  5
57F35
  8
0
 10
141.21162265486839
 20
50.570916760595772
 30
0.0
  0
VERTEX
  5
57F36
  8
0
 10
141.1976412425675
 20
50.620446987091789
 30
0.0
  0
VERTEX
  5
57F37
  8
0
 10
141.18426917496001
 20
50.670080146063484
 30
0.0
  0
VERTEX
  5
57F38
  8
0
 10
141.1778124732694
 20
50.694931636982581
 30
0.0
  0
VERTEX
  5
57F39
  8
0
 10
141.17150905179079
 20
50.719804431382506
 30
0.0
  0
VERTEX
  5
57F3A
  8
0
 10
141.15936307667451
 20
50.769608014106559
 30
0.0
  0
VERTEX
  5
57F3B
  8
0
 10
141.14783305416381
 20
50.819479066596628
 30
0.0
  0
VERTEX
  5
57F3C
  8
0
 10
141.13692038819221
 20
50.869405787400652
 30
0.0
  0
VERTEX
  5
57F3D
  8
0
 10
141.12662608237841
 20
50.919376424684764
 30
0.0
  0
VERTEX
  5
57F3E
  8
0
 10
141.1169507579859
 20
50.969379213088139
 30
0.0
  0
VERTEX
  5
57F3F
  8
0
 10
141.1123453121067
 20
50.994388938185018
 30
0.0
  0
VERTEX
  5
57F40
  8
0
 10
141.10789468554839
 20
51.0194022036343
 30
0.0
  0
VERTEX
  5
57F41
  8
0
 10
141.09945777947871
 20
51.06943324212228
 30
0.0
  0
VERTEX
  5
57F42
  8
0
 10
141.0916395842867
 20
51.119459991937461
 30
0.0
  0
VERTEX
  5
57F43
  8
0
 10
141.08443926231229
 20
51.169469957275069
 30
0.0
  0
VERTEX
  5
57F44
  8
0
 10
141.07785558301259
 20
51.219450506581452
 30
0.0
  0
VERTEX
  5
57F45
  8
0
 10
141.0718869137996
 20
51.269388896191472
 30
0.0
  0
VERTEX
  5
57F46
  8
0
 10
141.06913258595341
 20
51.294338273917568
 30
0.0
  0
VERTEX
  5
57F47
  8
0
 10
141.0665312124313
 20
51.3192722941467
 30
0.0
  0
VERTEX
  5
57F48
  8
0
 10
141.0617860209513
 20
51.369087804180502
 30
0.0
  0
VERTEX
  5
57F49
  8
0
 10
141.05764846117739
 20
51.418822489862698
 30
0.0
  0
VERTEX
  5
57F4A
  8
0
 10
141.0541152317362
 20
51.468463398896361
 30
0.0
  0
VERTEX
  5
57F4B
  8
0
 10
141.05118260664329
 20
51.517997587565347
 30
0.0
  0
VERTEX
  5
57F4C
  8
0
 10
141.04884643542911
 20
51.567412145334181
 30
0.0
  0
VERTEX
  5
57F4D
  8
0
 10
141.0479006073142
 20
51.592070543250777
 30
0.0
  0
VERTEX
  5
57F4E
  8
0
 10
141.04710214481011
 20
51.616694219604952
 30
0.0
  0
VERTEX
  5
57F4F
  8
0
 10
141.04594474190731
 20
51.665831040639098
 30
0.0
  0
VERTEX
  5
57F50
  8
0
 10
141.04536881901771
 20
51.714809946657176
 30
0.0
  0
VERTEX
  5
57F51
  8
0
 10
141.0452971107668
 20
51.739236260468729
 30
0.0
  0
VERTEX
  5
57F52
  8
0
 10
141.04536881901771
 20
51.763662574280389
 30
0.0
  0
VERTEX
  5
57F53
  8
0
 10
141.04594474190731
 20
51.81264148029836
 30
0.0
  0
VERTEX
  5
57F54
  8
0
 10
141.04710214481011
 20
51.86177830133262
 30
0.0
  0
VERTEX
  5
57F55
  8
0
 10
141.0479006073142
 20
51.886401977686788
 30
0.0
  0
VERTEX
  5
57F56
  8
0
 10
141.04884643542911
 20
51.91106037560327
 30
0.0
  0
VERTEX
  5
57F57
  8
0
 10
141.05118260664329
 20
51.960474933372112
 30
0.0
  0
VERTEX
  5
57F58
  8
0
 10
141.0541152317362
 20
52.010009122041097
 30
0.0
  0
VERTEX
  5
57F59
  8
0
 10
141.05764846117739
 20
52.05965003107486
 30
0.0
  0
VERTEX
  5
57F5A
  8
0
 10
141.0617860209513
 20
52.10938471675707
 30
0.0
  0
VERTEX
  5
57F5B
  8
0
 10
141.0665312124313
 20
52.159200226790873
 30
0.0
  0
VERTEX
  5
57F5C
  8
0
 10
141.06913258595341
 20
52.18413424701999
 30
0.0
  0
VERTEX
  5
57F5D
  8
0
 10
141.0718869137996
 20
52.209083624745993
 30
0.0
  0
VERTEX
  5
57F5E
  8
0
 10
141.07785558301259
 20
52.25902201435612
 30
0.0
  0
VERTEX
  5
57F5F
  8
0
 10
141.08443926231229
 20
52.309002563662503
 30
0.0
  0
VERTEX
  5
57F60
  8
0
 10
141.0916395842867
 20
52.359012529000111
 30
0.0
  0
VERTEX
  5
57F61
  8
0
 10
141.09945777947871
 20
52.409039278815293
 30
0.0
  0
VERTEX
  5
57F62
  8
0
 10
141.10789468554839
 20
52.459070317303272
 30
0.0
  0
VERTEX
  5
57F63
  8
0
 10
141.1123453121067
 20
52.484083582752433
 30
0.0
  0
VERTEX
  5
57F64
  8
0
 10
141.1169507579859
 20
52.509093307849312
 30
0.0
  0
VERTEX
  5
57F65
  8
0
 10
141.12662608237841
 20
52.559096096252809
 30
0.0
  0
VERTEX
  5
57F66
  8
0
 10
141.13692038819221
 20
52.60906673353692
 30
0.0
  0
VERTEX
  5
57F67
  8
0
 10
141.14783305416381
 20
52.65899345434083
 30
0.0
  0
VERTEX
  5
57F68
  8
0
 10
141.15936307667451
 20
52.708864506830999
 30
0.0
  0
VERTEX
  5
57F69
  8
0
 10
141.17150905179079
 20
52.758668089555051
 30
0.0
  0
VERTEX
  5
57F6A
  8
0
 10
141.1778124732694
 20
52.783540883954871
 30
0.0
  0
VERTEX
  5
57F6B
  8
0
 10
141.18426917496001
 20
52.808392374874089
 30
0.0
  0
VERTEX
  5
57F6C
  8
0
 10
141.1976412425675
 20
52.858025533845662
 30
0.0
  0
VERTEX
  5
57F6D
  8
0
 10
141.21162265486839
 20
52.907555760341793
 30
0.0
  0
VERTEX
  5
57F6E
  8
0
 10
141.2262104202473
 20
52.9569712944092
 30
0.0
  0
VERTEX
  5
57F6F
  8
0
 10
141.2414011607689
 20
53.006260444882642
 30
0.0
  0
VERTEX
  5
57F70
  8
0
 10
141.25719111897561
 20
53.055411611261903
 30
0.0
  0
VERTEX
  5
57F71
  8
0
 10
141.26530952867731
 20
53.07993185527188
 30
0.0
  0
VERTEX
  5
57F72
  8
0
 10
141.2735761658999
 20
53.10441330486686
 30
0.0
  0
VERTEX
  5
57F73
  8
0
 10
141.2905518102524
 20
53.153254169283983
 30
0.0
  0
VERTEX
  5
57F74
  8
0
 10
141.30811320875489
 20
53.201923000119123
 30
0.0
  0
VERTEX
  5
57F75
  8
0
 10
141.32625517758839
 20
53.25040876407332
 30
0.0
  0
VERTEX
  5
57F76
  8
0
 10
141.34497220492781
 20
53.298700617357113
 30
0.0
  0
VERTEX
  5
57F77
  8
0
 10
141.3642584645354
 20
53.346787923459729
 30
0.0
  0
VERTEX
  5
57F78
  8
0
 10
141.3741131533485
 20
53.370751608317057
 30
0.0
  0
VERTEX
  5
57F79
  8
0
 10
141.3841078303941
 20
53.394660270289613
 30
0.0
  0
VERTEX
  5
57F7A
  8
0
 10
141.4045139004819
 20
53.442307505379759
 30
0.0
  0
VERTEX
  5
57F7B
  8
0
 10
141.4254723935033
 20
53.4897250510652
 30
0.0
  0
VERTEX
  5
57F7C
  8
0
 10
141.4361574095085
 20
53.513346195444697
 30
0.0
  0
VERTEX
  5
57F7D
  8
0
 10
141.50309257002331
 20
53.653769065848913
 30
0.0
  0
VERTEX
  5
57F7E
  8
0
 10
141.65080935593511
 20
53.927088170636821
 30
0.0
  0
VERTEX
  5
57F7F
  8
0
 10
141.81533097932581
 20
54.188741860191172
 30
0.0
  0
VERTEX
  5
57F80
  8
0
 10
141.90318892015279
 20
54.314642308516127
 30
0.0
  0
SEQEND
  5
57F81
  8
0
  0
POLYLINE
  5
56D57
  8
0
 66
     1
 10
0.0
 20
0.0
 30
0.0
  0
VERTEX
  5
57F82
  8
0
 10
108.99067784750071
 20
54.314642308516127
 30
0.0
  0
VERTEX
  5
57F83
  8
0
 10
109.0785357883278
 20
54.188741860191172
 30
0.0
  0
VERTEX
  5
57F84
  8
0
 10
109.2430574117185
 20
53.927088170636821
 30
0.0
  0
VERTEX
  5
57F85
  8
0
 10
109.39077419763029
 20
53.653769065848813
 30
0.0
  0
VERTEX
  5
57F86
  8
0
 10
109.4577093581451
 20
53.513346195444697
 30
0.0
  0
VERTEX
  5
57F87
  8
0
 10
109.46839437415029
 20
53.4897250510652
 30
0.0
  0
VERTEX
  5
57F88
  8
0
 10
109.4893528671717
 20
53.442307505379638
 30
0.0
  0
VERTEX
  5
57F89
  8
0
 10
109.50975893725951
 20
53.394660270289613
 30
0.0
  0
VERTEX
  5
57F8A
  8
0
 10
109.519753614305
 20
53.370751608317057
 30
0.0
  0
VERTEX
  5
57F8B
  8
0
 10
109.5296083031182
 20
53.346787923459729
 30
0.0
  0
VERTEX
  5
57F8C
  8
0
 10
109.54889456272581
 20
53.298700617357113
 30
0.0
  0
VERTEX
  5
57F8D
  8
0
 10
109.5676115900651
 20
53.25040876407332
 30
0.0
  0
VERTEX
  5
57F8E
  8
0
 10
109.5857535588987
 20
53.201923000119123
 30
0.0
  0
VERTEX
  5
57F8F
  8
0
 10
109.6033149574011
 20
53.153254169283983
 30
0.0
  0
VERTEX
  5
57F90
  8
0
 10
109.6202906017536
 20
53.10441330486686
 30
0.0
  0
VERTEX
  5
57F91
  8
0
 10
109.6285572389763
 20
53.079931855271766
 30
0.0
  0
VERTEX
  5
57F92
  8
0
 10
109.63667564867789
 20
53.055411611261903
 30
0.0
  0
VERTEX
  5
57F93
  8
0
 10
109.6524656068848
 20
53.006260444882642
 30
0.0
  0
VERTEX
  5
57F94
  8
0
 10
109.66765634740619
 20
52.9569712944092
 30
0.0
  0
VERTEX
  5
57F95
  8
0
 10
109.6822441127852
 20
52.907555760341793
 30
0.0
  0
VERTEX
  5
57F96
  8
0
 10
109.69622552508611
 20
52.858025533845662
 30
0.0
  0
VERTEX
  5
57F97
  8
0
 10
109.7095975926936
 20
52.808392374874089
 30
0.0
  0
VERTEX
  5
57F98
  8
0
 10
109.71605429438419
 20
52.783540883954871
 30
0.0
  0
VERTEX
  5
57F99
  8
0
 10
109.7223577158628
 20
52.758668089555051
 30
0.0
  0
VERTEX
  5
57F9A
  8
0
 10
109.7345036909792
 20
52.708864506830999
 30
0.0
  0
VERTEX
  5
57F9B
  8
0
 10
109.74603371348979
 20
52.65899345434083
 30
0.0
  0
VERTEX
  5
57F9C
  8
0
 10
109.7569463794614
 20
52.60906673353692
 30
0.0
  0
VERTEX
  5
57F9D
  8
0
 10
109.7672406852753
 20
52.559096096252809
 30
0.0
  0
VERTEX
  5
57F9E
  8
0
 10
109.7769160096677
 20
52.509093307849312
 30
0.0
  0
VERTEX
  5
57F9F
  8
0
 10
109.78152145554689
 20
52.484083582752433
 30
0.0
  0
VERTEX
  5
57FA0
  8
0
 10
109.7859720821052
 20
52.459070317303272
 30
0.0
  0
VERTEX
  5
57FA1
  8
0
 10
109.79440898817479
 20
52.409039278815293
 30
0.0
  0
VERTEX
  5
57FA2
  8
0
 10
109.80222718336699
 20
52.359012529000111
 30
0.0
  0
VERTEX
  5
57FA3
  8
0
 10
109.8094275053413
 20
52.309002563662503
 30
0.0
  0
VERTEX
  5
57FA4
  8
0
 10
109.8160111846411
 20
52.25902201435612
 30
0.0
  0
VERTEX
  5
57FA5
  8
0
 10
109.821979853854
 20
52.209083624745993
 30
0.0
  0
VERTEX
  5
57FA6
  8
0
 10
109.82473418170019
 20
52.18413424701999
 30
0.0
  0
VERTEX
  5
57FA7
  8
0
 10
109.82733555522231
 20
52.159200226790873
 30
0.0
  0
VERTEX
  5
57FA8
  8
0
 10
109.8320807467023
 20
52.10938471675707
 30
0.0
  0
VERTEX
  5
57FA9
  8
0
 10
109.8362183064762
 20
52.05965003107486
 30
0.0
  0
VERTEX
  5
57FAA
  8
0
 10
109.8397515359174
 20
52.010009122041097
 30
0.0
  0
VERTEX
  5
57FAB
  8
0
 10
109.8426841610103
 20
51.960474933372112
 30
0.0
  0
VERTEX
  5
57FAC
  8
0
 10
109.84502033222449
 20
51.91106037560327
 30
0.0
  0
VERTEX
  5
57FAD
  8
0
 10
109.8459661603394
 20
51.886401977686788
 30
0.0
  0
VERTEX
  5
57FAE
  8
0
 10
109.84676462284349
 20
51.86177830133262
 30
0.0
  0
VERTEX
  5
57FAF
  8
0
 10
109.8479220257462
 20
51.81264148029836
 30
0.0
  0
VERTEX
  5
57FB0
  8
0
 10
109.8484979486359
 20
51.763662574280389
 30
0.0
  0
VERTEX
  5
57FB1
  8
0
 10
109.8485696568868
 20
51.739236260468729
 30
0.0
  0
VERTEX
  5
57FB2
  8
0
 10
109.8484979486359
 20
51.714809946657176
 30
0.0
  0
VERTEX
  5
57FB3
  8
0
 10
109.8479220257462
 20
51.665831040639098
 30
0.0
  0
VERTEX
  5
57FB4
  8
0
 10
109.84676462284349
 20
51.616694219604952
 30
0.0
  0
VERTEX
  5
57FB5
  8
0
 10
109.8459661603394
 20
51.592070543250671
 30
0.0
  0
VERTEX
  5
57FB6
  8
0
 10
109.84502033222449
 20
51.567412145334181
 30
0.0
  0
VERTEX
  5
57FB7
  8
0
 10
109.8426841610103
 20
51.517997587565347
 30
0.0
  0
VERTEX
  5
57FB8
  8
0
 10
109.8397515359174
 20
51.468463398896361
 30
0.0
  0
VERTEX
  5
57FB9
  8
0
 10
109.8362183064762
 20
51.418822489862698
 30
0.0
  0
VERTEX
  5
57FBA
  8
0
 10
109.8320807467023
 20
51.369087804180502
 30
0.0
  0
VERTEX
  5
57FBB
  8
0
 10
109.82733555522231
 20
51.3192722941467
 30
0.0
  0
VERTEX
  5
57FBC
  8
0
 10
109.82473418170019
 20
51.294338273917568
 30
0.0
  0
VERTEX
  5
57FBD
  8
0
 10
109.821979853854
 20
51.269388896191472
 30
0.0
  0
VERTEX
  5
57FBE
  8
0
 10
109.8160111846411
 20
51.219450506581452
 30
0.0
  0
VERTEX
  5
57FBF
  8
0
 10
109.8094275053413
 20
51.169469957275069
 30
0.0
  0
VERTEX
  5
57FC0
  8
0
 10
109.80222718336699
 20
51.119459991937461
 30
0.0
  0
VERTEX
  5
57FC1
  8
0
 10
109.79440898817479
 20
51.06943324212228
 30
0.0
  0
VERTEX
  5
57FC2
  8
0
 10
109.7859720821052
 20
51.0194022036343
 30
0.0
  0
VERTEX
  5
57FC3
  8
0
 10
109.78152145554689
 20
50.994388938185018
 30
0.0
  0
VERTEX
  5
57FC4
  8
0
 10
109.7769160096677
 20
50.969379213088139
 30
0.0
  0
VERTEX
  5
57FC5
  8
0
 10
109.7672406852753
 20
50.919376424684764
 30
0.0
  0
VERTEX
  5
57FC6
  8
0
 10
109.7569463794614
 20
50.869405787400652
 30
0.0
  0
VERTEX
  5
57FC7
  8
0
 10
109.74603371348979
 20
50.819479066596628
 30
0.0
  0
VERTEX
  5
57FC8
  8
0
 10
109.7345036909792
 20
50.769608014106559
 30
0.0
  0
VERTEX
  5
57FC9
  8
0
 10
109.7223577158628
 20
50.719804431382506
 30
0.0
  0
VERTEX
  5
57FCA
  8
0
 10
109.71605429438419
 20
50.694931636982581
 30
0.0
  0
VERTEX
  5
57FCB
  8
0
 10
109.7095975926936
 20
50.670080146063484
 30
0.0
  0
VERTEX
  5
57FCC
  8
0
 10
109.69622552508611
 20
50.620446987091789
 30
0.0
  0
VERTEX
  5
57FCD
  8
0
 10
109.6822441127852
 20
50.570916760595772
 30
0.0
  0
VERTEX
  5
57FCE
  8
0
 10
109.66765634740619
 20
50.521501226528251
 30
0.0
  0
VERTEX
  5
57FCF
  8
0
 10
109.6524656068848
 20
50.47221207605493
 30
0.0
  0
VERTEX
  5
57FD0
  8
0
 10
109.63667564867789
 20
50.423060909675669
 30
0.0
  0
VERTEX
  5
57FD1
  8
0
 10
109.6285572389763
 20
50.398540665665692
 30
0.0
  0
VERTEX
  5
57FD2
  8
0
 10
109.6202906017536
 20
50.374059216070712
 30
0.0
  0
VERTEX
  5
57FD3
  8
0
 10
109.6033149574011
 20
50.325218351653589
 30
0.0
  0
VERTEX
  5
57FD4
  8
0
 10
109.5857535588987
 20
50.276549520818449
 30
0.0
  0
VERTEX
  5
57FD5
  8
0
 10
109.5676115900651
 20
50.228063756864252
 30
0.0
  0
VERTEX
  5
57FD6
  8
0
 10
109.54889456272581
 20
50.179771903580352
 30
0.0
  0
VERTEX
  5
57FD7
  8
0
 10
109.5296083031182
 20
50.131684597477729
 30
0.0
  0
VERTEX
  5
57FD8
  8
0
 10
109.519753614305
 20
50.107720912620387
 30
0.0
  0
VERTEX
  5
57FD9
  8
0
 10
109.50975893725951
 20
50.083812250647959
 30
0.0
  0
VERTEX
  5
57FDA
  8
0
 10
109.4893528671717
 20
50.036165015557813
 30
0.0
  0
VERTEX
  5
57FDB
  8
0
 10
109.46839437415029
 20
49.988747469872372
 30
0.0
  0
VERTEX
  5
57FDC
  8
0
 10
109.4577093581451
 20
49.965126325492868
 30
0.0
  0
VERTEX
  5
57FDD
  8
0
 10
109.39077419763029
 20
49.824703455088653
 30
0.0
  0
VERTEX
  5
57FDE
  8
0
 10
109.2430574117185
 20
49.551384350300751
 30
0.0
  0
VERTEX
  5
57FDF
  8
0
 10
109.0785357883278
 20
49.289730660746287
 30
0.0
  0
VERTEX
  5
57FE0
  8
0
 10
108.99067784750071
 20
49.163830212421331
 30
0.0
  0
SEQEND
  5
57FE1
  8
0
  0
POLYLINE
  5
56D69
  8
0
 10
108.99067784750069
 20
54.314642308516106
 30
0.0
 66
     1
 70
     8
  0
VERTEX
  8
0
  5
581BD
 10
108.991
 20
54.3146
 30
0.000000
  70
    32
  0
VERTEX
  8
0
  5
581BE
 10
108.887
 20
54.4521
 30
0.000000
  70
    32
  0
VERTEX
  8
0
  5
581BF
 10
108.779
 20
54.5853
 30
0.000000
  70
    32
  0
VERTEX
  8
0
  5
581C0
 10
108.665
 20
54.7142
 30
0.000000
  70
    32
  0
VERTEX
  8
0
  5
581C1
 10
108.546
 20
54.8385
 30
0.000000
  70
    32
  0
VERTEX
  8
0
  5
581C2
 10
108.423
 20
54.9580
 30
0.000000
  70
    32
  0
VERTEX
  8
0
  5
581C3
 10
108.295
 20
55.0725
 30
0.000000
  70
    32
  0
VERTEX
  8
0
  5
581C4
 10
108.163
 20
55.1819
 30
0.000000
  70
    32
  0
VERTEX
  8
0
  5
581C5
 10
108.026
 20
55.2860
 30
0.000000
  70
    32
  0
VERTEX
  8
0
  5
581C6
 10
107.886
 20
55.3846
 30
0.000000
  70
    32
  0
VERTEX
  8
0
  5
581C7
 10
107.741
 20
55.4775
 30
0.000000
  70
    32
  0
VERTEX
  8
0
  5
581C8
 10
107.594
 20
55.5647
 30
0.000000
  70
    32
  0
VERTEX
  8
0
  5
581C9
 10
107.442
 20
55.6461
 30
0.000000
  70
    32
  0
VERTEX
  8
0
  5
581CA
 10
107.288
 20
55.7213
 30
0.000000
  70
    32
  0
VERTEX
  8
0
  5
581CB
 10
107.131
 20
55.7905
 30
0.000000
  70
    32
  0
VERTEX
  8
0
  5
581CC
 10
106.972
 20
55.8534
 30
0.000000
  70
    32
  0
VERTEX
  8
0
  5
581CD
 10
106.810
 20
55.9099
 30
0.000000
  70
    32
  0
VERTEX
  8
0
  5
581CE
 10
106.646
 20
55.9600
 30
0.000000
  70
    32
  0
VERTEX
  8
0
  5
581CF
 10
106.480
 20
56.0036
 30
0.000000
  70
    32
  0
VERTEX
  8
0
  5
581D0
 10
106.313
 20
56.0406
 30
0.000000
  70
    32
  0
VERTEX
  8
0
  5
581D1
 10
106.144
 20
56.0710
 30
0.000000
  70
    32
  0
VERTEX
  8
0
  5
581D2
 10
105.975
 20
56.0947
 30
0.000000
  70
    32
  0
VERTEX
  8
0
  5
581D3
 10
105.804
 20
56.1116
 30
0.000000
  70
    32
  0
VERTEX
  8
0
  5
581D4
 10
105.633
 20
56.1219
 30
0.000000
  70
    32
  0
VERTEX
  8
0
  5
581D5
 10
105.462
 20
56.1253
 30
0.000000
  70
    32
  0
VERTEX
  8
0
  5
581D6
 10
105.291
 20
56.1220
 30
0.000000
  70
    32
  0
VERTEX
  8
0
  5
581D7
 10
105.119
 20
56.1120
 30
0.000000
  70
    32
  0
VERTEX
  8
0
  5
581D8
 10
104.949
 20
56.0952
 30
0.000000
  70
    32
  0
VERTEX
  8
0
  5
581D9
 10
104.779
 20
56.0716
 30
0.000000
  70
    32
  0
VERTEX
  8
0
  5
581DA
 10
104.611
 20
56.0414
 30
0.000000
  70
    32
  0
VERTEX
  8
0
  5
581DB
 10
104.443
 20
56.0046
 30
0.000000
  70
    32
  0
VERTEX
  8
0
  5
581DC
 10
104.277
 20
55.9611
 30
0.000000
  70
    32
  0
VERTEX
  8
0
  5
581DD
 10
104.113
 20
55.9112
 30
0.000000
  70
    32
  0
VERTEX
  8
0
  5
581DE
 10
103.951
 20
55.8548
 30
0.000000
  70
    32
  0
VERTEX
  8
0
  5
581DF
 10
103.792
 20
55.7921
 30
0.000000
  70
    32
  0
VERTEX
  8
0
  5
581E0
 10
103.635
 20
55.7231
 30
0.000000
  70
    32
  0
VERTEX
  8
0
  5
581E1
 10
103.481
 20
55.6479
 30
0.000000
  70
    32
  0
VERTEX
  8
0
  5
581E2
 10
103.330
 20
55.5668
 30
0.000000
  70
    32
  0
VERTEX
  8
0
  5
581E3
 10
103.182
 20
55.4797
 30
0.000000
  70
    32
  0
VERTEX
  8
0
  5
581E4
 10
103.037
 20
55.3869
 30
0.000000
  70
    32
  0
VERTEX
  8
0
  5
581E5
 10
102.897
 20
55.2884
 30
0.000000
  70
    32
  0
VERTEX
  8
0
  5
581E6
 10
102.760
 20
55.1844
 30
0.000000
  70
    32
  0
VERTEX
  8
0
  5
581E7
 10
102.628
 20
55.0752
 30
0.000000
  70
    32
  0
VERTEX
  8
0
  5
581E8
 10
102.500
 20
54.9608
 30
0.000000
  70
    32
  0
VERTEX
  8
0
  5
581E9
 10
102.376
 20
54.8414
 30
0.000000
  70
    32
  0
VERTEX
  8
0
  5
581EA
 10
102.257
 20
54.7172
 30
0.000000
  70
    32
  0
VERTEX
  8
0
  5
581EB
 10
102.143
 20
54.5885
 30
0.000000
  70
    32
  0
VERTEX
  8
0
  5
581EC
 10
102.035
 20
54.4553
 30
0.000000
  70
    32
  0
VERTEX
  8
0
  5
581ED
 10
101.931
 20
54.3180
 30
0.000000
  70
    32
  0
VERTEX
  8
0
  5
581EE
 10
101.833
 20
54.1767
 30
0.000000
  70
    32
  0
VERTEX
  8
0
  5
581EF
 10
101.741
 20
54.0316
 30
0.000000
  70
    32
  0
VERTEX
  8
0
  5
581F0
 10
101.654
 20
53.8830
 30
0.000000
  70
    32
  0
VERTEX
  8
0
  5
581F1
 10
101.573
 20
53.7310
 30
0.000000
  70
    32
  0
VERTEX
  8
0
  5
581F2
 10
101.499
 20
53.5760
 30
0.000000
  70
    32
  0
VERTEX
  8
0
  5
581F3
 10
101.430
 20
53.4182
 30
0.000000
  70
    32
  0
VERTEX
  8
0
  5
581F4
 10
101.367
 20
53.2578
 30
0.000000
  70
    32
  0
VERTEX
  8
0
  5
581F5
 10
101.311
 20
53.0950
 30
0.000000
  70
    32
  0
VERTEX
  8
0
  5
581F6
 10
101.262
 20
52.9301
 30
0.000000
  70
    32
  0
VERTEX
  8
0
  5
581F7
 10
101.218
 20
52.7635
 30
0.000000
  70
    32
  0
VERTEX
  8
0
  5
581F8
 10
101.182
 20
52.5952
 30
0.000000
  70
    32
  0
VERTEX
  8
0
  5
581F9
 10
101.151
 20
52.4256
 30
0.000000
  70
    32
  0
VERTEX
  8
0
  5
581FA
 10
101.128
 20
52.2549
 30
0.000000
  70
    32
  0
VERTEX
  8
0
  5
581FB
 10
101.111
 20
52.0835
 30
0.000000
  70
    32
  0
VERTEX
  8
0
  5
581FC
 10
101.101
 20
51.9115
 30
0.000000
  70
    32
  0
VERTEX
  8
0
  5
581FD
 10
101.098
 20
51.7392
 30
0.000000
  70
    32
  0
VERTEX
  8
0
  5
581FE
 10
101.101
 20
51.5670
 30
0.000000
  70
    32
  0
VERTEX
  8
0
  5
581FF
 10
101.111
 20
51.3950
 30
0.000000
  70
    32
  0
VERTEX
  8
0
  5
58200
 10
101.128
 20
51.2236
 30
0.000000
  70
    32
  0
VERTEX
  8
0
  5
58201
 10
101.151
 20
51.0529
 30
0.000000
  70
    32
  0
VERTEX
  8
0
  5
58202
 10
101.182
 20
50.8833
 30
0.000000
  70
    32
  0
VERTEX
  8
0
  5
58203
 10
101.218
 20
50.7150
 30
0.000000
  70
    32
  0
VERTEX
  8
0
  5
58204
 10
101.262
 20
50.5483
 30
0.000000
  70
    32
  0
VERTEX
  8
0
  5
58205
 10
101.311
 20
50.3835
 30
0.000000
  70
    32
  0
VERTEX
  8
0
  5
58206
 10
101.367
 20
50.2207
 30
0.000000
  70
    32
  0
VERTEX
  8
0
  5
58207
 10
101.430
 20
50.0603
 30
0.000000
  70
    32
  0
VERTEX
  8
0
  5
58208
 10
101.499
 20
49.9024
 30
0.000000
  70
    32
  0
VERTEX
  8
0
  5
58209
 10
101.573
 20
49.7474
 30
0.000000
  70
    32
  0
VERTEX
  8
0
  5
5820A
 10
101.654
 20
49.5955
 30
0.000000
  70
    32
  0
VERTEX
  8
0
  5
5820B
 10
101.741
 20
49.4469
 30
0.000000
  70
    32
  0
VERTEX
  8
0
  5
5820C
 10
101.833
 20
49.3018
 30
0.000000
  70
    32
  0
VERTEX
  8
0
  5
5820D
 10
101.931
 20
49.1605
 30
0.000000
  70
    32
  0
VERTEX
  8
0
  5
5820E
 10
102.035
 20
49.0231
 30
0.000000
  70
    32
  0
VERTEX
  8
0
  5
5820F
 10
102.143
 20
48.8900
 30
0.000000
  70
    32
  0
VERTEX
  8
0
  5
58210
 10
102.257
 20
48.7612
 30
0.000000
  70
    32
  0
VERTEX
  8
0
  5
58211
 10
102.376
 20
48.6371
 30
0.000000
  70
    32
  0
VERTEX
  8
0
  5
58212
 10
102.500
 20
48.5177
 30
0.000000
  70
    32
  0
VERTEX
  8
0
  5
58213
 10
102.628
 20
48.4033
 30
0.000000
  70
    32
  0
VERTEX
  8
0
  5
58214
 10
102.760
 20
48.2940
 30
0.000000
  70
    32
  0
VERTEX
  8
0
  5
58215
 10
102.897
 20
48.1901
 30
0.000000
  70
    32
  0
VERTEX
  8
0
  5
58216
 10
103.037
 20
48.0916
 30
0.000000
  70
    32
  0
VERTEX
  8
0
  5
58217
 10
103.182
 20
47.9988
 30
0.000000
  70
    32
  0
VERTEX
  8
0
  5
58218
 10
103.330
 20
47.9117
 30
0.000000
  70
    32
  0
VERTEX
  8
0
  5
58219
 10
103.481
 20
47.8305
 30
0.000000
  70
    32
  0
VERTEX
  8
0
  5
5821A
 10
103.635
 20
47.7554
 30
0.000000
  70
    32
  0
VERTEX
  8
0
  5
5821B
 10
103.792
 20
47.6864
 30
0.000000
  70
    32
  0
VERTEX
  8
0
  5
5821C
 10
103.951
 20
47.6237
 30
0.000000
  70
    32
  0
VERTEX
  8
0
  5
5821D
 10
104.113
 20
47.5673
 30
0.000000
  70
    32
  0
VERTEX
  8
0
  5
5821E
 10
104.277
 20
47.5174
 30
0.000000
  70
    32
  0
VERTEX
  8
0
  5
5821F
 10
104.443
 20
47.4739
 30
0.000000
  70
    32
  0
VERTEX
  8
0
  5
58220
 10
104.611
 20
47.4371
 30
0.000000
  70
    32
  0
VERTEX
  8
0
  5
58221
 10
104.779
 20
47.4068
 30
0.000000
  70
    32
  0
VERTEX
  8
0
  5
58222
 10
104.949
 20
47.3833
 30
0.000000
  70
    32
  0
VERTEX
  8
0
  5
58223
 10
105.119
 20
47.3665
 30
0.000000
  70
    32
  0
VERTEX
  8
0
  5
58224
 10
105.291
 20
47.3564
 30
0.000000
  70
    32
  0
VERTEX
  8
0
  5
58225
 10
105.462
 20
47.3531
 30
0.000000
  70
    32
  0
VERTEX
  8
0
  5
58226
 10
105.633
 20
47.3566
 30
0.000000
  70
    32
  0
VERTEX
  8
0
  5
58227
 10
105.804
 20
47.3668
 30
0.000000
  70
    32
  0
VERTEX
  8
0
  5
58228
 10
105.975
 20
47.3838
 30
0.000000
  70
    32
  0
VERTEX
  8
0
  5
58229
 10
106.144
 20
47.4075
 30
0.000000
  70
    32
  0
VERTEX
  8
0
  5
5822A
 10
106.313
 20
47.4379
 30
0.000000
  70
    32
  0
VERTEX
  8
0
  5
5822B
 10
106.480
 20
47.4749
 30
0.000000
  70
    32
  0
VERTEX
  8
0
  5
5822C
 10
106.646
 20
47.5185
 30
0.000000
  70
    32
  0
VERTEX
  8
0
  5
5822D
 10
106.810
 20
47.5686
 30
0.000000
  70
    32
  0
VERTEX
  8
0
  5
5822E
 10
106.972
 20
47.6251
 30
0.000000
  70
    32
  0
VERTEX
  8
0
  5
5822F
 10
107.131
 20
47.6880
 30
0.000000
  70
    32
  0
VERTEX
  8
0
  5
58230
 10
107.288
 20
47.7571
 30
0.000000
  70
    32
  0
VERTEX
  8
0
  5
58231
 10
107.442
 20
47.8324
 30
0.000000
  70
    32
  0
VERTEX
  8
0
  5
58232
 10
107.594
 20
47.9137
 30
0.000000
  70
    32
  0
VERTEX
  8
0
  5
58233
 10
107.741
 20
48.0009
 30
0.000000
  70
    32
  0
VERTEX
  8
0
  5
58234
 10
107.886
 20
48.0939
 30
0.000000
  70
    32
  0
VERTEX
  8
0
  5
58235
 10
108.026
 20
48.1925
 30
0.000000
  70
    32
  0
VERTEX
  8
0
  5
58236
 10
108.163
 20
48.2966
 30
0.000000
  70
    32
  0
VERTEX
  8
0
  5
58237
 10
108.295
 20
48.4060
 30
0.000000
  70
    32
  0
VERTEX
  8
0
  5
58238
 10
108.423
 20
48.5205
 30
0.000000
  70
    32
  0
VERTEX
  8
0
  5
58239
 10
108.546
 20
48.6400
 30
0.000000
  70
    32
  0
VERTEX
  8
0
  5
5823A
 10
108.665
 20
48.7643
 30
0.000000
  70
    32
  0
VERTEX
  8
0
  5
5823B
 10
108.779
 20
48.8931
 30
0.000000
  70
    32
  0
VERTEX
  8
0
  5
5823C
 10
108.887
 20
49.0264
 30
0.000000
  70
    32
  0
VERTEX
  8
0
  5
5823D
 10
108.991
 20
49.1638
 30
0.000000
  70
    32
  0
SEQEND
  8
0
  5
5823E
  0
LINE
  5
56D72
  8
0
 10
133.4469333838268
 20
30.739236260468729
 30
0.0
 11
117.4469333838268
 21
30.739236260468729
 31
0.0
  0
POLYLINE
  5
56D7F
  8
0
 10
141.9031889201529
 20
49.163830212421324
 30
0.0
 66
     1
 70
     8
  0
VERTEX
  8
0
  5
5823F
 10
141.903
 20
49.1638
 30
0.000000
  70
    32
  0
VERTEX
  8
0
  5
58240
 10
142.006
 20
49.0264
 30
0.000000
  70
    32
  0
VERTEX
  8
0
  5
58241
 10
142.115
 20
48.8931
 30
0.000000
  70
    32
  0
VERTEX
  8
0
  5
58242
 10
142.229
 20
48.7643
 30
0.000000
  70
    32
  0
VERTEX
  8
0
  5
58243
 10
142.347
 20
48.6400
 30
0.000000
  70
    32
  0
VERTEX
  8
0
  5
58244
 10
142.471
 20
48.5205
 30
0.000000
  70
    32
  0
VERTEX
  8
0
  5
58245
 10
142.599
 20
48.4060
 30
0.000000
  70
    32
  0
VERTEX
  8
0
  5
58246
 10
142.731
 20
48.2966
 30
0.000000
  70
    32
  0
VERTEX
  8
0
  5
58247
 10
142.868
 20
48.1925
 30
0.000000
  70
    32
  0
VERTEX
  8
0
  5
58248
 10
143.008
 20
48.0939
 30
0.000000
  70
    32
  0
VERTEX
  8
0
  5
58249
 10
143.153
 20
48.0009
 30
0.000000
  70
    32
  0
VERTEX
  8
0
  5
5824A
 10
143.300
 20
47.9137
 30
0.000000
  70
    32
  0
VERTEX
  8
0
  5
5824B
 10
143.451
 20
47.8324
 30
0.000000
  70
    32
  0
VERTEX
  8
0
  5
5824C
 10
143.606
 20
47.7571
 30
0.000000
  70
    32
  0
VERTEX
  8
0
  5
5824D
 10
143.762
 20
47.6880
 30
0.000000
  70
    32
  0
VERTEX
  8
0
  5
5824E
 10
143.922
 20
47.6251
 30
0.000000
  70
    32
  0
VERTEX
  8
0
  5
5824F
 10
144.084
 20
47.5686
 30
0.000000
  70
    32
  0
VERTEX
  8
0
  5
58250
 10
144.248
 20
47.5185
 30
0.000000
  70
    32
  0
VERTEX
  8
0
  5
58251
 10
144.414
 20
47.4749
 30
0.000000
  70
    32
  0
VERTEX
  8
0
  5
58252
 10
144.581
 20
47.4379
 30
0.000000
  70
    32
  0
VERTEX
  8
0
  5
58253
 10
144.749
 20
47.4075
 30
0.000000
  70
    32
  0
VERTEX
  8
0
  5
58254
 10
144.919
 20
47.3838
 30
0.000000
  70
    32
  0
VERTEX
  8
0
  5
58255
 10
145.090
 20
47.3668
 30
0.000000
  70
    32
  0
VERTEX
  8
0
  5
58256
 10
145.261
 20
47.3566
 30
0.000000
  70
    32
  0
VERTEX
  8
0
  5
58257
 10
145.432
 20
47.3531
 30
0.000000
  70
    32
  0
VERTEX
  8
0
  5
58258
 10
145.603
 20
47.3564
 30
0.000000
  70
    32
  0
VERTEX
  8
0
  5
58259
 10
145.774
 20
47.3665
 30
0.000000
  70
    32
  0
VERTEX
  8
0
  5
5825A
 10
145.945
 20
47.3833
 30
0.000000
  70
    32
  0
VERTEX
  8
0
  5
5825B
 10
146.115
 20
47.4068
 30
0.000000
  70
    32
  0
VERTEX
  8
0
  5
5825C
 10
146.283
 20
47.4371
 30
0.000000
  70
    32
  0
VERTEX
  8
0
  5
5825D
 10
146.451
 20
47.4739
 30
0.000000
  70
    32
  0
VERTEX
  8
0
  5
5825E
 10
146.617
 20
47.5174
 30
0.000000
  70
    32
  0
VERTEX
  8
0
  5
5825F
 10
146.780
 20
47.5673
 30
0.000000
  70
    32
  0
VERTEX
  8
0
  5
58260
 10
146.942
 20
47.6237
 30
0.000000
  70
    32
  0
VERTEX
  8
0
  5
58261
 10
147.102
 20
47.6864
 30
0.000000
  70
    32
  0
VERTEX
  8
0
  5
58262
 10
147.259
 20
47.7554
 30
0.000000
  70
    32
  0
VERTEX
  8
0
  5
58263
 10
147.413
 20
47.8305
 30
0.000000
  70
    32
  0
VERTEX
  8
0
  5
58264
 10
147.564
 20
47.9117
 30
0.000000
  70
    32
  0
VERTEX
  8
0
  5
58265
 10
147.712
 20
47.9988
 30
0.000000
  70
    32
  0
VERTEX
  8
0
  5
58266
 10
147.856
 20
48.0916
 30
0.000000
  70
    32
  0
VERTEX
  8
0
  5
58267
 10
147.997
 20
48.1901
 30
0.000000
  70
    32
  0
VERTEX
  8
0
  5
58268
 10
148.134
 20
48.2940
 30
0.000000
  70
    32
  0
VERTEX
  8
0
  5
58269
 10
148.266
 20
48.4033
 30
0.000000
  70
    32
  0
VERTEX
  8
0
  5
5826A
 10
148.394
 20
48.5177
 30
0.000000
  70
    32
  0
VERTEX
  8
0
  5
5826B
 10
148.518
 20
48.6371
 30
0.000000
  70
    32
  0
VERTEX
  8
0
  5
5826C
 10
148.637
 20
48.7612
 30
0.000000
  70
    32
  0
VERTEX
  8
0
  5
5826D
 10
148.750
 20
48.8900
 30
0.000000
  70
    32
  0
VERTEX
  8
0
  5
5826E
 10
148.859
 20
49.0231
 30
0.000000
  70
    32
  0
VERTEX
  8
0
  5
5826F
 10
148.963
 20
49.1605
 30
0.000000
  70
    32
  0
VERTEX
  8
0
  5
58270
 10
149.061
 20
49.3018
 30
0.000000
  70
    32
  0
VERTEX
  8
0
  5
58271
 10
149.153
 20
49.4469
 30
0.000000
  70
    32
  0
VERTEX
  8
0
  5
58272
 10
149.240
 20
49.5955
 30
0.000000
  70
    32
  0
VERTEX
  8
0
  5
58273
 10
149.320
 20
49.7474
 30
0.000000
  70
    32
  0
VERTEX
  8
0
  5
58274
 10
149.395
 20
49.9024
 30
0.000000
  70
    32
  0
VERTEX
  8
0
  5
58275
 10
149.464
 20
50.0603
 30
0.000000
  70
    32
  0
VERTEX
  8
0
  5
58276
 10
149.526
 20
50.2207
 30
0.000000
  70
    32
  0
VERTEX
  8
0
  5
58277
 10
149.583
 20
50.3835
 30
0.000000
  70
    32
  0
VERTEX
  8
0
  5
58278
 10
149.632
 20
50.5483
 30
0.000000
  70
    32
  0
VERTEX
  8
0
  5
58279
 10
149.676
 20
50.7150
 30
0.000000
  70
    32
  0
VERTEX
  8
0
  5
5827A
 10
149.712
 20
50.8833
 30
0.000000
  70
    32
  0
VERTEX
  8
0
  5
5827B
 10
149.742
 20
51.0529
 30
0.000000
  70
    32
  0
VERTEX
  8
0
  5
5827C
 10
149.766
 20
51.2236
 30
0.000000
  70
    32
  0
VERTEX
  8
0
  5
5827D
 10
149.783
 20
51.3950
 30
0.000000
  70
    32
  0
VERTEX
  8
0
  5
5827E
 10
149.793
 20
51.5670
 30
0.000000
  70
    32
  0
VERTEX
  8
0
  5
5827F
 10
149.796
 20
51.7392
 30
0.000000
  70
    32
  0
VERTEX
  8
0
  5
58280
 10
149.793
 20
51.9115
 30
0.000000
  70
    32
  0
VERTEX
  8
0
  5
58281
 10
149.783
 20
52.0835
 30
0.000000
  70
    32
  0
VERTEX
  8
0
  5
58282
 10
149.766
 20
52.2549
 30
0.000000
  70
    32
  0
VERTEX
  8
0
  5
58283
 10
149.742
 20
52.4256
 30
0.000000
  70
    32
  0
VERTEX
  8
0
  5
58284
 10
149.712
 20
52.5952
 30
0.000000
  70
    32
  0
VERTEX
  8
0
  5
58285
 10
149.676
 20
52.7635
 30
0.000000
  70
    32
  0
VERTEX
  8
0
  5
58286
 10
149.632
 20
52.9301
 30
0.000000
  70
    32
  0
VERTEX
  8
0
  5
58287
 10
149.583
 20
53.0950
 30
0.000000
  70
    32
  0
VERTEX
  8
0
  5
58288
 10
149.526
 20
53.2578
 30
0.000000
  70
    32
  0
VERTEX
  8
0
  5
58289
 10
149.464
 20
53.4182
 30
0.000000
  70
    32
  0
VERTEX
  8
0
  5
5828A
 10
149.395
 20
53.5760
 30
0.000000
  70
    32
  0
VERTEX
  8
0
  5
5828B
 10
149.320
 20
53.7310
 30
0.000000
  70
    32
  0
VERTEX
  8
0
  5
5828C
 10
149.240
 20
53.8830
 30
0.000000
  70
    32
  0
VERTEX
  8
0
  5
5828D
 10
149.153
 20
54.0316
 30
0.000000
  70
    32
  0
VERTEX
  8
0
  5
5828E
 10
149.061
 20
54.1767
 30
0.000000
  70
    32
  0
VERTEX
  8
0
  5
5828F
 10
148.963
 20
54.3180
 30
0.000000
  70
    32
  0
VERTEX
  8
0
  5
58290
 10
148.859
 20
54.4553
 30
0.000000
  70
    32
  0
VERTEX
  8
0
  5
58291
 10
148.750
 20
54.5885
 30
0.000000
  70
    32
  0
VERTEX
  8
0
  5
58292
 10
148.637
 20
54.7172
 30
0.000000
  70
    32
  0
VERTEX
  8
0
  5
58293
 10
148.518
 20
54.8414
 30
0.000000
  70
    32
  0
VERTEX
  8
0
  5
58294
 10
148.394
 20
54.9608
 30
0.000000
  70
    32
  0
VERTEX
  8
0
  5
58295
 10
148.266
 20
55.0752
 30
0.000000
  70
    32
  0
VERTEX
  8
0
  5
58296
 10
148.134
 20
55.1844
 30
0.000000
  70
    32
  0
VERTEX
  8
0
  5
58297
 10
147.997
 20
55.2884
 30
0.000000
  70
    32
  0
VERTEX
  8
0
  5
58298
 10
147.856
 20
55.3869
 30
0.000000
  70
    32
  0
VERTEX
  8
0
  5
58299
 10
147.712
 20
55.4797
 30
0.000000
  70
    32
  0
VERTEX
  8
0
  5
5829A
 10
147.564
 20
55.5668
 30
0.000000
  70
    32
  0
VERTEX
  8
0
  5
5829B
 10
147.413
 20
55.6479
 30
0.000000
  70
    32
  0
VERTEX
  8
0
  5
5829C
 10
147.259
 20
55.7231
 30
0.000000
  70
    32
  0
VERTEX
  8
0
  5
5829D
 10
147.102
 20
55.7921
 30
0.000000
  70
    32
  0
VERTEX
  8
0
  5
5829E
 10
146.942
 20
55.8548
 30
0.000000
  70
    32
  0
VERTEX
  8
0
  5
5829F
 10
146.780
 20
55.9112
 30
0.000000
  70
    32
  0
VERTEX
  8
0
  5
582A0
 10
146.617
 20
55.9611
 30
0.000000
  70
    32
  0
VERTEX
  8
0
  5
582A1
 10
146.451
 20
56.0046
 30
0.000000
  70
    32
  0
VERTEX
  8
0
  5
582A2
 10
146.283
 20
56.0414
 30
0.000000
  70
    32
  0
VERTEX
  8
0
  5
582A3
 10
146.115
 20
56.0716
 30
0.000000
  70
    32
  0
VERTEX
  8
0
  5
582A4
 10
145.945
 20
56.0952
 30
0.000000
  70
    32
  0
VERTEX
  8
0
  5
582A5
 10
145.774
 20
56.1120
 30
0.000000
  70
    32
  0
VERTEX
  8
0
  5
582A6
 10
145.603
 20
56.1220
 30
0.000000
  70
    32
  0
VERTEX
  8
0
  5
582A7
 10
145.432
 20
56.1253
 30
0.000000
  70
    32
  0
VERTEX
  8
0
  5
582A8
 10
145.261
 20
56.1219
 30
0.000000
  70
    32
  0
VERTEX
  8
0
  5
582A9
 10
145.090
 20
56.1116
 30
0.000000
  70
    32
  0
VERTEX
  8
0
  5
582AA
 10
144.919
 20
56.0947
 30
0.000000
  70
    32
  0
VERTEX
  8
0
  5
582AB
 10
144.749
 20
56.0710
 30
0.000000
  70
    32
  0
VERTEX
  8
0
  5
582AC
 10
144.581
 20
56.0406
 30
0.000000
  70
    32
  0
VERTEX
  8
0
  5
582AD
 10
144.414
 20
56.0036
 30
0.000000
  70
    32
  0
VERTEX
  8
0
  5
582AE
 10
144.248
 20
55.9600
 30
0.000000
  70
    32
  0
VERTEX
  8
0
  5
582AF
 10
144.084
 20
55.9099
 30
0.000000
  70
    32
  0
VERTEX
  8
0
  5
582B0
 10
143.922
 20
55.8534
 30
0.000000
  70
    32
  0
VERTEX
  8
0
  5
582B1
 10
143.762
 20
55.7905
 30
0.000000
  70
    32
  0
VERTEX
  8
0
  5
582B2
 10
143.606
 20
55.7213
 30
0.000000
  70
    32
  0
VERTEX
  8
0
  5
582B3
 10
143.451
 20
55.6461
 30
0.000000
  70
    32
  0
VERTEX
  8
0
  5
582B4
 10
143.300
 20
55.5647
 30
0.000000
  70
    32
  0
VERTEX
  8
0
  5
582B5
 10
143.153
 20
55.4775
 30
0.000000
  70
    32
  0
VERTEX
  8
0
  5
582B6
 10
143.008
 20
55.3846
 30
0.000000
  70
    32
  0
VERTEX
  8
0
  5
582B7
 10
142.868
 20
55.2860
 30
0.000000
  70
    32
  0
VERTEX
  8
0
  5
582B8
 10
142.731
 20
55.1819
 30
0.000000
  70
    32
  0
VERTEX
  8
0
  5
582B9
 10
142.599
 20
55.0725
 30
0.000000
  70
    32
  0
VERTEX
  8
0
  5
582BA
 10
142.471
 20
54.9580
 30
0.000000
  70
    32
  0
VERTEX
  8
0
  5
582BB
 10
142.347
 20
54.8385
 30
0.000000
  70
    32
  0
VERTEX
  8
0
  5
582BC
 10
142.229
 20
54.7142
 30
0.000000
  70
    32
  0
VERTEX
  8
0
  5
582BD
 10
142.115
 20
54.5853
 30
0.000000
  70
    32
  0
VERTEX
  8
0
  5
582BE
 10
142.006
 20
54.4521
 30
0.000000
  70
    32
  0
VERTEX
  8
0
  5
582BF
 10
141.903
 20
54.3146
 30
0.000000
  70
    32
  0
SEQEND
  8
0
  5
582C0
  0
ARC
  5
56D85
  8
0
 10
145.94693338382669
 20
51.739236260468779
 30
0.0
 40
7.0000000000000329
 50
315.00000000000119
 51
90.0
  0
ARC
  5
56D86
  8
0
 10
104.9469333838267
 20
51.739236260468779
 30
0.0
 40
7.0000000000000391
 50
90.0
 51
224.99999999999881
  0
LINE
  5
56D87
  8
0
 10
133.4469333838268
 20
30.739236260468729
 30
0.0
 11
133.4469333838268
 21
37.405902927135472
 31
0.0
  0
LINE
  5
56D88
  8
0
 10
117.4469333838268
 20
37.405902927135472
 30
0.0
 11
117.4469333838268
 21
30.739236260468729
 31
0.0
  0
ARC
  5
56D91
  8
0
 10
132.3008648634659
 20
91.303220678268715
 30
0.0
 40
55.000000000000107
 50
234.03155422230461
 51
252.88359927747271
  0
ARC
  5
56D92
  8
0
 10
118.5930019041873
 20
91.30322067826917
 30
0.0
 40
55.000000000000597
 50
287.11640072252732
 51
305.96844577769531
  0
ARC
  5
56D93
  8
0
 10
116.1136000504934
 20
37.405902927135529
 30
0.0
 40
1.3333333333333319
 50
0.0
 51
90.0
  0
ARC
  5
56D94
  8
0
 10
134.78026671716009
 20
37.405902927135529
 30
0.0
 40
1.333333333333333
 50
90.0
 51
180.0
  0
POLYLINE
  5
56DA0
  8
0
 66
     1
 10
0.0
 20
0.0
 30
0.0
  0
VERTEX
  5
57FE2
  8
0
 10
51.287695998155407
 20
55.926152312390983
 30
0.0
  0
VERTEX
  5
57FE3
  8
0
 10
51.205320921203914
 20
55.934312439127218
 30
0.0
  0
VERTEX
  5
57FE4
  8
0
 10
51.043669110881183
 20
55.951280541145259
 30
0.0
  0
VERTEX
  5
57FE5
  8
0
 10
50.886180202049438
 20
55.969120648757908
 30
0.0
  0
VERTEX
  5
57FE6
  8
0
 10
50.80899902913859
 20
55.978371463546203
 30
0.0
  0
VERTEX
  5
57FE7
  8
0
 10
50.732681646731059
 20
55.987867404109707
 30
0.0
  0
VERTEX
  5
57FE8
  8
0
 10
50.582468835490772
 20
56.007633875275367
 30
0.0
  0
VERTEX
  5
57FE9
  8
0
 10
50.435569200423402
 20
56.028454656276061
 30
0.0
  0
VERTEX
  5
57FEA
  8
0
 10
50.292080464681931
 20
56.050354819350339
 30
0.0
  0
VERTEX
  5
57FEB
  8
0
 10
50.152096790218359
 20
56.073358526400753
 30
0.0
  0
VERTEX
  5
57FEC
  8
0
 10
50.015708606601599
 20
56.097488983938099
 30
0.0
  0
VERTEX
  5
57FED
  8
0
 10
49.94889002629872
 20
56.109983725740797
 30
0.0
  0
VERTEX
  5
57FEE
  8
0
 10
49.883002466008861
 20
56.12276840648213
 30
0.0
  0
VERTEX
  5
57FEF
  8
0
 10
49.754060928818603
 20
56.149217988368846
 30
0.0
  0
VERTEX
  5
57FF0
  8
0
 10
49.628962688779552
 20
56.176857836491664
 30
0.0
  0
VERTEX
  5
57FF1
  8
0
 10
49.507783030965918
 20
56.205706815247147
 30
0.0
  0
VERTEX
  5
57FF2
  8
0
 10
49.390593823525592
 20
56.235782469253891
 30
0.0
  0
VERTEX
  5
57FF3
  8
0
 10
49.277463356109138
 20
56.267100987645797
 30
0.0
  0
VERTEX
  5
57FF4
  8
0
 10
49.222440477911157
 20
56.283231002816152
 30
0.0
  0
VERTEX
  5
57FF5
  8
0
 10
49.168456203916769
 20
56.299677177926142
 30
0.0
  0
VERTEX
  5
57FF6
  8
0
 10
49.06363311921438
 20
56.333524449687182
 30
0.0
  0
VERTEX
  5
57FF7
  8
0
 10
48.963050474222662
 20
56.368654981925047
 30
0.0
  0
VERTEX
  5
57FF8
  8
0
 10
48.91436485853432
 20
56.38670528516424
 30
0.0
  0
SEQEND
  5
57FF9
  8
0
  0
POLYLINE
  5
56DA1
  8
0
 66
     1
 10
0.0
 20
0.0
 30
0.0
  0
VERTEX
  5
57FFA
  8
0
 10
52.985674683156283
 20
55.739236260468729
 30
0.0
  0
VERTEX
  5
57FFB
  8
0
 10
52.984424527587748
 20
55.739389985009339
 30
0.0
  0
VERTEX
  5
57FFC
  8
0
 10
52.974294381267207
 20
55.740634758975048
 30
0.0
  0
VERTEX
  5
57FFD
  8
0
 10
52.953740136452552
 20
55.743155652688202
 30
0.0
  0
VERTEX
  5
57FFE
  8
0
 10
52.939475914556731
 20
55.744901340766667
 30
0.0
  0
VERTEX
  5
57FFF
  8
0
 10
52.922520508361799
 20
55.746972374143311
 30
0.0
  0
VERTEX
  5
58000
  8
0
 10
52.880461686369351
 20
55.75209089093881
 30
0.0
  0
VERTEX
  5
58001
  8
0
 10
52.827454258606622
 20
55.758503673747001
 30
0.0
  0
VERTEX
  5
58002
  8
0
 10
52.763448877332387
 20
55.766190233467469
 30
0.0
  0
VERTEX
  5
58003
  8
0
 10
52.688457120163662
 20
55.775117170564172
 30
0.0
  0
VERTEX
  5
58004
  8
0
 10
52.60255371959601
 20
55.7852382192291
 30
0.0
  0
VERTEX
  5
58005
  8
0
 10
52.555550382985992
 20
55.790728718040789
 30
0.0
  0
VERTEX
  5
58006
  8
0
 10
52.50587479203034
 20
55.796494924686172
 30
0.0
  0
VERTEX
  5
58007
  8
0
 10
52.398614028710647
 20
55.80881768998416
 30
0.0
  0
VERTEX
  5
58008
  8
0
 10
52.280993637858501
 20
55.82212976322468
 30
0.0
  0
VERTEX
  5
58009
  8
0
 10
52.153253436415874
 20
55.836349015464307
 30
0.0
  0
VERTEX
  5
5800A
  8
0
 10
52.015731377073052
 20
55.851379743452313
 30
0.0
  0
VERTEX
  5
5800B
  8
0
 10
51.86882498366765
 20
55.867118211398761
 30
0.0
  0
VERTEX
  5
5800C
  8
0
 10
51.791991769431888
 20
55.875218673434247
 30
0.0
  0
VERTEX
  5
5800D
  8
0
 10
51.712985640200479
 20
55.88345443760285
 30
0.0
  0
VERTEX
  5
5800E
  8
0
 10
51.548712189049411
 20
55.900274068142622
 30
0.0
  0
VERTEX
  5
5800F
  8
0
 10
51.376549309718477
 20
55.917459757450523
 30
0.0
  0
VERTEX
  5
58010
  8
0
 10
51.287695998155407
 20
55.926152312390983
 30
0.0
  0
SEQEND
  5
58011
  8
0
  0
POLYLINE
  5
56DA2
  8
0
 66
     1
 10
0.0
 20
0.0
 30
0.0
  0
VERTEX
  5
58012
  8
0
 10
51.287695998155407
 20
55.926152312390862
 30
0.0
  0
VERTEX
  5
58013
  8
0
 10
51.376549309718477
 20
55.917459757450523
 30
0.0
  0
VERTEX
  5
58014
  8
0
 10
51.548712189049411
 20
55.900274068142622
 30
0.0
  0
VERTEX
  5
58015
  8
0
 10
51.712985640200479
 20
55.883454437602737
 30
0.0
  0
VERTEX
  5
58016
  8
0
 10
51.791991769431888
 20
55.875218673434247
 30
0.0
  0
VERTEX
  5
58017
  8
0
 10
51.86882498366765
 20
55.867118211398761
 30
0.0
  0
VERTEX
  5
58018
  8
0
 10
52.015731377073052
 20
55.851379743452199
 30
0.0
  0
VERTEX
  5
58019
  8
0
 10
52.153253436415874
 20
55.836349015464307
 30
0.0
  0
VERTEX
  5
5801A
  8
0
 10
52.280993637858501
 20
55.82212976322468
 30
0.0
  0
VERTEX
  5
5801B
  8
0
 10
52.398614028710647
 20
55.80881768998416
 30
0.0
  0
VERTEX
  5
5801C
  8
0
 10
52.50587479203034
 20
55.796494924686172
 30
0.0
  0
VERTEX
  5
5801D
  8
0
 10
52.555550382985992
 20
55.790728718040789
 30
0.0
  0
VERTEX
  5
5801E
  8
0
 10
52.60255371959601
 20
55.785238219228987
 30
0.0
  0
VERTEX
  5
5801F
  8
0
 10
52.688457120163662
 20
55.775117170564172
 30
0.0
  0
VERTEX
  5
58020
  8
0
 10
52.763448877332387
 20
55.766190233467469
 30
0.0
  0
VERTEX
  5
58021
  8
0
 10
52.827454258606622
 20
55.758503673747001
 30
0.0
  0
VERTEX
  5
58022
  8
0
 10
52.880461686369351
 20
55.75209089093881
 30
0.0
  0
VERTEX
  5
58023
  8
0
 10
52.922520508361799
 20
55.746972374143191
 30
0.0
  0
VERTEX
  5
58024
  8
0
 10
52.939475914556731
 20
55.744901340766667
 30
0.0
  0
VERTEX
  5
58025
  8
0
 10
52.953740136452552
 20
55.743155652688202
 30
0.0
  0
VERTEX
  5
58026
  8
0
 10
52.974294381267207
 20
55.740634758975048
 30
0.0
  0
VERTEX
  5
58027
  8
0
 10
52.984424527587748
 20
55.739389985009339
 30
0.0
  0
VERTEX
  5
58028
  8
0
 10
52.985674683156283
 20
55.739236260468729
 30
0.0
  0
SEQEND
  5
58029
  8
0
  0
POLYLINE
  5
56DA9
  8
0
 66
     1
 10
0.0
 20
0.0
 30
0.0
  0
VERTEX
  5
5802A
  8
0
 10
36.985674683156283
 20
55.739236260468729
 30
0.0
  0
VERTEX
  5
5802B
  8
0
 10
36.986924838724917
 20
55.739389985009339
 30
0.0
  0
VERTEX
  5
5802C
  8
0
 10
36.997054985045452
 20
55.740634758975048
 30
0.0
  0
VERTEX
  5
5802D
  8
0
 10
37.017609229860113
 20
55.743155652688202
 30
0.0
  0
VERTEX
  5
5802E
  8
0
 10
37.031873451755928
 20
55.744901340766667
 30
0.0
  0
VERTEX
  5
5802F
  8
0
 10
37.048828857950873
 20
55.746972374143191
 30
0.0
  0
VERTEX
  5
58030
  8
0
 10
37.090887679943307
 20
55.75209089093881
 30
0.0
  0
VERTEX
  5
58031
  8
0
 10
37.143895107706051
 20
55.758503673747001
 30
0.0
  0
VERTEX
  5
58032
  8
0
 10
37.207900488980272
 20
55.766190233467469
 30
0.0
  0
VERTEX
  5
58033
  8
0
 10
37.282892246149011
 20
55.775117170564172
 30
0.0
  0
VERTEX
  5
58034
  8
0
 10
37.368795646716649
 20
55.785238219228987
 30
0.0
  0
VERTEX
  5
58035
  8
0
 10
37.415798983326681
 20
55.790728718040789
 30
0.0
  0
VERTEX
  5
58036
  8
0
 10
37.465474574282332
 20
55.796494924686172
 30
0.0
  0
VERTEX
  5
58037
  8
0
 10
37.572735337602012
 20
55.80881768998416
 30
0.0
  0
VERTEX
  5
58038
  8
0
 10
37.690355728454172
 20
55.82212976322468
 30
0.0
  0
VERTEX
  5
58039
  8
0
 10
37.818095929896799
 20
55.836349015464307
 30
0.0
  0
VERTEX
  5
5803A
  8
0
 10
37.955617989239613
 20
55.851379743452199
 30
0.0
  0
VERTEX
  5
5803B
  8
0
 10
38.102524382645022
 20
55.867118211398761
 30
0.0
  0
VERTEX
  5
5803C
  8
0
 10
38.179357596880777
 20
55.875218673434247
 30
0.0
  0
VERTEX
  5
5803D
  8
0
 10
38.258363726112179
 20
55.883454437602737
 30
0.0
  0
VERTEX
  5
5803E
  8
0
 10
38.422637177263248
 20
55.900274068142622
 30
0.0
  0
VERTEX
  5
5803F
  8
0
 10
38.594800056594181
 20
55.917459757450523
 30
0.0
  0
VERTEX
  5
58040
  8
0
 10
38.683653368157252
 20
55.926152312390862
 30
0.0
  0
SEQEND
  5
58041
  8
0
  0
POLYLINE
  5
56DAA
  8
0
 66
     1
 10
0.0
 20
0.0
 30
0.0
  0
VERTEX
  5
58042
  8
0
 10
38.683653368157252
 20
55.926152312390983
 30
0.0
  0
VERTEX
  5
58043
  8
0
 10
38.594800056594181
 20
55.917459757450523
 30
0.0
  0
VERTEX
  5
58044
  8
0
 10
38.422637177263248
 20
55.900274068142622
 30
0.0
  0
VERTEX
  5
58045
  8
0
 10
38.258363726112179
 20
55.88345443760285
 30
0.0
  0
VERTEX
  5
58046
  8
0
 10
38.179357596880777
 20
55.875218673434247
 30
0.0
  0
VERTEX
  5
58047
  8
0
 10
38.102524382645022
 20
55.867118211398761
 30
0.0
  0
VERTEX
  5
58048
  8
0
 10
37.955617989239613
 20
55.851379743452313
 30
0.0
  0
VERTEX
  5
58049
  8
0
 10
37.818095929896799
 20
55.836349015464307
 30
0.0
  0
VERTEX
  5
5804A
  8
0
 10
37.690355728454172
 20
55.82212976322468
 30
0.0
  0
VERTEX
  5
5804B
  8
0
 10
37.572735337602012
 20
55.80881768998416
 30
0.0
  0
VERTEX
  5
5804C
  8
0
 10
37.465474574282332
 20
55.796494924686172
 30
0.0
  0
VERTEX
  5
5804D
  8
0
 10
37.415798983326681
 20
55.790728718040789
 30
0.0
  0
VERTEX
  5
5804E
  8
0
 10
37.368795646716649
 20
55.7852382192291
 30
0.0
  0
VERTEX
  5
5804F
  8
0
 10
37.282892246149011
 20
55.775117170564172
 30
0.0
  0
VERTEX
  5
58050
  8
0
 10
37.207900488980272
 20
55.766190233467469
 30
0.0
  0
VERTEX
  5
58051
  8
0
 10
37.143895107706051
 20
55.758503673747001
 30
0.0
  0
VERTEX
  5
58052
  8
0
 10
37.090887679943307
 20
55.75209089093881
 30
0.0
  0
VERTEX
  5
58053
  8
0
 10
37.048828857950873
 20
55.746972374143311
 30
0.0
  0
VERTEX
  5
58054
  8
0
 10
37.031873451755928
 20
55.744901340766667
 30
0.0
  0
VERTEX
  5
58055
  8
0
 10
37.017609229860113
 20
55.743155652688202
 30
0.0
  0
VERTEX
  5
58056
  8
0
 10
36.997054985045452
 20
55.740634758975048
 30
0.0
  0
VERTEX
  5
58057
  8
0
 10
36.986924838724917
 20
55.739389985009339
 30
0.0
  0
VERTEX
  5
58058
  8
0
 10
36.985674683156283
 20
55.739236260468729
 30
0.0
  0
SEQEND
  5
58059
  8
0
  0
POLYLINE
  5
56DAB
  8
0
 66
     1
 10
0.0
 20
0.0
 30
0.0
  0
VERTEX
  5
5805A
  8
0
 10
41.056984510263639
 20
56.386705286104323
 30
0.0
  0
VERTEX
  5
5805B
  8
0
 10
41.00829889170074
 20
56.368654981783621
 30
0.0
  0
VERTEX
  5
5805C
  8
0
 10
40.907716240506481
 20
56.33352444747392
 30
0.0
  0
VERTEX
  5
5805D
  8
0
 10
40.802893148916603
 20
56.299677173739617
 30
0.0
  0
VERTEX
  5
5805E
  8
0
 10
40.748908871152473
 20
56.28323099766159
 30
0.0
  0
VERTEX
  5
5805F
  8
0
 10
40.693885988967622
 20
56.267100981538661
 30
0.0
  0
VERTEX
  5
58060
  8
0
 10
40.580755512933479
 20
56.235782461297518
 30
0.0
  0
VERTEX
  5
58061
  8
0
 10
40.463566296039168
 20
56.205706805532159
 30
0.0
  0
VERTEX
  5
58062
  8
0
 10
40.342386627978719
 20
56.176857825127762
 30
0.0
  0
VERTEX
  5
58063
  8
0
 10
40.217288376963317
 20
56.149217975483687
 30
0.0
  0
VERTEX
  5
58064
  8
0
 10
40.088346828150407
 20
56.122768392220472
 30
0.0
  0
VERTEX
  5
58065
  8
0
 10
40.022459261830811
 20
56.10998371084839
 30
0.0
  0
VERTEX
  5
58066
  8
0
 10
39.955640675359632
 20
56.097488968453732
 30
0.0
  0
VERTEX
  5
58067
  8
0
 10
39.819252479018019
 20
56.0733585098492
 30
0.0
  0
VERTEX
  5
58068
  8
0
 10
39.679268791366333
 20
56.05035480188873
 30
0.0
  0
VERTEX
  5
58069
  8
0
 10
39.535780042055308
 20
56.028454638063529
 30
0.0
  0
VERTEX
  5
5806A
  8
0
 10
39.388880393138038
 20
56.007633856473042
 30
0.0
  0
VERTEX
  5
5806B
  8
0
 10
39.238667567888569
 20
55.98786738487992
 30
0.0
  0
VERTEX
  5
5806C
  8
0
 10
39.162350178460429
 20
55.978371444163841
 30
0.0
  0
VERTEX
  5
5806D
  8
0
 10
39.08516902499651
 20
55.969120632376089
 30
0.0
  0
VERTEX
  5
5806E
  8
0
 10
38.927680172780363
 20
55.951280532131719
 30
0.0
  0
VERTEX
  5
5806F
  8
0
 10
38.766028417881557
 20
55.934312436377368
 30
0.0
  0
VERTEX
  5
58070
  8
0
 10
38.683653368157252
 20
55.926152312390983
 30
0.0
  0
SEQEND
  5
58071
  8
0
  0
POLYLINE
  5
56DC0
  8
0
 66
     1
 10
0.0
 20
0.0
 30
0.0
  0
VERTEX
  5
58072
  8
0
 10
40.704013004585811
 20
38.739236260468729
 30
0.0
  0
VERTEX
  5
58073
  8
0
 10
40.659089049535389
 20
38.737495572004619
 30
0.0
  0
VERTEX
  5
58074
  8
0
 10
40.567059363604457
 20
38.72411574637956
 30
0.0
  0
VERTEX
  5
58075
  8
0
 10
40.47246483811761
 20
38.698717278871882
 30
0.0
  0
VERTEX
  5
58076
  8
0
 10
40.42434622454391
 20
38.681944425243401
 30
0.0
  0
VERTEX
  5
58077
  8
0
 10
40.375761042736031
 20
38.662684968359621
 30
0.0
  0
VERTEX
  5
58078
  8
0
 10
40.277451488417803
 20
38.617393149112118
 30
0.0
  0
VERTEX
  5
58079
  8
0
 10
40.177359271760793
 20
38.563805971464276
 30
0.0
  0
VERTEX
  5
5807A
  8
0
 10
40.074447009489859
 20
38.502158098111202
 30
0.0
  0
VERTEX
  5
5807B
  8
0
 10
39.968679513466668
 20
38.433056544576083
 30
0.0
  0
VERTEX
  5
5807C
  8
0
 10
39.860046264086691
 20
38.357095478469788
 30
0.0
  0
VERTEX
  5
5807D
  8
0
 10
39.804652515403177
 20
38.316724887559658
 30
0.0
  0
VERTEX
  5
5807E
  8
0
 10
39.748539660674169
 20
38.274857486047402
 30
0.0
  0
VERTEX
  5
5807F
  8
0
 10
39.634154070890872
 20
38.186922008649518
 30
0.0
  0
VERTEX
  5
58080
  8
0
 10
39.516884516362673
 20
38.09387105948101
 30
0.0
  0
VERTEX
  5
58081
  8
0
 10
39.396725259085663
 20
37.996292961444411
 30
0.0
  0
VERTEX
  5
58082
  8
0
 10
39.273668461047691
 20
37.894784700504502
 30
0.0
  0
VERTEX
  5
58083
  8
0
 10
39.147703022494063
 20
37.789953357761547
 30
0.0
  0
VERTEX
  5
58084
  8
0
 10
39.083624969675611
 20
37.736484223954797
 30
0.0
  0
VERTEX
  5
58085
  8
0
 10
39.018813657935993
 20
37.682416974724347
 30
0.0
  0
VERTEX
  5
58086
  8
0
 10
38.886980238767251
 20
37.572805121634381
 30
0.0
  0
VERTEX
  5
58087
  8
0
 10
38.752177413304018
 20
37.461759376359304
 30
0.0
  0
VERTEX
  5
58088
  8
0
 10
38.683653368157252
 20
37.405902927135358
 30
0.0
  0
SEQEND
  5
58089
  8
0
  0
POLYLINE
  5
56DC1
  8
0
 66
     1
 10
0.0
 20
0.0
 30
0.0
  0
VERTEX
  5
5808A
  8
0
 10
42.079610738158969
 20
40.860330386516587
 30
0.0
  0
VERTEX
  5
5808B
  8
0
 10
42.078600877819888
 20
40.784147353401423
 30
0.0
  0
VERTEX
  5
5808C
  8
0
 10
42.070489135918017
 20
40.634214750608301
 30
0.0
  0
VERTEX
  5
5808D
  8
0
 10
42.054182362846632
 20
40.487606013700102
 30
0.0
  0
VERTEX
  5
5808E
  8
0
 10
42.042928954851497
 20
40.415578507430389
 30
0.0
  0
VERTEX
  5
5808F
  8
0
 10
42.029594612443589
 20
40.344418894136894
 30
0.0
  0
VERTEX
  5
58090
  8
0
 10
41.996645203500059
 20
40.204772421988999
 30
0.0
  0
VERTEX
  5
58091
  8
0
 10
41.955264691867683
 20
40.068808605005877
 30
0.0
  0
VERTEX
  5
58092
  8
0
 10
41.9053838785984
 20
39.936649416868718
 30
0.0
  0
VERTEX
  5
58093
  8
0
 10
41.846936404843277
 20
39.808420782815247
 30
0.0
  0
VERTEX
  5
58094
  8
0
 10
41.77985824532368
 20
39.684253941378202
 30
0.0
  0
VERTEX
  5
58095
  8
0
 10
41.743063134262449
 20
39.623736418882473
 30
0.0
  0
VERTEX
  5
58096
  8
0
 10
41.704087079205692
 20
39.56428651606258
 30
0.0
  0
VERTEX
  5
58097
  8
0
 10
41.619561936900247
 20
39.44866409130772
 30
0.0
  0
VERTEX
  5
58098
  8
0
 10
41.526248116551983
 20
39.337569741802113
 30
0.0
  0
VERTEX
  5
58099
  8
0
 10
41.424123443943813
 20
39.23119494773529
 30
0.0
  0
VERTEX
  5
5809A
  8
0
 10
41.313162080146412
 20
39.129725124827488
 30
0.0
  0
VERTEX
  5
5809B
  8
0
 10
41.193343097921449
 20
39.033354198101406
 30
0.0
  0
VERTEX
  5
5809C
  8
0
 10
41.130106634691629
 20
38.987143963132112
 30
0.0
  0
VERTEX
  5
5809D
  8
0
 10
41.064649801099328
 20
38.942285458484342
 30
0.0
  0
VERTEX
  5
5809E
  8
0
 10
40.927069100409881
 20
38.856732237939482
 30
0.0
  0
VERTEX
  5
5809F
  8
0
 10
40.780590983560842
 20
38.776918272990791
 30
0.0
  0
VERTEX
  5
580A0
  8
0
 10
40.704013004585811
 20
38.739236260468729
 30
0.0
  0
SEQEND
  5
580A1
  8
0
  0
POLYLINE
  5
56DC2
  8
0
 66
     1
 10
0.0
 20
0.0
 30
0.0
  0
VERTEX
  5
580A2
  8
0
 10
41.991961064051338
 20
41.614484630553783
 30
0.0
  0
VERTEX
  5
580A3
  8
0
 10
42.018549283536572
 20
41.484333963804957
 30
0.0
  0
VERTEX
  5
580A4
  8
0
 10
42.057489535686273
 20
41.229267628289911
 30
0.0
  0
VERTEX
  5
580A5
  8
0
 10
42.077137634482597
 20
40.981429381660298
 30
0.0
  0
VERTEX
  5
580A6
  8
0
 10
42.079610738158969
 20
40.860330386516587
 30
0.0
  0
SEQEND
  5
580A7
  8
0
  0
POLYLINE
  5
56DCC
  8
0
 66
     1
 10
0.0
 20
0.0
 30
0.0
  0
VERTEX
  5
580A8
  8
0
 10
41.581797341338067
 20
58.737810048206612
 30
0.0
  0
VERTEX
  5
580A9
  8
0
 10
41.562762143975867
 20
58.731777094401998
 30
0.0
  0
VERTEX
  5
580AA
  8
0
 10
41.523802079096072
 20
58.7046368796614
 30
0.0
  0
VERTEX
  5
580AB
  8
0
 10
41.484185060573743
 20
58.65643622943913
 30
0.0
  0
VERTEX
  5
580AC
  8
0
 10
41.464326253366949
 20
58.62432761182891
 30
0.0
  0
VERTEX
  5
580AD
  8
0
 10
41.44453623781714
 20
58.586955416455233
 30
0.0
  0
VERTEX
  5
580AE
  8
0
 10
41.405450627310181
 20
58.497021166733951
 30
0.0
  0
VERTEX
  5
580AF
  8
0
 10
41.36750798810624
 20
58.388531440700852
 30
0.0
  0
VERTEX
  5
580B0
  8
0
 10
41.331262780063518
 20
58.264437320863763
 30
0.0
  0
VERTEX
  5
580B1
  8
0
 10
41.296703447989671
 20
58.126415260670584
 30
0.0
  0
VERTEX
  5
580B2
  8
0
 10
41.261852571455051
 20
57.966434265661078
 30
0.0
  0
VERTEX
  5
580B3
  8
0
 10
41.244398262994309
 20
57.877961024804691
 30
0.0
  0
VERTEX
  5
580B4
  8
0
 10
41.227028883784783
 20
57.784067498156013
 30
0.0
  0
VERTEX
  5
580B5
  8
0
 10
41.192838446497369
 20
57.581086636522762
 30
0.0
  0
VERTEX
  5
580B6
  8
0
 10
41.159824548397751
 20
57.360167581762212
 30
0.0
  0
VERTEX
  5
580B7
  8
0
 10
41.128464653300739
 20
57.12486799906447
 30
0.0
  0
VERTEX
  5
580B8
  8
0
 10
41.099177789734419
 20
56.87968070890976
 30
0.0
  0
VERTEX
  5
580B9
  8
0
 10
41.072242222518753
 20
56.629245619367467
 30
0.0
  0
VERTEX
  5
580BA
  8
0
 10
41.05919509468503
 20
56.498204883811823
 30
0.0
  0
VERTEX
  5
580BB
  8
0
 10
41.046262236237908
 20
56.361330475893183
 30
0.0
  0
VERTEX
  5
580BC
  8
0
 10
41.021025722827972
 20
56.071692338631358
 30
0.0
  0
VERTEX
  5
580BD
  8
0
 10
40.997050912146513
 20
55.763969792060507
 30
0.0
  0
VERTEX
  5
580BE
  8
0
 10
40.985674683156283
 20
55.604653480230482
 30
0.0
  0
SEQEND
  5
580BF
  8
0
  0
POLYLINE
  5
56DCD
  8
0
 66
     1
 10
0.0
 20
0.0
 30
0.0
  0
VERTEX
  5
580C0
  8
0
 10
40.985674683156283
 20
55.604653480230482
 30
0.0
  0
VERTEX
  5
580C1
  8
0
 10
40.987309963963639
 20
55.504671383598193
 30
0.0
  0
VERTEX
  5
580C2
  8
0
 10
40.999836027110511
 20
55.30214709503106
 30
0.0
  0
VERTEX
  5
580C3
  8
0
 10
41.02353001807159
 20
55.096900629199482
 30
0.0
  0
VERTEX
  5
580C4
  8
0
 10
41.039188092486818
 20
54.993274870213909
 30
0.0
  0
VERTEX
  5
580C5
  8
0
 10
41.057204513583308
 20
54.889034264196439
 30
0.0
  0
VERTEX
  5
580C6
  8
0
 10
41.099787132110691
 20
54.678984176250658
 30
0.0
  0
VERTEX
  5
580C7
  8
0
 10
41.150265318589959
 20
54.46732506520506
 30
0.0
  0
VERTEX
  5
580C8
  8
0
 10
41.2077842745922
 20
54.25427916936043
 30
0.0
  0
VERTEX
  5
580C9
  8
0
 10
41.2716956219491
 20
54.039674906743478
 30
0.0
  0
VERTEX
  5
580CA
  8
0
 10
41.341329183933901
 20
53.823713721610162
 30
0.0
  0
VERTEX
  5
580CB
  8
0
 10
41.378094276025188
 20
53.715291800550979
 30
0.0
  0
VERTEX
  5
580CC
  8
0
 10
41.416057258758542
 20
53.606613497214099
 30
0.0
  0
VERTEX
  5
580CD
  8
0
 10
41.49528431649923
 20
53.388606690704719
 30
0.0
  0
VERTEX
  5
580CE
  8
0
 10
41.578439144456063
 20
53.169939585828743
 30
0.0
  0
VERTEX
  5
580CF
  8
0
 10
41.664982390276457
 20
52.950838311471117
 30
0.0
  0
VERTEX
  5
580D0
  8
0
 10
41.754519860351593
 20
52.731228524770707
 30
0.0
  0
VERTEX
  5
580D1
  8
0
 10
41.84663063643859
 20
52.511168845464347
 30
0.0
  0
VERTEX
  5
580D2
  8
0
 10
41.893515688623317
 20
52.401008881932299
 30
0.0
  0
VERTEX
  5
580D3
  8
0
 10
41.940882942355188
 20
52.290783277388648
 30
0.0
  0
VERTEX
  5
580D4
  8
0
 10
42.036854203780528
 20
52.07019981814063
 30
0.0
  0
VERTEX
  5
580D5
  8
0
 10
42.134128213362828
 20
51.849549555166291
 30
0.0
  0
VERTEX
  5
580D6
  8
0
 10
42.183126912455691
 20
51.739236260468729
 30
0.0
  0
SEQEND
  5
580D7
  8
0
  0
POLYLINE
  5
56DCE
  8
0
 66
     1
 10
0.0
 20
0.0
 30
0.0
  0
VERTEX
  5
580D8
  8
0
 10
42.183126912455691
 20
51.739236260468729
 30
0.0
  0
VERTEX
  5
580D9
  8
0
 10
42.134128213362828
 20
51.628922965771046
 30
0.0
  0
VERTEX
  5
580DA
  8
0
 10
42.036854203780422
 20
51.408272702796822
 30
0.0
  0
VERTEX
  5
580DB
  8
0
 10
41.940882942355188
 20
51.187689243548689
 30
0.0
  0
VERTEX
  5
580DC
  8
0
 10
41.893515688623317
 20
51.077463639005039
 30
0.0
  0
VERTEX
  5
580DD
  8
0
 10
41.846630636438469
 20
50.967303675472991
 30
0.0
  0
VERTEX
  5
580DE
  8
0
 10
41.754519860351593
 20
50.747243996166631
 30
0.0
  0
VERTEX
  5
580DF
  8
0
 10
41.664982390276457
 20
50.527634209466228
 30
0.0
  0
VERTEX
  5
580E0
  8
0
 10
41.578439144455949
 20
50.308532935108602
 30
0.0
  0
VERTEX
  5
580E1
  8
0
 10
41.49528431649923
 20
50.089865830232618
 30
0.0
  0
VERTEX
  5
580E2
  8
0
 10
41.416057258758428
 20
49.871859023723239
 30
0.0
  0
VERTEX
  5
580E3
  8
0
 10
41.378094276025188
 20
49.763180720386359
 30
0.0
  0
VERTEX
  5
580E4
  8
0
 10
41.341329183933787
 20
49.654758799327183
 30
0.0
  0
VERTEX
  5
580E5
  8
0
 10
41.2716956219491
 20
49.438797614193739
 30
0.0
  0
VERTEX
  5
580E6
  8
0
 10
41.207784274592079
 20
49.224193351576801
 30
0.0
  0
VERTEX
  5
580E7
  8
0
 10
41.150265318589959
 20
49.011147455732278
 30
0.0
  0
VERTEX
  5
580E8
  8
0
 10
41.099787132110691
 20
48.799488344686559
 30
0.0
  0
VERTEX
  5
580E9
  8
0
 10
41.057204513583201
 20
48.589438256740792
 30
0.0
  0
VERTEX
  5
580EA
  8
0
 10
41.039188092486818
 20
48.485197650723322
 30
0.0
  0
VERTEX
  5
580EB
  8
0
 10
41.023530018071483
 20
48.38157189173775
 30
0.0
  0
VERTEX
  5
580EC
  8
0
 10
40.999836027110511
 20
48.17632542590605
 30
0.0
  0
VERTEX
  5
580ED
  8
0
 10
40.987309963963639
 20
47.973801137339152
 30
0.0
  0
VERTEX
  5
580EE
  8
0
 10
40.985674683156283
 20
47.873819040706863
 30
0.0
  0
SEQEND
  5
580EF
  8
0
  0
POLYLINE
  5
56DCF
  8
0
 66
     1
 10
0.0
 20
0.0
 30
0.0
  0
VERTEX
  5
580F0
  8
0
 10
40.985674683156283
 20
47.873819040706863
 30
0.0
  0
VERTEX
  5
580F1
  8
0
 10
40.999908793261731
 20
47.675918838190007
 30
0.0
  0
VERTEX
  5
580F2
  8
0
 10
41.030192353467562
 20
47.2978743782419
 30
0.0
  0
VERTEX
  5
580F3
  8
0
 10
41.062146383090862
 20
46.950027958816023
 30
0.0
  0
VERTEX
  5
580F4
  8
0
 10
41.078419610394683
 20
46.789488792163077
 30
0.0
  0
SEQEND
  5
580F5
  8
0
  0
POLYLINE
  5
56DD1
  8
0
 66
     1
 10
0.0
 20
0.0
 30
0.0
  0
VERTEX
  5
580F6
  8
0
 10
48.892929755917969
 20
46.789488792163077
 30
0.0
  0
VERTEX
  5
580F7
  8
0
 10
48.909202983221917
 20
46.950027958816818
 30
0.0
  0
VERTEX
  5
580F8
  8
0
 10
48.94115701284511
 20
47.297874378242348
 30
0.0
  0
VERTEX
  5
580F9
  8
0
 10
48.971440573051041
 20
47.675918838190242
 30
0.0
  0
VERTEX
  5
580FA
  8
0
 10
48.985674683156269
 20
47.873819040706863
 30
0.0
  0
SEQEND
  5
580FB
  8
0
  0
POLYLINE
  5
56DD2
  8
0
 66
     1
 10
0.0
 20
0.0
 30
0.0
  0
VERTEX
  5
580FC
  8
0
 10
48.985674683156269
 20
47.873819040706863
 30
0.0
  0
VERTEX
  5
580FD
  8
0
 10
48.984039402349033
 20
47.973801137339152
 30
0.0
  0
VERTEX
  5
580FE
  8
0
 10
48.971513339202147
 20
48.17632542590605
 30
0.0
  0
VERTEX
  5
580FF
  8
0
 10
48.947819348241069
 20
48.38157189173775
 30
0.0
  0
VERTEX
  5
58100
  8
0
 10
48.932161273825841
 20
48.485197650723428
 30
0.0
  0
VERTEX
  5
58101
  8
0
 10
48.914144852729351
 20
48.589438256740898
 30
0.0
  0
VERTEX
  5
58102
  8
0
 10
48.871562234201967
 20
48.799488344686907
 30
0.0
  0
VERTEX
  5
58103
  8
0
 10
48.821084047722593
 20
49.011147455732633
 30
0.0
  0
VERTEX
  5
58104
  8
0
 10
48.763565091720352
 20
49.22419335157737
 30
0.0
  0
VERTEX
  5
58105
  8
0
 10
48.699653744363331
 20
49.438797614194542
 30
0.0
  0
VERTEX
  5
58106
  8
0
 10
48.63002018237853
 20
49.654758799327979
 30
0.0
  0
VERTEX
  5
58107
  8
0
 10
48.59325509028713
 20
49.763180720387268
 30
0.0
  0
VERTEX
  5
58108
  8
0
 10
48.555292107553889
 20
49.871859023724163
 30
0.0
  0
VERTEX
  5
58109
  8
0
 10
48.476065049812973
 20
50.089865830233762
 30
0.0
  0
VERTEX
  5
5810A
  8
0
 10
48.392910221856141
 20
50.308532935109852
 30
0.0
  0
VERTEX
  5
5810B
  8
0
 10
48.306366976035633
 20
50.527634209467593
 30
0.0
  0
VERTEX
  5
5810C
  8
0
 10
48.216829505960497
 20
50.747243996167882
 30
0.0
  0
VERTEX
  5
5810D
  8
0
 10
48.124718729873727
 20
50.9673036754739
 30
0.0
  0
VERTEX
  5
5810E
  8
0
 10
48.077833677689107
 20
51.077463639005728
 30
0.0
  0
VERTEX
  5
5810F
  8
0
 10
48.03046642395725
 20
51.187689243549258
 30
0.0
  0
VERTEX
  5
58110
  8
0
 10
47.934495162532009
 20
51.408272702797163
 30
0.0
  0
VERTEX
  5
58111
  8
0
 10
47.837221152949724
 20
51.628922965771508
 30
0.0
  0
VERTEX
  5
58112
  8
0
 10
47.788222453856967
 20
51.739236260468729
 30
0.0
  0
SEQEND
  5
58113
  8
0
  0
POLYLINE
  5
56DD3
  8
0
 66
     1
 10
0.0
 20
0.0
 30
0.0
  0
VERTEX
  5
58114
  8
0
 10
47.788222453856967
 20
51.739236260468729
 30
0.0
  0
VERTEX
  5
58115
  8
0
 10
47.837221152949724
 20
51.84954955516595
 30
0.0
  0
VERTEX
  5
58116
  8
0
 10
47.934495162532009
 20
52.070199818140289
 30
0.0
  0
VERTEX
  5
58117
  8
0
 10
48.03046642395725
 20
52.290783277388201
 30
0.0
  0
VERTEX
  5
58118
  8
0
 10
48.077833677689107
 20
52.40100888193161
 30
0.0
  0
VERTEX
  5
58119
  8
0
 10
48.124718729873727
 20
52.511168845463452
 30
0.0
  0
VERTEX
  5
5811A
  8
0
 10
48.216829505960497
 20
52.731228524769463
 30
0.0
  0
VERTEX
  5
5811B
  8
0
 10
48.306366976035633
 20
52.950838311469752
 30
0.0
  0
VERTEX
  5
5811C
  8
0
 10
48.392910221856141
 20
53.169939585827493
 30
0.0
  0
VERTEX
  5
5811D
  8
0
 10
48.476065049812973
 20
53.388606690703583
 30
0.0
  0
VERTEX
  5
5811E
  8
0
 10
48.555292107553782
 20
53.606613497213083
 30
0.0
  0
VERTEX
  5
5811F
  8
0
 10
48.59325509028713
 20
53.715291800550077
 30
0.0
  0
VERTEX
  5
58120
  8
0
 10
48.63002018237853
 20
53.823713721609252
 30
0.0
  0
VERTEX
  5
58121
  8
0
 10
48.699653744363331
 20
54.039674906742803
 30
0.0
  0
VERTEX
  5
58122
  8
0
 10
48.763565091720352
 20
54.254279169359862
 30
0.0
  0
VERTEX
  5
58123
  8
0
 10
48.821084047722593
 20
54.467325065204612
 30
0.0
  0
VERTEX
  5
58124
  8
0
 10
48.871562234201861
 20
54.678984176250331
 30
0.0
  0
VERTEX
  5
58125
  8
0
 10
48.914144852729351
 20
54.889034264196319
 30
0.0
  0
VERTEX
  5
58126
  8
0
 10
48.932161273825841
 20
54.993274870213789
 30
0.0
  0
VERTEX
  5
58127
  8
0
 10
48.947819348241069
 20
55.096900629199361
 30
0.0
  0
VERTEX
  5
58128
  8
0
 10
48.971513339202147
 20
55.302147095031167
 30
0.0
  0
VERTEX
  5
58129
  8
0
 10
48.984039402349033
 20
55.504671383598193
 30
0.0
  0
VERTEX
  5
5812A
  8
0
 10
48.985674683156269
 20
55.604653480230589
 30
0.0
  0
SEQEND
  5
5812B
  8
0
  0
POLYLINE
  5
56DD4
  8
0
 66
     1
 10
0.0
 20
0.0
 30
0.0
  0
VERTEX
  5
5812C
  8
0
 10
48.985674683156269
 20
55.604653480230482
 30
0.0
  0
VERTEX
  5
5812D
  8
0
 10
48.97429845416616
 20
55.763969792060507
 30
0.0
  0
VERTEX
  5
5812E
  8
0
 10
48.950323643484701
 20
56.071692338631358
 30
0.0
  0
VERTEX
  5
5812F
  8
0
 10
48.925087130074758
 20
56.361330475893183
 30
0.0
  0
VERTEX
  5
58130
  8
0
 10
48.912154271627621
 20
56.498204883811823
 30
0.0
  0
VERTEX
  5
58131
  8
0
 10
48.899107143793913
 20
56.629245619367467
 30
0.0
  0
VERTEX
  5
58132
  8
0
 10
48.872171576578239
 20
56.87968070890976
 30
0.0
  0
VERTEX
  5
58133
  8
0
 10
48.842884713011927
 20
57.12486799906447
 30
0.0
  0
VERTEX
  5
58134
  8
0
 10
48.811524817914922
 20
57.360167581762212
 30
0.0
  0
VERTEX
  5
58135
  8
0
 10
48.77851091981529
 20
57.581086636522762
 30
0.0
  0
VERTEX
  5
58136
  8
0
 10
48.744320482527883
 20
57.784067498156013
 30
0.0
  0
VERTEX
  5
58137
  8
0
 10
48.726951103318363
 20
57.877961024804691
 30
0.0
  0
VERTEX
  5
58138
  8
0
 10
48.709496794857607
 20
57.966434265661078
 30
0.0
  0
VERTEX
  5
58139
  8
0
 10
48.674645918322987
 20
58.126415260670697
 30
0.0
  0
VERTEX
  5
5813A
  8
0
 10
48.64008658624914
 20
58.264437320863763
 30
0.0
  0
VERTEX
  5
5813B
  8
0
 10
48.603841378206418
 20
58.388531440700852
 30
0.0
  0
VERTEX
  5
5813C
  8
0
 10
48.565898739002471
 20
58.497021166733951
 30
0.0
  0
VERTEX
  5
5813D
  8
0
 10
48.526813128495519
 20
58.586955416455233
 30
0.0
  0
VERTEX
  5
5813E
  8
0
 10
48.507023112945717
 20
58.62432761182891
 30
0.0
  0
VERTEX
  5
5813F
  8
0
 10
48.487164305738929
 20
58.65643622943913
 30
0.0
  0
VERTEX
  5
58140
  8
0
 10
48.44754728721648
 20
58.7046368796614
 30
0.0
  0
VERTEX
  5
58141
  8
0
 10
48.408587222336791
 20
58.731777094401998
 30
0.0
  0
VERTEX
  5
58142
  8
0
 10
48.389552024974478
 20
58.737810048206612
 30
0.0
  0
SEQEND
  5
58143
  8
0
  0
LINE
  5
56DE5
  8
0
 10
36.985674683156283
 20
30.739236260468729
 30
0.0
 11
52.985674683156283
 21
30.739236260468729
 31
0.0
  0
LINE
  5
56DE7
  8
0
 10
51.287695998155407
 20
37.405902927135358
 30
0.0
 11
38.683653368157252
 21
37.405902927135358
 31
0.0
  0
POLYLINE
  5
56DEF
  8
0
 66
     1
 10
0.0
 20
0.0
 30
0.0
  0
VERTEX
  5
58144
  8
0
 10
47.891738628153689
 20
40.860330386441099
 30
0.0
  0
VERTEX
  5
58145
  8
0
 10
47.894209838820757
 20
40.98138258920973
 30
0.0
  0
VERTEX
  5
58146
  8
0
 10
47.91384868102238
 20
41.229172095183472
 30
0.0
  0
VERTEX
  5
58147
  8
0
 10
47.952790155958041
 20
41.484280995099887
 30
0.0
  0
VERTEX
  5
58148
  8
0
 10
47.97938830226132
 20
41.614484630553783
 30
0.0
  0
SEQEND
  5
58149
  8
0
  0
POLYLINE
  5
56DF0
  8
0
 66
     1
 10
0.0
 20
0.0
 30
0.0
  0
VERTEX
  5
5814A
  8
0
 10
49.267336361726741
 20
38.739236260468729
 30
0.0
  0
VERTEX
  5
5814B
  8
0
 10
49.19073043059381
 20
38.776932508978248
 30
0.0
  0
VERTEX
  5
5814C
  8
0
 10
49.044190543565939
 20
38.856784497352251
 30
0.0
  0
VERTEX
  5
5814D
  8
0
 10
48.906547676628414
 20
38.942386257980743
 30
0.0
  0
VERTEX
  5
5814E
  8
0
 10
48.841062029568782
 20
38.987271859979522
 30
0.0
  0
VERTEX
  5
5814F
  8
0
 10
48.777799351152787
 20
39.03351034234506
 30
0.0
  0
VERTEX
  5
58150
  8
0
 10
48.657941230661088
 20
39.12993616558051
 30
0.0
  0
VERTEX
  5
58151
  8
0
 10
48.546970011870599
 20
39.231444687398508
 30
0.0
  0
VERTEX
  5
58152
  8
0
 10
48.444857857681541
 20
39.337840703626298
 30
0.0
  0
VERTEX
  5
58153
  8
0
 10
48.351570835456073
 20
39.448940352142493
 30
0.0
  0
VERTEX
  5
58154
  8
0
 10
48.267074711888199
 20
39.564562338441547
 30
0.0
  0
VERTEX
  5
58155
  8
0
 10
48.228112782122928
 20
39.624011110194047
 30
0.0
  0
VERTEX
  5
58156
  8
0
 10
48.191331732025667
 20
39.684526481634649
 30
0.0
  0
VERTEX
  5
58157
  8
0
 10
48.124281037385337
 20
39.808686182500331
 30
0.0
  0
VERTEX
  5
58158
  8
0
 10
48.065859496935097
 20
39.936904325939523
 30
0.0
  0
VERTEX
  5
58159
  8
0
 10
48.016002464848491
 20
40.069050277925847
 30
0.0
  0
VERTEX
  5
5815A
  8
0
 10
47.974643150924862
 20
40.204998801867319
 30
0.0
  0
VERTEX
  5
5815B
  8
0
 10
47.941712025925078
 20
40.344629105121392
 30
0.0
  0
VERTEX
  5
5815C
  8
0
 10
47.928385550124631
 20
40.41578161054634
 30
0.0
  0
VERTEX
  5
5815D
  8
0
 10
47.917140594121072
 20
40.487793365466601
 30
0.0
  0
VERTEX
  5
5815E
  8
0
 10
47.900849394505713
 20
40.634346553161564
 30
0.0
  0
VERTEX
  5
5815F
  8
0
 10
47.892747174354213
 20
40.784196632341377
 30
0.0
  0
VERTEX
  5
58160
  8
0
 10
47.891738628153689
 20
40.860330386441099
 30
0.0
  0
SEQEND
  5
58161
  8
0
  0
POLYLINE
  5
56DF1
  8
0
 66
     1
 10
0.0
 20
0.0
 30
0.0
  0
VERTEX
  5
58162
  8
0
 10
51.287695998155407
 20
37.405902927135358
 30
0.0
  0
VERTEX
  5
58163
  8
0
 10
51.219171942529783
 20
37.461759384934702
 30
0.0
  0
VERTEX
  5
58164
  8
0
 10
51.084369099874031
 20
37.572805144557051
 30
0.0
  0
VERTEX
  5
58165
  8
0
 10
50.952535667808888
 20
37.682417008545947
 30
0.0
  0
VERTEX
  5
58166
  8
0
 10
50.887724351062502
 20
37.736484261988387
 30
0.0
  0
VERTEX
  5
58167
  8
0
 10
50.823646294113807
 20
37.789953399221318
 30
0.0
  0
VERTEX
  5
58168
  8
0
 10
50.697680849691437
 20
37.894784746599058
 30
0.0
  0
VERTEX
  5
58169
  8
0
 10
50.574624048600981
 20
37.996293009482102
 30
0.0
  0
VERTEX
  5
5816A
  8
0
 10
50.454464790671523
 20
38.09387110712477
 30
0.0
  0
VERTEX
  5
5816B
  8
0
 10
50.337195237504829
 20
38.186922053947697
 30
0.0
  0
VERTEX
  5
5816C
  8
0
 10
50.222809650736849
 20
38.274857527454188
 30
0.0
  0
VERTEX
  5
5816D
  8
0
 10
50.166696798029527
 20
38.316724926570963
 30
0.0
  0
VERTEX
  5
5816E
  8
0
 10
50.11130305165625
 20
38.357095514855381
 30
0.0
  0
VERTEX
  5
5816F
  8
0
 10
50.002669807607269
 20
38.43305657522594
 30
0.0
  0
VERTEX
  5
58170
  8
0
 10
49.896902317615172
 20
38.502158122715187
 30
0.0
  0
VERTEX
  5
58171
  8
0
 10
49.793990061794027
 20
38.563805990093911
 30
0.0
  0
VERTEX
  5
58172
  8
0
 10
49.69389785166652
 20
38.617393162225319
 30
0.0
  0
VERTEX
  5
58173
  8
0
 10
49.595588303452807
 20
38.662684976791198
 30
0.0
  0
VERTEX
  5
58174
  8
0
 10
49.547003124673438
 20
38.681944431621922
 30
0.0
  0
VERTEX
  5
58175
  8
0
 10
49.4988845140956
 20
38.698717283429588
 30
0.0
  0
VERTEX
  5
58176
  8
0
 10
49.40428999445578
 20
38.724115748113512
 30
0.0
  0
VERTEX
  5
58177
  8
0
 10
49.312260314108237
 20
38.737495572207891
 30
0.0
  0
VERTEX
  5
58178
  8
0
 10
49.267336361726741
 20
38.739236260468729
 30
0.0
  0
SEQEND
  5
58179
  8
0
  0
POLYLINE
  5
56DF7
  8
0
 66
     1
 10
0.0
 20
0.0
 30
0.0
  0
VERTEX
  5
5817A
  8
0
 10
41.078419610394683
 20
46.789488792163077
 30
0.0
  0
VERTEX
  5
5817B
  8
0
 10
41.228617673385877
 20
45.782589729201739
 30
0.0
  0
VERTEX
  5
5817C
  8
0
 10
41.533867533801057
 20
43.936209725707393
 30
0.0
  0
VERTEX
  5
5817D
  8
0
 10
41.838600414525331
 20
42.335714478098353
 30
0.0
  0
VERTEX
  5
5817E
  8
0
 10
41.991961064051338
 20
41.614484630553783
 30
0.0
  0
SEQEND
  5
5817F
  8
0
  0
LINE
  5
56DF8
  8
0
 10
40.985674683156283
 20
47.873819040706863
 30
0.0
 11
40.985674683156283
 21
55.604653480230482
 31
0.0
  0
LINE
  5
56DF9
  8
0
 10
48.985674683156269
 20
47.873819040706863
 30
0.0
 11
48.985674683156269
 21
55.604653480230482
 31
0.0
  0
POLYLINE
  5
56DFA
  8
0
 66
     1
 10
0.0
 20
0.0
 30
0.0
  0
VERTEX
  5
58180
  8
0
 10
47.979388302261214
 20
41.614484630553783
 30
0.0
  0
VERTEX
  5
58181
  8
0
 10
48.132748951787327
 20
42.335714478098353
 30
0.0
  0
VERTEX
  5
58182
  8
0
 10
48.437481832511587
 20
43.936209725707393
 30
0.0
  0
VERTEX
  5
58183
  8
0
 10
48.742731692926782
 20
45.782589729201739
 30
0.0
  0
VERTEX
  5
58184
  8
0
 10
48.892929755917969
 20
46.789488792163077
 30
0.0
  0
SEQEND
  5
58185
  8
0
  0
LINE
  5
56DFF
  8
0
 10
52.985674683156283
 20
30.739236260468729
 30
0.0
 11
52.985674683156283
 21
55.739236260468729
 31
0.0
  0
LINE
  5
56E00
  8
0
 10
36.985674683156283
 20
55.739236260468729
 30
0.0
 11
36.985674683156283
 21
30.739236260468729
 31
0.0
  0
LINE
  5
56E0C
  8
2
 10
122.12343338382679
 20
31.415736260468758
 30
0.0
 11
121.4469333838268
 21
30.739236260468729
 31
0.0
  0
LINE
  5
56E0D
  8
2
 10
129.4469333838268
 20
30.739236260468729
 30
0.0
 11
128.7704333838268
 21
31.415736260468758
 31
0.0
  0
LINE
  5
56E0E
  8
2
 10
122.12343338382679
 20
43.06273626046881
 30
0.0
 11
122.12343338382679
 21
31.415736260468758
 31
0.0
  0
LINE
  5
56E0F
  8
2
 10
128.7704333838268
 20
31.415736260468758
 30
0.0
 11
128.7704333838268
 21
43.06273626046881
 31
0.0
  0
LINE
  5
56E10
  8
2
 10
121.2469333838268
 20
43.939236260468768
 30
0.0
 11
122.12343338382679
 21
43.06273626046881
 31
0.0
  0
LINE
  5
56E11
  8
2
 10
128.7704333838268
 20
43.06273626046881
 30
0.0
 11
129.64693338382671
 21
43.939236260468768
 31
0.0
  0
LINE
  5
56E12
  8
2
 10
121.2469333838268
 20
55.874956439733758
 30
0.0
 11
121.2469333838268
 21
43.939236260468768
 31
0.0
  0
LINE
  5
56E13
  8
2
 10
129.64693338382671
 20
43.939236260468768
 30
0.0
 11
129.64693338382671
 21
55.874956439733758
 31
0.0
  0
LINE
  5
56E15
  8
2
 10
122.12343338382679
 20
31.415736260471149
 30
0.0
 11
128.7704333838268
 21
31.415736260466382
 31
0.0
  0
LINE
  5
56E16
  8
2
 10
122.12343338382679
 20
43.062736260471191
 30
0.0
 11
128.7704333838268
 21
43.062736260466423
 31
0.0
  0
LINE
  5
56E17
  8
2
 10
121.2469333838268
 20
43.939236260471837
 30
0.0
 11
129.64693338382671
 21
43.939236260465712
 31
0.0
  0
LINE
  5
56E1A
  8
2
 10
121.4469333838268
 20
30.739236260468729
 30
0.0
 11
121.4469333838268
 21
43.739236260468729
 31
0.0
  0
LINE
  5
56E1B
  8
2
 10
129.4469333838268
 20
30.739236260468729
 30
0.0
 11
129.4469333838268
 21
43.739236260468729
 31
0.0
  0
LINE
  5
56E2B
  8
0
 10
41.581797341338067
 20
58.737810048206612
 30
0.0
 11
48.408587222336791
 21
58.731777094401998
 31
0.0
  0
CIRCLE
  5
56E55
  8
0
 10
125.4469333838267
 20
111.0971724323738
 30
0.0
 40
3.3234999999998531
  0
CIRCLE
  5
56E56
  8
0
 10
125.4469333838267
 20
111.0971724323738
 30
0.0
 40
4.1999999999999309
  0
CIRCLE
  5
56E59
  8
3
 10
125.4469333838267
 20
111.0971724323738
 30
0.0
 40
3.9999999999998859
  0
TEXT
  5
57B1A
  8
0
 62
     3
 10
0.0
 20
0.0
 30
0.0
 40
10.0
  1
WN55NT-SUS
  7
STANDARD1
  0
VIEWPORT
  5
1EC2F
 67
     1
  8
0
 10
261.51769911504419
 20
148.5
 30
0.0
 40
523.0353982300885
 41
297.0
 68
     1
 69
     1
1001
ACAD
1000
MVIEW
1002
{
1070
    16
1010
0.0
1020
0.0
1030
0.0
1010
0.0
1020
0.0
1030
1.0
1040
0.0
1040
297.0
1040
261.51769911504419
1040
148.5
1040
50.0
1040
0.0
1040
0.0
1070
     0
1070
   100
1070
     1
1070
     1
1070
     0
1070
     0
1070
     0
1070
     0
1040
0.0
1040
0.0
1040
0.0
1040
1.0
1040
1.0
1040
10.0
1040
10.0
1070
     0
1002
{
1002
}
1002
}
  0
ENDSEC
  0
EOF
