  0
SECTION
  2
HEADER
  9
$ACADVER
  1
AC1009
  9
$INSBASE
 10
0.0
 20
0.0
 30
0.0
  9
$EXTMIN
 10
0.0
 20
-2.960436562073669
 30
0.0
  9
$EXTMAX
 10
136.82885484425401
 20
106.24973882678179
 30
0.0
  9
$LIMMIN
 10
0.0
 20
0.0
  9
$LIMMAX
 10
390.0
 20
270.0
  9
$ORTHOMODE
 70
     1
  9
$REGENMODE
 70
     1
  9
$FILLMODE
 70
     1
  9
$QTEXTMODE
 70
     0
  9
$MIRRTEXT
 70
     1
  9
$DRAGMODE
 70
     2
  9
$LTSCALE
 40
5.0
  9
$OSMODE
 70
    55
  9
$ATTMODE
 70
     1
  9
$TEXTSIZE
 40
2.5
  9
$TRACEWID
 40
1.0
  9
$TEXTSTYLE
  7
STANDARD
  9
$CLAYER
  8
4
  9
$CELTYPE
  6
BYLAYER
  9
$CECOLOR
 62
   256
  9
$DIMSCALE
 40
2.0
  9
$DIMASZ
 40
3.0
  9
$DIMEXO
 40
1.0
  9
$DIMDLI
 40
6.0
  9
$DIMRND
 40
0.0
  9
$DIMDLE
 40
0.0
  9
$DIMEXE
 40
1.0
  9
$DIMTP
 40
495.0
  9
$DIMTM
 40
0.0
  9
$DIMTXT
 40
2.5
  9
$DIMCEN
 40
0.0
  9
$DIMTSZ
 40
0.0
  9
$DIMTOL
 70
     0
  9
$DIMLIM
 70
     0
  9
$DIMTIH
 70
     0
  9
$DIMTOH
 70
     0
  9
$DIMSE1
 70
     0
  9
$DIMSE2
 70
     0
  9
$DIMTAD
 70
     1
  9
$DIMZIN
 70
     8
  9
$DIMBLK
  1

  9
$DIMASO
 70
     0
  9
$DIMSHO
 70
     1
  9
$DIMPOST
  1

  9
$DIMAPOST
  1

  9
$DIMALT
 70
     0
  9
$DIMALTD
 70
     2
  9
$DIMALTF
 40
25.399999999999999
  9
$DIMLFAC
 40
1.0
  9
$DIMTOFL
 70
     1
  9
$DIMTVP
 40
0.0
  9
$DIMTIX
 70
     1
  9
$DIMSOXD
 70
     0
  9
$DIMSAH
 70
     0
  9
$DIMBLK1
  1

  9
$DIMBLK2
  1

  9
$DIMSTYLE
  2
ITM
  9
$DIMCLRD
 70
   256
  9
$DIMCLRE
 70
   256
  9
$DIMCLRT
 70
   256
  9
$DIMTFAC
 40
1.0
  9
$DIMGAP
 40
1.0
  9
$LUNITS
 70
     2
  9
$LUPREC
 70
     2
  9
$SKETCHINC
 40
1.0
  9
$FILLETRAD
 40
0.4
  9
$AUNITS
 70
     0
  9
$AUPREC
 70
     0
  9
$MENU
  1
.
  9
$ELEVATION
 40
0.0
  9
$PELEVATION
 40
0.0
  9
$THICKNESS
 40
0.0
  9
$LIMCHECK
 70
     0
  9
$BLIPMODE
 70
     0
  9
$CHAMFERA
 40
1.1999999999999991
  9
$CHAMFERB
 40
1.1999999999999991
  9
$SKPOLY
 70
     0
  9
$TDCREATE
 40
2453354.0921258219
  9
$TDUPDATE
 40
2456598.3923159381
  9
$TDINDWG
 40
513.83241201390001
  9
$TDUSRTIMER
 40
513.83213403939999
  9
$USRTIMER
 70
     1
  9
$ANGBASE
 50
0.0
  9
$ANGDIR
 70
     0
  9
$PDMODE
 70
     0
  9
$PDSIZE
 40
0.0
  9
$PLINEWID
 40
0.0
  9
$COORDS
 70
     1
  9
$SPLFRAME
 70
     0
  9
$SPLINETYPE
 70
     6
  9
$SPLINESEGS
 70
     8
  9
$ATTDIA
 70
     0
  9
$ATTREQ
 70
     1
  9
$HANDLING
 70
     1
  9
$HANDSEED
  5
582E5
  9
$SURFTAB1
 70
     6
  9
$SURFTAB2
 70
     6
  9
$SURFTYPE
 70
     6
  9
$SURFU
 70
     6
  9
$SURFV
 70
     6
  9
$UCSNAME
  2

  9
$UCSORG
 10
0.0
 20
0.0
 30
0.0
  9
$UCSXDIR
 10
1.0
 20
0.0
 30
0.0
  9
$UCSYDIR
 10
0.0
 20
1.0
 30
0.0
  9
$PUCSNAME
  2

  9
$PUCSORG
 10
0.0
 20
0.0
 30
0.0
  9
$PUCSXDIR
 10
1.0
 20
0.0
 30
0.0
  9
$PUCSYDIR
 10
0.0
 20
1.0
 30
0.0
  9
$USERI1
 70
     4
  9
$USERI2
 70
     1
  9
$USERI3
 70
     1
  9
$USERI4
 70
     0
  9
$USERI5
 70
     0
  9
$USERR1
 40
1.0
  9
$USERR2
 40
3.0
  9
$USERR3
 40
3.2000000000000002
  9
$USERR4
 40
3.0
  9
$USERR5
 40
10.0
  9
$WORLDVIEW
 70
     1
  9
$SHADEDGE
 70
     3
  9
$SHADEDIF
 70
    70
  9
$TILEMODE
 70
     1
  9
$MAXACTVP
 70
    16
  9
$PLIMCHECK
 70
     0
  9
$PEXTMIN
 10
0.0
 20
0.0
 30
0.0
  9
$PEXTMAX
 10
0.0
 20
0.0
 30
0.0
  9
$PLIMMIN
 10
0.0
 20
0.0
  9
$PLIMMAX
 10
12.0
 20
9.0
  9
$UNITMODE
 70
     0
  9
$VISRETAIN
 70
     0
  9
$PLINEGEN
 70
     0
  9
$PSLTSCALE
 70
     1
  0
ENDSEC
  0
SECTION
  2
TABLES
  0
TABLE
  2
VPORT
 70
     1
  0
VPORT
  2
*ACTIVE
 70
     0
 10
0.0
 20
0.0
 11
1.0
 21
1.0
 12
194.9940495262785
 22
197.0509055860143
 13
0.0
 23
0.0
 14
5.0
 24
5.0
 15
10.0
 25
10.0
 16
0.0
 26
0.0
 36
1.0
 17
0.0
 27
0.0
 37
0.0
 40
403.57315882993248
 41
1.7807262569832401
 42
50.0
 43
0.0
 44
0.0
 50
0.0
 51
0.0
 71
    16
 72
   500
 73
     1
 74
     1
 75
     0
 76
     0
 77
     0
 78
     1
  0
ENDTAB
  0
TABLE
  2
LTYPE
 70
     4
  0
LTYPE
  2
CONTINUOUS
 70
     0
  3
Solid line
 72
    65
 73
     0
 40
0.0
  0
LTYPE
  2
CENTER
 70
     0
  3
____ _ ____ _ ____ _ ____ _ ____ _ ____ _ ____
 72
    65
 73
     4
 40
2.0
 49
1.25
 49
-0.25
 49
0.25
 49
-0.25
  0
LTYPE
  2
HIDDEN
 70
     0
  3
_ _ _ _ _ _ _ _ _ _ _ _ _ _ _ _ _ _ _ _ _ _ _
 72
    65
 73
     2
 40
0.375
 49
0.25
 49
-0.125
  0
LTYPE
  2
PHANTOM2
 70
     0
  3
___ _ _ ___ _ _ ___ _ _ ___ _ _
 72
    65
 73
     6
 40
1.25
 49
0.625
 49
-0.125
 49
0.125
 49
-0.125
 49
0.125
 49
-0.125
  0
ENDTAB
  0
TABLE
  2
LAYER
 70
     6
  0
LAYER
  2
0
 70
     0
 62
     7
  6
CONTINUOUS
  0
LAYER
  2
1
 70
     0
 62
     1
  6
CENTER
  0
LAYER
  2
WAKU
 70
     0
 62
     5
  6
CONTINUOUS
  0
LAYER
  2
DEFPOINTS
 70
     0
 62
     7
  6
CONTINUOUS
  0
LAYER
  2
4
 70
     0
 62
     4
  6
CONTINUOUS
  0
LAYER
  2
2
 70
     0
 62
     2
  6
HIDDEN
  0
ENDTAB
  0
TABLE
  2
STYLE
 70
     3
  0
STYLE
  2
STANDARD
 70
     0
 40
0.0
 41
1.0
 50
0.0
 71
     0
 42
2.5
  3
ROMANS
  4
EXTFONT
  0
STYLE
  2
K
 70
     0
 40
0.0
 41
0.75
 50
0.0
 71
     0
 42
3.2000000000000002
  3
ROMANS.shx
  4
EXTFONT.shx
  0
STYLE
  2
STANDARD1
 70
     0
 40
0.0
 41
1.0
 50
0.0
 71
     0
 42
3.0
  3
txt
  4

  0
ENDTAB
  0
TABLE
  2
VIEW
 70
     2
  0
VIEW
  2
OLE1
 70
     0
 40
151.81220504325799
 10
73.676474473531471
 20
85.209442582639014
 41
295.93771616027522
 11
0.0
 21
0.0
 31
1.0
 12
0.0
 22
0.0
 32
0.0
 42
50.0
 43
0.0
 44
0.0
 50
0.0
 71
    16
  0
VIEW
  2
OLE2
 70
     0
 40
12.66566269640963
 10
177.82767580922561
 20
80.089748755761136
 41
24.690026015785861
 11
0.0
 21
0.0
 31
1.0
 12
0.0
 22
0.0
 32
0.0
 42
50.0
 43
0.0
 44
0.0
 50
0.0
 71
    16
  0
ENDTAB
  0
TABLE
  2
UCS
 70
     0
  0
ENDTAB
  0
TABLE
  2
APPID
 70
    46
  0
APPID
  2
ACAD
 70
     0
  0
APPID
  2
COMM
 70
     0
  0
APPID
  2
DCO15
 70
     0
  0
APPID
  2
GENIUS_GENOREF_13
 70
     0
  0
APPID
  2
GENIUS_GENOENT_13
 70
     0
  0
APPID
  2
GENIUS_GENBH_13
 70
     0
  0
APPID
  2
GENIUS_GENOBJ_13
 70
     0
  0
APPID
  2
GENIUS_GENODEF_13
 70
     0
  0
APPID
  2
GENIUS_GENOLIS_13
 70
     0
  0
APPID
  2
GENIUS_GENOBJ-NBEHI-BHF_13
 70
     0
  0
APPID
  2
GENIUS_GENOBJ-NBEHI-BHB_13
 70
     0
  0
APPID
  2
GENIUS_GENOBJ-F-PART_13
 70
     0
  0
APPID
  2
GENIUS_GEFSTDP_13
 70
     0
  0
APPID
  2
GENIUS_GENOBJ-N-RSSYM_13
 70
     0
  0
APPID
  2
GENIUS_GENSYMENT_13
 70
     0
  0
APPID
  2
GENIUS_GENOBJ-N-TIT_13
 70
     0
  0
APPID
  2
GENIUS_GENTITLE_13
 70
     0
  0
APPID
  2
GENIUS_GENZVEED_13
 70
     0
  0
APPID
  2
GENIUS_GENOBJ-N-LEADER_13
 70
     0
  0
APPID
  2
GENIUS_GENOBJ-N-FIL_13
 70
     0
  0
APPID
  2
GENIUS_GENOBJ-N-SEC_13
 70
     0
  0
APPID
  2
GENIUS_GENOBJ-N-CRS_13
 70
     0
  0
APPID
  2
GENIUS_GENOBJ-N-ZOO_13
 70
     0
  0
APPID
  2
GENIUS_GENZOO_13
 70
     0
  0
APPID
  2
GENIUS_GENOBJ-F-TOL_13
 70
     0
  0
APPID
  2
GENIUS_GENFIL_13
 70
     0
  0
APPID
  2
GENIUS_GENOBJ-N-CHA_13
 70
     0
  0
APPID
  2
_CALL_MAC$
 70
     0
  0
APPID
  2
ASM_BASE
 70
     0
  0
APPID
  2
ASM_EXPLO_VER_2_00
 70
     0
  0
APPID
  2
ASM_CADM_VER_12_00
 70
     0
  0
APPID
  2
ASM_BASEFORO
 70
     0
  0
APPID
  2
ASM_BASETRAVI
 70
     0
  0
APPID
  2
ASM_BASETRAVI1
 70
     0
  0
APPID
  2
ASM_GRUPPI
 70
     0
  0
APPID
  2
ASM_CADM_ALBERO
 70
     0
  0
APPID
  2
ASM_GOLE
 70
     0
  0
APPID
  2
GENIUS_GEFINERT_13
 70
     0
  0
APPID
  2
GENIUS_GENOBJ-F-INER_13
 70
     0
  0
APPID
  2
GENIUS_GENDTOL_13
 70
     0
  0
APPID
  2
AD_SKETCHDIM
 70
     0
  0
APPID
  2
GENIUS_GENSCREG_15
 70
     0
  0
APPID
  2
GENIUS_GENOBJ-N-SDF_13
 70
     0
  0
APPID
  2
GENIUS_GENOBJ-N-CEN_13
 70
     0
  0
APPID
  2
ACAD_MLEADERVER
 70
     0
  0
APPID
  2
ACAD_NAV_VCDISPLAY
 70
     0
  0
ENDTAB
  0
TABLE
  2
DIMSTYLE
 70
     2
  0
DIMSTYLE
  2
ITM
 70
     0
  3

  4

  5

  6

  7

 40
0.0
 41
2.5
 42
1.0
 43
6.0
 44
1.0
 45
0.0
 46
0.0
 47
495.0
 48
0.0
140
3.0
141
0.0
142
0.0
143
25.399999999999999
144
1.0
145
0.0
146
1.0
147
1.0
 71
     0
 72
     0
 73
     0
 74
     0
 75
     0
 76
     0
 77
     3
 78
     8
170
     0
171
     2
172
     1
173
     0
174
     0
175
     0
176
     0
177
     0
178
     0
  0
DIMSTYLE
  2
STANDARD
 70
     0
  3

  4

  5

  6

  7

 40
1.0
 41
0.18
 42
0.0625
 43
0.38
 44
0.18
 45
0.0
 46
0.0
 47
0.0
 48
0.0
140
0.18
141
0.09
142
0.0
143
25.399999999999999
144
1.0
145
0.0
146
1.0
147
0.09
 71
     0
 72
     0
 73
     1
 74
     1
 75
     0
 76
     0
 77
     0
 78
     0
170
     0
171
     2
172
     0
173
     0
174
     0
175
     0
176
     0
177
     0
178
     0
  0
ENDTAB
  0
ENDSEC
  0
SECTION
  2
BLOCKS
  0
BLOCK
  8
0
  2
$MODEL_SPACE
 70
     0
 10
0.0
 20
0.0
 30
0.0
  3
$MODEL_SPACE
  1

  0
ENDBLK
  5
21
  8
0
  0
BLOCK
 67
     1
  8
0
  2
$PAPER_SPACE
 70
     0
 10
0.0
 20
0.0
 30
0.0
  3
$PAPER_SPACE
  1

  0
ENDBLK
  5
76
 67
     1
  8
0
  0
BLOCK
  8
0
  2
ARROW1
 70
     0
 10
0.0
 20
0.0
 30
0.0
  3
ARROW1
  1

  0
SOLID
  5
18C
  8
WAKU
  6
CONTINUOUS
 62
     4
 10
-1.0
 20
0.1666666666666714
 30
0.0
 11
-1.0
 21
-0.1666666666666714
 31
0.0
 12
0.0
 22
0.0
 32
0.0
 13
0.0
 23
0.0
 33
0.0
  0
ENDBLK
  5
3534A
  8
0
  0
ENDSEC
  0
SECTION
  2
ENTITIES
  0
POLYLINE
  5
57399
  8
0
 66
     1
 10
0.0
 20
0.0
 30
0.0
  0
VERTEX
  5
57BBC
  8
0
 10
47.276423581834678
 20
46.487527559773518
 30
0.0
  0
VERTEX
  5
57BBD
  8
0
 10
47.318571336477298
 20
46.396472562801357
 30
0.0
  0
VERTEX
  5
57BBE
  8
0
 10
47.401623023564753
 20
46.215464588732743
 30
0.0
  0
VERTEX
  5
57BBF
  8
0
 10
47.482679719552458
 20
46.036108555256078
 30
0.0
  0
VERTEX
  5
57BC0
  8
0
 10
47.522354699473929
 20
45.947079011018623
 30
0.0
  0
VERTEX
  5
57BC1
  8
0
 10
47.56140559593117
 20
45.858497705552871
 30
0.0
  0
VERTEX
  5
57BC2
  8
0
 10
47.637471856640218
 20
45.682728727318903
 30
0.0
  0
VERTEX
  5
57BC3
  8
0
 10
47.710554683595078
 20
45.508900895339217
 30
0.0
  0
VERTEX
  5
57BC4
  8
0
 10
47.78033334604541
 20
45.337115067966913
 30
0.0
  0
VERTEX
  5
57BC5
  8
0
 10
47.84648830300435
 20
45.167472608804019
 30
0.0
  0
VERTEX
  5
57BC6
  8
0
 10
47.908699125805178
 20
45.000074311308623
 30
0.0
  0
VERTEX
  5
57BC7
  8
0
 10
47.938224520446788
 20
44.91724782012534
 30
0.0
  0
VERTEX
  5
57BC8
  8
0
 10
47.966642058751063
 20
44.835019417699378
 30
0.0
  0
VERTEX
  5
57BC9
  8
0
 10
48.019987020630019
 20
44.672404845798212
 30
0.0
  0
VERTEX
  5
57BCA
  8
0
 10
48.068446376719038
 20
44.512142670466879
 30
0.0
  0
VERTEX
  5
57BCB
  8
0
 10
48.111996981855071
 20
44.352974937102907
 30
0.0
  0
VERTEX
  5
57BCC
  8
0
 10
48.150114864140193
 20
44.194945434894578
 30
0.0
  0
VERTEX
  5
57BCD
  8
0
 10
48.182144323462779
 20
44.038405194727488
 30
0.0
  0
VERTEX
  5
57BCE
  8
0
 10
48.195660523201333
 20
43.960797101356199
 30
0.0
  0
VERTEX
  5
57BCF
  8
0
 10
48.207389797258678
 20
43.883682942783729
 30
0.0
  0
VERTEX
  5
57BD0
  8
0
 10
48.225116791344611
 20
43.730883864488561
 30
0.0
  0
VERTEX
  5
57BD1
  8
0
 10
48.234458497755561
 20
43.580214211833322
 30
0.0
  0
VERTEX
  5
57BD2
  8
0
 10
48.235674683156269
 20
43.505873676780681
 30
0.0
  0
SEQEND
  5
57BD3
  8
0
  0
POLYLINE
  5
5739A
  8
0
 66
     1
 10
0.0
 20
0.0
 30
0.0
  0
VERTEX
  5
57BD4
  8
0
 10
48.235674683156248
 20
49.469181442766399
 30
0.0
  0
VERTEX
  5
57BD5
  8
0
 10
48.234458497755519
 20
49.394840907713721
 30
0.0
  0
VERTEX
  5
57BD6
  8
0
 10
48.225116791344639
 20
49.244171255058511
 30
0.0
  0
VERTEX
  5
57BD7
  8
0
 10
48.207389797258713
 20
49.09137217676335
 30
0.0
  0
VERTEX
  5
57BD8
  8
0
 10
48.195660523201347
 20
49.014258018190837
 30
0.0
  0
VERTEX
  5
57BD9
  8
0
 10
48.182144323462801
 20
48.936649924819562
 30
0.0
  0
VERTEX
  5
57BDA
  8
0
 10
48.150114864140193
 20
48.780109684652473
 30
0.0
  0
VERTEX
  5
57BDB
  8
0
 10
48.111996981855071
 20
48.622080182444158
 30
0.0
  0
VERTEX
  5
57BDC
  8
0
 10
48.068446376719038
 20
48.462912449080129
 30
0.0
  0
VERTEX
  5
57BDD
  8
0
 10
48.019987020630019
 20
48.302650273748782
 30
0.0
  0
VERTEX
  5
57BDE
  8
0
 10
47.966642058751063
 20
48.14003570184763
 30
0.0
  0
VERTEX
  5
57BDF
  8
0
 10
47.938224520446788
 20
48.057807299421647
 30
0.0
  0
VERTEX
  5
57BE0
  8
0
 10
47.908699125805178
 20
47.974980808238342
 30
0.0
  0
VERTEX
  5
57BE1
  8
0
 10
47.846488303004321
 20
47.807582510742968
 30
0.0
  0
VERTEX
  5
57BE2
  8
0
 10
47.780333346045381
 20
47.63794005158001
 30
0.0
  0
VERTEX
  5
57BE3
  8
0
 10
47.710554683595078
 20
47.466154224207742
 30
0.0
  0
VERTEX
  5
57BE4
  8
0
 10
47.637471856640182
 20
47.292326392228063
 30
0.0
  0
VERTEX
  5
57BE5
  8
0
 10
47.561405595931149
 20
47.11655741399408
 30
0.0
  0
VERTEX
  5
57BE6
  8
0
 10
47.522354699473929
 20
47.027976108528321
 30
0.0
  0
VERTEX
  5
57BE7
  8
0
 10
47.482679719552429
 20
46.938946564290859
 30
0.0
  0
VERTEX
  5
57BE8
  8
0
 10
47.401623023564753
 20
46.759590530814187
 30
0.0
  0
VERTEX
  5
57BE9
  8
0
 10
47.318571336477298
 20
46.57858255674563
 30
0.0
  0
VERTEX
  5
57BEA
  8
0
 10
47.276423581834678
 20
46.487527559773518
 30
0.0
  0
SEQEND
  5
57BEB
  8
0
  0
POLYLINE
  5
5739B
  8
0
 66
     1
 10
0.0
 20
0.0
 30
0.0
  0
VERTEX
  5
57BEC
  8
0
 10
41.735674683156269
 20
49.469181442766399
 30
0.0
  0
VERTEX
  5
57BED
  8
0
 10
41.736890868556991
 20
49.394840907713721
 30
0.0
  0
VERTEX
  5
57BEE
  8
0
 10
41.74623257496787
 20
49.244171255058511
 30
0.0
  0
VERTEX
  5
57BEF
  8
0
 10
41.76395956905381
 20
49.09137217676335
 30
0.0
  0
VERTEX
  5
57BF0
  8
0
 10
41.775688843111162
 20
49.014258018190837
 30
0.0
  0
VERTEX
  5
57BF1
  8
0
 10
41.789205042849709
 20
48.936649924819562
 30
0.0
  0
VERTEX
  5
57BF2
  8
0
 10
41.821234502172331
 20
48.780109684652473
 30
0.0
  0
VERTEX
  5
57BF3
  8
0
 10
41.859352384457452
 20
48.622080182444158
 30
0.0
  0
VERTEX
  5
57BF4
  8
0
 10
41.902902989593478
 20
48.462912449080129
 30
0.0
  0
VERTEX
  5
57BF5
  8
0
 10
41.95136234568249
 20
48.302650273748782
 30
0.0
  0
VERTEX
  5
57BF6
  8
0
 10
42.004707307561461
 20
48.14003570184763
 30
0.0
  0
VERTEX
  5
57BF7
  8
0
 10
42.033124845865729
 20
48.057807299421647
 30
0.0
  0
VERTEX
  5
57BF8
  8
0
 10
42.062650240507331
 20
47.974980808238342
 30
0.0
  0
VERTEX
  5
57BF9
  8
0
 10
42.124861063308202
 20
47.807582510742968
 30
0.0
  0
VERTEX
  5
57BFA
  8
0
 10
42.191016020267142
 20
47.63794005158001
 30
0.0
  0
VERTEX
  5
57BFB
  8
0
 10
42.260794682717432
 20
47.466154224207742
 30
0.0
  0
VERTEX
  5
57BFC
  8
0
 10
42.333877509672327
 20
47.292326392228063
 30
0.0
  0
VERTEX
  5
57BFD
  8
0
 10
42.409943770381368
 20
47.11655741399408
 30
0.0
  0
VERTEX
  5
57BFE
  8
0
 10
42.44899466683858
 20
47.027976108528321
 30
0.0
  0
VERTEX
  5
57BFF
  8
0
 10
42.48866964676008
 20
46.938946564290859
 30
0.0
  0
VERTEX
  5
57C00
  8
0
 10
42.569726342747757
 20
46.759590530814187
 30
0.0
  0
VERTEX
  5
57C01
  8
0
 10
42.652778029835211
 20
46.57858255674563
 30
0.0
  0
VERTEX
  5
57C02
  8
0
 10
42.694925784477839
 20
46.487527559773518
 30
0.0
  0
SEQEND
  5
57C03
  8
0
  0
POLYLINE
  5
5739C
  8
0
 66
     1
 10
0.0
 20
0.0
 30
0.0
  0
VERTEX
  5
57C04
  8
0
 10
42.694925784477839
 20
46.487527559773518
 30
0.0
  0
VERTEX
  5
57C05
  8
0
 10
42.652778029835211
 20
46.396472562801357
 30
0.0
  0
VERTEX
  5
57C06
  8
0
 10
42.569726342747757
 20
46.215464588732743
 30
0.0
  0
VERTEX
  5
57C07
  8
0
 10
42.488669646760059
 20
46.036108555256078
 30
0.0
  0
VERTEX
  5
57C08
  8
0
 10
42.44899466683858
 20
45.947079011018623
 30
0.0
  0
VERTEX
  5
57C09
  8
0
 10
42.409943770381339
 20
45.858497705552871
 30
0.0
  0
VERTEX
  5
57C0A
  8
0
 10
42.333877509672313
 20
45.682728727318903
 30
0.0
  0
VERTEX
  5
57C0B
  8
0
 10
42.260794682717432
 20
45.508900895339217
 30
0.0
  0
VERTEX
  5
57C0C
  8
0
 10
42.191016020267107
 20
45.337115067966913
 30
0.0
  0
VERTEX
  5
57C0D
  8
0
 10
42.124861063308167
 20
45.167472608804019
 30
0.0
  0
VERTEX
  5
57C0E
  8
0
 10
42.062650240507331
 20
45.000074311308623
 30
0.0
  0
VERTEX
  5
57C0F
  8
0
 10
42.033124845865729
 20
44.91724782012534
 30
0.0
  0
VERTEX
  5
57C10
  8
0
 10
42.004707307561461
 20
44.835019417699378
 30
0.0
  0
VERTEX
  5
57C11
  8
0
 10
41.95136234568249
 20
44.672404845798212
 30
0.0
  0
VERTEX
  5
57C12
  8
0
 10
41.902902989593478
 20
44.512142670466879
 30
0.0
  0
VERTEX
  5
57C13
  8
0
 10
41.859352384457452
 20
44.352974937102907
 30
0.0
  0
VERTEX
  5
57C14
  8
0
 10
41.821234502172331
 20
44.194945434894578
 30
0.0
  0
VERTEX
  5
57C15
  8
0
 10
41.789205042849737
 20
44.038405194727488
 30
0.0
  0
VERTEX
  5
57C16
  8
0
 10
41.775688843111197
 20
43.960797101356199
 30
0.0
  0
VERTEX
  5
57C17
  8
0
 10
41.763959569053831
 20
43.883682942783729
 30
0.0
  0
VERTEX
  5
57C18
  8
0
 10
41.746232574967898
 20
43.730883864488561
 30
0.0
  0
VERTEX
  5
57C19
  8
0
 10
41.736890868556969
 20
43.580214211833322
 30
0.0
  0
VERTEX
  5
57C1A
  8
0
 10
41.73567468315624
 20
43.505873676780681
 30
0.0
  0
SEQEND
  5
57C1B
  8
0
  0
LINE
  5
5739F
  8
0
 10
42.174601451491299
 20
51.737527559773461
 30
0.0
 11
47.796747914821189
 21
51.737527559773461
 31
0.0
  0
POLYLINE
  5
573A0
  8
0
 66
     1
 10
0.0
 20
0.0
 30
0.0
  0
VERTEX
  5
57C1C
  8
0
 10
99.514587649232112
 20
51.737527559773461
 30
0.0
  0
VERTEX
  5
57C1D
  8
0
 10
99.677336924302324
 20
51.730846582271511
 30
0.0
  0
VERTEX
  5
57C1E
  8
0
 10
100.00182231219441
 20
51.70235902227386
 30
0.0
  0
VERTEX
  5
57C1F
  8
0
 10
100.3239164991121
 20
51.653803458391621
 30
0.0
  0
VERTEX
  5
57C20
  8
0
 10
100.4836789308635
 20
51.622055586066828
 30
0.0
  0
SEQEND
  5
57C21
  8
0
  0
LINE
  5
573A1
  8
0
 10
38.235674683156283
 20
49.739236260468537
 30
0.0
 11
38.235674683156283
 21
30.739236260468541
 31
0.0
  0
LINE
  5
573A2
  8
0
 10
51.735674683156283
 20
30.739236260468541
 30
0.0
 11
51.735674683156283
 21
49.739236260468537
 31
0.0
  0
LINE
  5
573A3
  8
0
 10
51.735674683156283
 20
30.739236260468541
 30
0.0
 11
38.235674683156283
 21
30.739236260468541
 31
0.0
  0
LINE
  5
573A4
  8
0
 10
50.36409575684894
 20
36.114236260468552
 30
0.0
 11
39.607253609463548
 21
36.114236260468552
 31
0.0
  0
LINE
  5
573A5
  8
0
 10
41.735674683156269
 20
43.507582377475778
 30
0.0
 11
41.735674683156269
 21
49.470890143461361
 31
0.0
  0
POLYLINE
  5
573A6
  8
0
 66
     1
 10
0.0
 20
0.0
 30
0.0
  0
VERTEX
  5
57C22
  8
0
 10
41.799460329223763
 20
42.77692565923897
 30
0.0
  0
VERTEX
  5
57C23
  8
0
 10
41.877892541375012
 20
42.242193872691388
 30
0.0
  0
VERTEX
  5
57C24
  8
0
 10
42.036894785084392
 20
41.235174318569499
 30
0.0
  0
VERTEX
  5
57C25
  8
0
 10
42.196863486532003
 20
40.318713609366398
 30
0.0
  0
VERTEX
  5
57C26
  8
0
 10
42.276457049549798
 20
39.896486354152927
 30
0.0
  0
SEQEND
  5
57C27
  8
0
  0
POLYLINE
  5
573A7
  8
0
 66
     1
 10
0.0
 20
0.0
 30
0.0
  0
VERTEX
  5
57C28
  8
0
 10
42.276457049549798
 20
39.896486354152927
 30
0.0
  0
VERTEX
  5
57C29
  8
0
 10
42.298845657070594
 20
39.771487200668361
 30
0.0
  0
VERTEX
  5
57C2A
  8
0
 10
42.331698366058312
 20
39.526823129259697
 30
0.0
  0
VERTEX
  5
57C2B
  8
0
 10
42.348315698962288
 20
39.289534212131322
 30
0.0
  0
VERTEX
  5
57C2C
  8
0
 10
42.350411462078107
 20
39.17375578119195
 30
0.0
  0
SEQEND
  5
57C2D
  8
0
  0
POLYLINE
  5
573A8
  8
0
 66
     1
 10
0.0
 20
0.0
 30
0.0
  0
VERTEX
  5
57C2E
  8
0
 10
42.350411462078107
 20
39.17375578119195
 30
0.0
  0
VERTEX
  5
57C2F
  8
0
 10
42.34963265900879
 20
39.104357534739741
 30
0.0
  0
VERTEX
  5
57C30
  8
0
 10
42.343368836277278
 20
38.9677764333398
 30
0.0
  0
VERTEX
  5
57C31
  8
0
 10
42.330755579634541
 20
38.834214090483897
 30
0.0
  0
VERTEX
  5
57C32
  8
0
 10
42.322039803493311
 20
38.768590010531618
 30
0.0
  0
VERTEX
  5
57C33
  8
0
 10
42.311702990715993
 20
38.703752238318998
 30
0.0
  0
VERTEX
  5
57C34
  8
0
 10
42.286129906730821
 20
38.576518728264041
 30
0.0
  0
VERTEX
  5
57C35
  8
0
 10
42.253961676236941
 20
38.45263800003778
 30
0.0
  0
VERTEX
  5
57C36
  8
0
 10
42.215124674961508
 20
38.332219908494892
 30
0.0
  0
VERTEX
  5
57C37
  8
0
 10
42.169547880859731
 20
38.215377422861508
 30
0.0
  0
VERTEX
  5
57C38
  8
0
 10
42.1171623643435
 20
38.10222743030895
 30
0.0
  0
VERTEX
  5
57C39
  8
0
 10
42.088395232940087
 20
38.047074940980792
 30
0.0
  0
VERTEX
  5
57C3A
  8
0
 10
42.057900742033489
 20
37.992891653590448
 30
0.0
  0
VERTEX
  5
57C3B
  8
0
 10
41.99169660839226
 20
37.887497681535741
 30
0.0
  0
VERTEX
  5
57C3C
  8
0
 10
41.918490973464309
 20
37.786189169772598
 30
0.0
  0
VERTEX
  5
57C3D
  8
0
 10
41.838248242198198
 20
37.689140151034849
 30
0.0
  0
VERTEX
  5
57C3E
  8
0
 10
41.750930553054552
 20
37.59651664911221
 30
0.0
  0
VERTEX
  5
57C3F
  8
0
 10
41.656503954488038
 20
37.508489854649547
 30
0.0
  0
VERTEX
  5
57C40
  8
0
 10
41.606615312876642
 20
37.466255597243638
 30
0.0
  0
VERTEX
  5
57C41
  8
0
 10
41.554938492159877
 20
37.425237893017879
 30
0.0
  0
VERTEX
  5
57C42
  8
0
 10
41.44620765346076
 20
37.346946465663422
 30
0.0
  0
VERTEX
  5
57C43
  8
0
 10
41.330287880220162
 20
37.273809272151368
 30
0.0
  0
VERTEX
  5
57C44
  8
0
 10
41.269625490868123
 20
37.239236260468537
 30
0.0
  0
SEQEND
  5
57C45
  8
0
  0
POLYLINE
  5
573A9
  8
0
 66
     1
 10
0.0
 20
0.0
 30
0.0
  0
VERTEX
  5
57C46
  8
0
 10
41.269625490868087
 20
37.239236260468537
 30
0.0
  0
VERTEX
  5
57C47
  8
0
 10
41.23312158514306
 20
37.237778663293277
 30
0.0
  0
VERTEX
  5
57C48
  8
0
 10
41.158294141249371
 20
37.226576563793373
 30
0.0
  0
VERTEX
  5
57C49
  8
0
 10
41.081333727276949
 20
37.205320402377879
 30
0.0
  0
VERTEX
  5
57C4A
  8
0
 10
41.042173589176912
 20
37.191289218033027
 30
0.0
  0
VERTEX
  5
57C4B
  8
0
 10
41.002629398248388
 20
37.175184035880022
 30
0.0
  0
VERTEX
  5
57C4C
  8
0
 10
40.92259695669793
 20
37.137329116558853
 30
0.0
  0
VERTEX
  5
57C4D
  8
0
 10
40.840648858966802
 20
37.092309921987408
 30
0.0
  0
VERTEX
  5
57C4E
  8
0
 10
40.75626321488766
 20
37.040455457085443
 30
0.0
  0
VERTEX
  5
57C4F
  8
0
 10
40.669426151671423
 20
36.982280068568599
 30
0.0
  0
VERTEX
  5
57C50
  8
0
 10
40.580126553640689
 20
36.918279443789828
 30
0.0
  0
VERTEX
  5
57C51
  8
0
 10
40.534550529440537
 20
36.884247004609392
 30
0.0
  0
VERTEX
  5
57C52
  8
0
 10
40.488355782687329
 20
36.848940651752059
 30
0.0
  0
VERTEX
  5
57C53
  8
0
 10
40.394106794713537
 20
36.77474915263673
 30
0.0
  0
VERTEX
  5
57C54
  8
0
 10
40.297372966473631
 20
36.696193530279011
 30
0.0
  0
VERTEX
  5
57C55
  8
0
 10
40.198146849191538
 20
36.613768578143748
 30
0.0
  0
VERTEX
  5
57C56
  8
0
 10
40.096418990041222
 20
36.527977243512112
 30
0.0
  0
VERTEX
  5
57C57
  8
0
 10
39.992176907968371
 20
36.439331822294889
 30
0.0
  0
VERTEX
  5
57C58
  8
0
 10
39.939108098336391
 20
36.394101666759468
 30
0.0
  0
VERTEX
  5
57C59
  8
0
 10
39.88540427276871
 20
36.348354704445057
 30
0.0
  0
VERTEX
  5
57C5A
  8
0
 10
39.776080312064892
 20
36.255578898343089
 30
0.0
  0
VERTEX
  5
57C5B
  8
0
 10
39.66417945664341
 20
36.161548510154347
 30
0.0
  0
VERTEX
  5
57C5C
  8
0
 10
39.607253609463527
 20
36.114236260468552
 30
0.0
  0
SEQEND
  5
57C5D
  8
0
  0
POLYLINE
  5
573AA
  8
0
 66
     1
 10
0.0
 20
0.0
 30
0.0
  0
VERTEX
  5
57C5E
  8
0
 10
41.73567468315624
 20
43.507582377475778
 30
0.0
  0
VERTEX
  5
57C5F
  8
0
 10
41.745606961010758
 20
43.374652307520421
 30
0.0
  0
VERTEX
  5
57C60
  8
0
 10
41.766513395286381
 20
43.120618591188361
 30
0.0
  0
VERTEX
  5
57C61
  8
0
 10
41.788367783764407
 20
42.885905698620029
 30
0.0
  0
VERTEX
  5
57C62
  8
0
 10
41.799460329223763
 20
42.776925659238991
 30
0.0
  0
SEQEND
  5
57C63
  8
0
  0
POLYLINE
  5
573AB
  8
0
 66
     1
 10
0.0
 20
0.0
 30
0.0
  0
VERTEX
  5
57C64
  8
0
 10
42.17460145149132
 20
51.737527559773461
 30
0.0
  0
VERTEX
  5
57C65
  8
0
 10
42.160615677422363
 20
51.732429640127073
 30
0.0
  0
VERTEX
  5
57C66
  8
0
 10
42.132036702608929
 20
51.711421903687658
 30
0.0
  0
VERTEX
  5
57C67
  8
0
 10
42.103018417296312
 20
51.675374982934777
 30
0.0
  0
VERTEX
  5
57C68
  8
0
 10
42.088481278033157
 20
51.651648161086882
 30
0.0
  0
VERTEX
  5
57C69
  8
0
 10
42.073995462667682
 20
51.624173708274327
 30
0.0
  0
VERTEX
  5
57C6A
  8
0
 10
42.04537869907989
 20
51.55840413681068
 30
0.0
  0
VERTEX
  5
57C6B
  8
0
 10
42.017568955762727
 20
51.479373032305382
 30
0.0
  0
VERTEX
  5
57C6C
  8
0
 10
41.990956035797893
 20
51.389117809252689
 30
0.0
  0
VERTEX
  5
57C6D
  8
0
 10
41.965621477918738
 20
51.289159332917563
 30
0.0
  0
VERTEX
  5
57C6E
  8
0
 10
41.940127515581537
 20
51.173846252423971
 30
0.0
  0
VERTEX
  5
57C6F
  8
0
 10
41.927339448499332
 20
51.110098803861092
 30
0.0
  0
VERTEX
  5
57C70
  8
0
 10
41.914598100996038
 20
51.042444453709663
 30
0.0
  0
VERTEX
  5
57C71
  8
0
 10
41.889463780029452
 20
50.896118082333601
 30
0.0
  0
VERTEX
  5
57C72
  8
0
 10
41.86510917073457
 20
50.736629693770908
 30
0.0
  0
VERTEX
  5
57C73
  8
0
 10
41.841871962304928
 20
50.566322125451279
 30
0.0
  0
VERTEX
  5
57C74
  8
0
 10
41.820054600644681
 20
50.388201677385723
 30
0.0
  0
VERTEX
  5
57C75
  8
0
 10
41.799912862235033
 20
50.20586089967901
 30
0.0
  0
VERTEX
  5
57C76
  8
0
 10
41.790335260724873
 20
50.112361624121029
 30
0.0
  0
VERTEX
  5
57C77
  8
0
 10
41.780809881775973
 20
50.014562630987143
 30
0.0
  0
VERTEX
  5
57C78
  8
0
 10
41.762119568591693
 20
49.807077151646119
 30
0.0
  0
VERTEX
  5
57C79
  8
0
 10
41.744222754657947
 20
49.585811008015753
 30
0.0
  0
VERTEX
  5
57C7A
  8
0
 10
41.735674683156269
 20
49.470890143461361
 30
0.0
  0
SEQEND
  5
57C7B
  8
0
  0
POLYLINE
  5
573AC
  8
0
 66
     1
 10
0.0
 20
0.0
 30
0.0
  0
VERTEX
  5
57C7C
  8
0
 10
47.694892316762662
 20
39.896486354152927
 30
0.0
  0
VERTEX
  5
57C7D
  8
0
 10
47.77448587978057
 20
40.318713609366903
 30
0.0
  0
VERTEX
  5
57C7E
  8
0
 10
47.934454581228692
 20
41.235174318573293
 30
0.0
  0
VERTEX
  5
57C7F
  8
0
 10
48.093456824937668
 20
42.242193872692809
 30
0.0
  0
VERTEX
  5
57C80
  8
0
 10
48.171889037088711
 20
42.77692565923897
 30
0.0
  0
SEQEND
  5
57C81
  8
0
  0
POLYLINE
  5
573AD
  8
0
 66
     1
 10
0.0
 20
0.0
 30
0.0
  0
VERTEX
  5
57C82
  8
0
 10
48.171889037088711
 20
42.776925659238991
 30
0.0
  0
VERTEX
  5
57C83
  8
0
 10
48.182981582547967
 20
42.885905698618977
 30
0.0
  0
VERTEX
  5
57C84
  8
0
 10
48.204835971026029
 20
43.120618591187679
 30
0.0
  0
VERTEX
  5
57C85
  8
0
 10
48.225742405301702
 20
43.374652307520194
 30
0.0
  0
VERTEX
  5
57C86
  8
0
 10
48.235674683156248
 20
43.507582377475778
 30
0.0
  0
SEQEND
  5
57C87
  8
0
  0
LINE
  5
573AE
  8
0
 10
48.235674683156269
 20
43.507582377475778
 30
0.0
 11
48.235674683156269
 21
49.470890143461361
 31
0.0
  0
POLYLINE
  5
573AF
  8
0
 66
     1
 10
0.0
 20
0.0
 30
0.0
  0
VERTEX
  5
57C88
  8
0
 10
48.235674683156269
 20
49.470890143461361
 30
0.0
  0
VERTEX
  5
57C89
  8
0
 10
48.227126611654597
 20
49.585811008015753
 30
0.0
  0
VERTEX
  5
57C8A
  8
0
 10
48.209229797720859
 20
49.807077151646183
 30
0.0
  0
VERTEX
  5
57C8B
  8
0
 10
48.190539484536572
 20
50.014562630987143
 30
0.0
  0
VERTEX
  5
57C8C
  8
0
 10
48.18101410558765
 20
50.112361624121029
 30
0.0
  0
VERTEX
  5
57C8D
  8
0
 10
48.171436504077519
 20
50.20586089967901
 30
0.0
  0
VERTEX
  5
57C8E
  8
0
 10
48.151294765667842
 20
50.388201677385723
 30
0.0
  0
VERTEX
  5
57C8F
  8
0
 10
48.129477404007623
 20
50.566322125451279
 30
0.0
  0
VERTEX
  5
57C90
  8
0
 10
48.106240195577982
 20
50.736629693770908
 30
0.0
  0
VERTEX
  5
57C91
  8
0
 10
48.081885586283107
 20
50.896118082333601
 30
0.0
  0
VERTEX
  5
57C92
  8
0
 10
48.0567512653165
 20
51.042444453709663
 30
0.0
  0
VERTEX
  5
57C93
  8
0
 10
48.044009917813213
 20
51.110098803861092
 30
0.0
  0
VERTEX
  5
57C94
  8
0
 10
48.031221850731008
 20
51.173846252423971
 30
0.0
  0
VERTEX
  5
57C95
  8
0
 10
48.005727888393778
 20
51.289159332917563
 30
0.0
  0
VERTEX
  5
57C96
  8
0
 10
47.980393330514651
 20
51.389117809252689
 30
0.0
  0
VERTEX
  5
57C97
  8
0
 10
47.953780410549818
 20
51.479373032305382
 30
0.0
  0
VERTEX
  5
57C98
  8
0
 10
47.925970667232662
 20
51.55840413681068
 30
0.0
  0
VERTEX
  5
57C99
  8
0
 10
47.897353903644863
 20
51.624173708274327
 30
0.0
  0
VERTEX
  5
57C9A
  8
0
 10
47.882868088279359
 20
51.651648161086882
 30
0.0
  0
VERTEX
  5
57C9B
  8
0
 10
47.86833094901624
 20
51.675374982934777
 30
0.0
  0
VERTEX
  5
57C9C
  8
0
 10
47.839312663703623
 20
51.711421903687658
 30
0.0
  0
VERTEX
  5
57C9D
  8
0
 10
47.810733688890188
 20
51.732429640127073
 30
0.0
  0
VERTEX
  5
57C9E
  8
0
 10
47.796747914821189
 20
51.737527559773461
 30
0.0
  0
SEQEND
  5
57C9F
  8
0
  0
POLYLINE
  5
573B0
  8
0
 66
     1
 10
0.0
 20
0.0
 30
0.0
  0
VERTEX
  5
57CA0
  8
0
 10
50.36409575684894
 20
36.114236260468552
 30
0.0
  0
VERTEX
  5
57CA1
  8
0
 10
50.307169924239133
 20
36.161548497994858
 30
0.0
  0
VERTEX
  5
57CA2
  8
0
 10
50.195269092753449
 20
36.255578865794917
 30
0.0
  0
VERTEX
  5
57CA3
  8
0
 10
50.085945150015107
 20
36.348354656377353
 30
0.0
  0
VERTEX
  5
57CA4
  8
0
 10
50.032241331427308
 20
36.394101612681403
 30
0.0
  0
VERTEX
  5
57CA5
  8
0
 10
49.979172527557637
 20
36.439331763318741
 30
0.0
  0
VERTEX
  5
57CA6
  8
0
 10
49.874930453687341
 20
36.527977177881873
 30
0.0
  0
VERTEX
  5
57CA7
  8
0
 10
49.773202598827083
 20
36.613768509678522
 30
0.0
  0
VERTEX
  5
57CA8
  8
0
 10
49.673976482500343
 20
36.696193462301807
 30
0.0
  0
VERTEX
  5
57CA9
  8
0
 10
49.577242652415798
 20
36.774749087929791
 30
0.0
  0
VERTEX
  5
57CAA
  8
0
 10
49.482993660295222
 20
36.848940592526993
 30
0.0
  0
VERTEX
  5
57CAB
  8
0
 10
49.436798910752003
 20
36.884246948771761
 30
0.0
  0
VERTEX
  5
57CAC
  8
0
 10
49.391222883358658
 20
36.918279391672463
 30
0.0
  0
VERTEX
  5
57CAD
  8
0
 10
49.301923277945939
 20
36.98228002459814
 30
0.0
  0
VERTEX
  5
57CAE
  8
0
 10
49.215086206360553
 20
37.040455421728439
 30
0.0
  0
VERTEX
  5
57CAF
  8
0
 10
49.130700553311698
 20
37.092309895167183
 30
0.0
  0
VERTEX
  5
57CB0
  8
0
 10
49.048752446370059
 20
37.13732909770053
 30
0.0
  0
VERTEX
  5
57CB1
  8
0
 10
48.968719996194721
 20
37.175184023773433
 30
0.0
  0
VERTEX
  5
57CB2
  8
0
 10
48.929175801030873
 20
37.1912892088707
 30
0.0
  0
VERTEX
  5
57CB3
  8
0
 10
48.890015658740481
 20
37.20532039582875
 30
0.0
  0
VERTEX
  5
57CB4
  8
0
 10
48.813055236590827
 20
37.226576561300391
 30
0.0
  0
VERTEX
  5
57CB5
  8
0
 10
48.738227784894967
 20
37.237778663000938
 30
0.0
  0
VERTEX
  5
57CB6
  8
0
 10
48.701723875444401
 20
37.239236260468537
 30
0.0
  0
SEQEND
  5
57CB7
  8
0
  0
POLYLINE
  5
573B1
  8
0
 66
     1
 10
0.0
 20
0.0
 30
0.0
  0
VERTEX
  5
57CB8
  8
0
 10
48.701723875444372
 20
37.239236260468537
 30
0.0
  0
VERTEX
  5
57CB9
  8
0
 10
48.641050742412261
 20
37.273815608789
 30
0.0
  0
VERTEX
  5
57CBA
  8
0
 10
48.525108707411484
 20
37.346968724253401
 30
0.0
  0
VERTEX
  5
57CBB
  8
0
 10
48.416356786704142
 20
37.425279460680713
 30
0.0
  0
VERTEX
  5
57CBC
  8
0
 10
48.364670579584839
 20
37.466307633474059
 30
0.0
  0
VERTEX
  5
57CBD
  8
0
 10
48.314773635705031
 20
37.508552608424509
 30
0.0
  0
VERTEX
  5
57CBE
  8
0
 10
48.22033442498067
 20
37.596600566363783
 30
0.0
  0
VERTEX
  5
57CBF
  8
0
 10
48.133010334696081
 20
37.689242966498
 30
0.0
  0
VERTEX
  5
57CC0
  8
0
 10
48.052770194899487
 20
37.786303230423449
 30
0.0
  0
VERTEX
  5
57CC1
  8
0
 10
47.979581861215252
 20
37.88760284675277
 30
0.0
  0
VERTEX
  5
57CC2
  8
0
 10
47.913388883281918
 20
37.992993943885438
 30
0.0
  0
VERTEX
  5
57CC3
  8
0
 10
47.882896824231608
 20
38.04718069233607
 30
0.0
  0
VERTEX
  5
57CC4
  8
0
 10
47.85413083965917
 20
38.102339400281437
 30
0.0
  0
VERTEX
  5
57CC5
  8
0
 10
47.801745770736112
 20
38.215508293540303
 30
0.0
  0
VERTEX
  5
57CC6
  8
0
 10
47.756169596241563
 20
38.332374850402289
 30
0.0
  0
VERTEX
  5
57CC7
  8
0
 10
47.717335552439181
 20
38.45281750008175
 30
0.0
  0
VERTEX
  5
57CC8
  8
0
 10
47.685174729547427
 20
38.576713407949512
 30
0.0
  0
VERTEX
  5
57CC9
  8
0
 10
47.659619012821558
 20
38.703910395677667
 30
0.0
  0
VERTEX
  5
57CCA
  8
0
 10
47.64929142219313
 20
38.768714277277127
 30
0.0
  0
VERTEX
  5
57CCB
  8
0
 10
47.64058260230334
 20
38.834307456595809
 30
0.0
  0
VERTEX
  5
57CCC
  8
0
 10
47.627977470487281
 20
38.967820296108641
 30
0.0
  0
VERTEX
  5
57CCD
  8
0
 10
47.621716467313377
 20
39.104368159157758
 30
0.0
  0
VERTEX
  5
57CCE
  8
0
 10
47.620937904234353
 20
39.173755781313048
 30
0.0
  0
SEQEND
  5
57CCF
  8
0
  0
POLYLINE
  5
573B2
  8
0
 66
     1
 10
0.0
 20
0.0
 30
0.0
  0
VERTEX
  5
57CD0
  8
0
 10
47.620937904234353
 20
39.173755781313048
 30
0.0
  0
VERTEX
  5
57CD1
  8
0
 10
47.623032849160658
 20
39.289511375782901
 30
0.0
  0
VERTEX
  5
57CD2
  8
0
 10
47.639646925058457
 20
39.526783523542242
 30
0.0
  0
VERTEX
  5
57CD3
  8
0
 10
47.672500244792161
 20
39.771466139756228
 30
0.0
  0
VERTEX
  5
57CD4
  8
0
 10
47.694892316762662
 20
39.896486354152927
 30
0.0
  0
SEQEND
  5
57CD5
  8
0
  0
POLYLINE
  5
573B3
  8
0
 66
     1
 10
0.0
 20
0.0
 30
0.0
  0
VERTEX
  5
57CD6
  8
0
 10
50.364095756848961
 20
49.903853511311347
 30
0.0
  0
VERTEX
  5
57CD7
  8
0
 10
50.409312002832102
 20
49.899012473116393
 30
0.0
  0
VERTEX
  5
57CD8
  8
0
 10
50.497978056247149
 20
49.889403238135863
 30
0.0
  0
VERTEX
  5
57CD9
  8
0
 10
50.584192756460062
 20
49.879912050005373
 30
0.0
  0
VERTEX
  5
57CDA
  8
0
 10
50.626346449368747
 20
49.875218486571839
 30
0.0
  0
VERTEX
  5
57CDB
  8
0
 10
50.667847141752929
 20
49.870563668483562
 30
0.0
  0
VERTEX
  5
57CDC
  8
0
 10
50.748839277005089
 20
49.861382377449452
 30
0.0
  0
VERTEX
  5
57CDD
  8
0
 10
50.82707175521665
 20
49.852392164267137
 30
0.0
  0
VERTEX
  5
57CDE
  8
0
 10
50.902452505937362
 20
49.843616537645403
 30
0.0
  0
VERTEX
  5
57CDF
  8
0
 10
50.974895295808473
 20
49.8350783772417
 30
0.0
  0
VERTEX
  5
57CE0
  8
0
 10
51.044320154238619
 20
49.826799791275327
 30
0.0
  0
VERTEX
  5
57CE1
  8
0
 10
51.077877669146893
 20
49.822764503636272
 30
0.0
  0
VERTEX
  5
57CE2
  8
0
 10
51.110653726248252
 20
49.818801983518711
 30
0.0
  0
VERTEX
  5
57CE3
  8
0
 10
51.173829552811469
 20
49.811105131112072
 30
0.0
  0
VERTEX
  5
57CE4
  8
0
 10
51.233788764487372
 20
49.803728214502257
 30
0.0
  0
VERTEX
  5
57CE5
  8
0
 10
51.29049246513668
 20
49.796687390513171
 30
0.0
  0
VERTEX
  5
57CE6
  8
0
 10
51.343897774715167
 20
49.78999886507512
 30
0.0
  0
VERTEX
  5
57CE7
  8
0
 10
51.393960576449977
 20
49.783678540661747
 30
0.0
  0
VERTEX
  5
57CE8
  8
0
 10
51.417726442447673
 20
49.780661076983328
 30
0.0
  0
VERTEX
  5
57CE9
  8
0
 10
51.440642985262087
 20
49.777741041887509
 30
0.0
  0
VERTEX
  5
57CEA
  8
0
 10
51.48391376277425
 20
49.772199608068831
 30
0.0
  0
VERTEX
  5
57CEB
  8
0
 10
51.523748649664498
 20
49.767066000470273
 30
0.0
  0
VERTEX
  5
57CEC
  8
0
 10
51.542372024741347
 20
49.764655383442232
 30
0.0
  0
SEQEND
  5
57CED
  8
0
  0
POLYLINE
  5
573B4
  8
0
 66
     1
 10
0.0
 20
0.0
 30
0.0
  0
VERTEX
  5
57CEE
  8
0
 10
51.542372024741347
 20
49.764655383442232
 30
0.0
  0
VERTEX
  5
57CEF
  8
0
 10
51.55313102627229
 20
49.763259661685872
 30
0.0
  0
VERTEX
  5
57CF0
  8
0
 10
51.573714176474432
 20
49.760583223880531
 30
0.0
  0
VERTEX
  5
57CF1
  8
0
 10
51.593050030523017
 20
49.758061472976181
 30
0.0
  0
VERTEX
  5
57CF2
  8
0
 10
51.602250139842852
 20
49.756859059028777
 30
0.0
  0
VERTEX
  5
57CF3
  8
0
 10
51.611138448691243
 20
49.755695834248279
 30
0.0
  0
VERTEX
  5
57CF4
  8
0
 10
51.627980255778702
 20
49.753487515452441
 30
0.0
  0
VERTEX
  5
57CF5
  8
0
 10
51.643577174828948
 20
49.751437514114173
 30
0.0
  0
VERTEX
  5
57CF6
  8
0
 10
51.657931791760568
 20
49.749546621198412
 30
0.0
  0
VERTEX
  5
57CF7
  8
0
 10
51.671047589136599
 20
49.74781541602033
 30
0.0
  0
VERTEX
  5
57CF8
  8
0
 10
51.682928980974992
 20
49.746244261277411
 30
0.0
  0
VERTEX
  5
57CF9
  8
0
 10
51.688408416389187
 20
49.745518755911462
 30
0.0
  0
VERTEX
  5
57CFA
  8
0
 10
51.693581342820771
 20
49.74483329898311
 30
0.0
  0
VERTEX
  5
57CFB
  8
0
 10
51.703011037166448
 20
49.743582447309791
 30
0.0
  0
VERTEX
  5
57CFC
  8
0
 10
51.711225434296459
 20
49.742491398349379
 30
0.0
  0
VERTEX
  5
57CFD
  8
0
 10
51.718232928622108
 20
49.741559616794
 30
0.0
  0
VERTEX
  5
57CFE
  8
0
 10
51.724042950559152
 20
49.740786339539
 30
0.0
  0
VERTEX
  5
57CFF
  8
0
 10
51.728665973985947
 20
49.740170576207959
 30
0.0
  0
VERTEX
  5
57D00
  8
0
 10
51.730535920510079
 20
49.739921390963779
 30
0.0
  0
VERTEX
  5
57D01
  8
0
 10
51.73211351930405
 20
49.739711110599039
 30
0.0
  0
VERTEX
  5
57D02
  8
0
 10
51.73439815210412
 20
49.739406503048251
 30
0.0
  0
VERTEX
  5
57D03
  8
0
 10
51.735533477422031
 20
49.739255093707527
 30
0.0
  0
VERTEX
  5
57D04
  8
0
 10
51.735674683156283
 20
49.739236260468537
 30
0.0
  0
SEQEND
  5
57D05
  8
0
  0
POLYLINE
  5
573B5
  8
0
 66
     1
 10
0.0
 20
0.0
 30
0.0
  0
VERTEX
  5
57D06
  8
0
 10
51.735674683156283
 20
49.739236260468537
 30
0.0
  0
VERTEX
  5
57D07
  8
0
 10
51.73466680346646
 20
49.739370677404452
 30
0.0
  0
VERTEX
  5
57D08
  8
0
 10
51.726502141594949
 20
49.74045883937606
 30
0.0
  0
VERTEX
  5
57D09
  8
0
 10
51.709940420274727
 20
49.7426621623299
 30
0.0
  0
VERTEX
  5
57D0A
  8
0
 10
51.698448586621709
 20
49.74418787324435
 30
0.0
  0
VERTEX
  5
57D0B
  8
0
 10
51.684789564433878
 20
49.745997975844311
 30
0.0
  0
VERTEX
  5
57D0C
  8
0
 10
51.650909574845571
 20
49.750472137873139
 30
0.0
  0
VERTEX
  5
57D0D
  8
0
 10
51.608210316527078
 20
49.7560792123179
 30
0.0
  0
VERTEX
  5
57D0E
  8
0
 10
51.556648133921414
 20
49.762802913590242
 30
0.0
  0
VERTEX
  5
57D0F
  8
0
 10
51.496225913840931
 20
49.770616208978481
 30
0.0
  0
VERTEX
  5
57D10
  8
0
 10
51.426995194887922
 20
49.779481279270669
 30
0.0
  0
VERTEX
  5
57D11
  8
0
 10
51.389105839713459
 20
49.784293576729283
 30
0.0
  0
VERTEX
  5
57D12
  8
0
 10
51.349055143184529
 20
49.789350011890292
 30
0.0
  0
VERTEX
  5
57D13
  8
0
 10
51.262549926036712
 20
49.800164805788199
 30
0.0
  0
VERTEX
  5
57D14
  8
0
 10
51.167655816737067
 20
49.811860721337091
 30
0.0
  0
VERTEX
  5
57D15
  8
0
 10
51.064547970289283
 20
49.824370028294368
 30
0.0
  0
VERTEX
  5
57D16
  8
0
 10
50.953475828066807
 20
49.837613559623712
 30
0.0
  0
VERTEX
  5
57D17
  8
0
 10
50.834739628142103
 20
49.851504562282912
 30
0.0
  0
VERTEX
  5
57D18
  8
0
 10
50.772603081619081
 20
49.858664170050808
 30
0.0
  0
VERTEX
  5
57D19
  8
0
 10
50.708682197246702
 20
49.865950628039059
 30
0.0
  0
VERTEX
  5
57D1A
  8
0
 10
50.57568477926273
 20
49.880855145318492
 30
0.0
  0
VERTEX
  5
57D1B
  8
0
 10
50.4361624205645
 20
49.896118799377057
 30
0.0
  0
VERTEX
  5
57D1C
  8
0
 10
50.364095756848961
 20
49.903853511311347
 30
0.0
  0
SEQEND
  5
57D1D
  8
0
  0
POLYLINE
  5
573B6
  8
0
 66
     1
 10
0.0
 20
0.0
 30
0.0
  0
VERTEX
  5
57D1E
  8
0
 10
50.36409575684899
 20
49.903853511311347
 30
0.0
  0
VERTEX
  5
57D1F
  8
0
 10
50.281879223421349
 20
49.9128323189451
 30
0.0
  0
VERTEX
  5
57D20
  8
0
 10
50.121020916220182
 20
49.931698609213242
 30
0.0
  0
VERTEX
  5
57D21
  8
0
 10
49.964159779009769
 20
49.951909465879787
 30
0.0
  0
VERTEX
  5
57D22
  8
0
 10
49.887255403224827
 20
49.962535523555971
 30
0.0
  0
VERTEX
  5
57D23
  8
0
 10
49.811394081783853
 20
49.97351590430366
 30
0.0
  0
VERTEX
  5
57D24
  8
0
 10
49.662875285741897
 20
49.996560657364853
 30
0.0
  0
VERTEX
  5
57D25
  8
0
 10
49.518748978298902
 20
50.021084539728797
 30
0.0
  0
VERTEX
  5
57D26
  8
0
 10
49.379154334417159
 20
50.047126293302419
 30
0.0
  0
VERTEX
  5
57D27
  8
0
 10
49.244223651752691
 20
50.074722454493042
 30
0.0
  0
VERTEX
  5
57D28
  8
0
 10
49.11408195991104
 20
50.10390724624596
 30
0.0
  0
VERTEX
  5
57D29
  8
0
 10
49.050843990693721
 20
50.119105420304599
 30
0.0
  0
VERTEX
  5
57D2A
  8
0
 10
48.988846704770367
 20
50.134712497803548
 30
0.0
  0
VERTEX
  5
57D2B
  8
0
 10
48.868627509449936
 20
50.167167595048511
 30
0.0
  0
VERTEX
  5
57D2C
  8
0
 10
48.753526014069912
 20
50.201299464165523
 30
0.0
  0
VERTEX
  5
57D2D
  8
0
 10
48.643635797825333
 20
50.237132590868441
 30
0.0
  0
VERTEX
  5
57D2E
  8
0
 10
48.539042719111677
 20
50.274688951851772
 30
0.0
  0
VERTEX
  5
57D2F
  8
0
 10
48.439826510787441
 20
50.313987421536922
 30
0.0
  0
VERTEX
  5
57D30
  8
0
 10
48.39225810843601
 20
50.334294889576647
 30
0.0
  0
VERTEX
  5
57D31
  8
0
 10
48.346061221386748
 20
50.355043367642402
 30
0.0
  0
VERTEX
  5
57D32
  8
0
 10
48.257814738858741
 20
50.397868551463262
 30
0.0
  0
VERTEX
  5
57D33
  8
0
 10
48.175148364698401
 20
50.442471067294832
 30
0.0
  0
VERTEX
  5
57D34
  8
0
 10
48.135924988051748
 20
50.465440343386831
 30
0.0
  0
SEQEND
  5
57D35
  8
0
  0
POLYLINE
  5
573B7
  8
0
 66
     1
 10
0.0
 20
0.0
 30
0.0
  0
VERTEX
  5
57D36
  8
0
 10
41.83542437826079
 20
50.465440343386831
 30
0.0
  0
VERTEX
  5
57D37
  8
0
 10
41.796201001614151
 20
50.442471067294832
 30
0.0
  0
VERTEX
  5
57D38
  8
0
 10
41.713534627453811
 20
50.397868551463262
 30
0.0
  0
VERTEX
  5
57D39
  8
0
 10
41.625288144925797
 20
50.355043367642402
 30
0.0
  0
VERTEX
  5
57D3A
  8
0
 10
41.579091257876541
 20
50.334294889576647
 30
0.0
  0
VERTEX
  5
57D3B
  8
0
 10
41.531522855525097
 20
50.313987421536922
 30
0.0
  0
VERTEX
  5
57D3C
  8
0
 10
41.432306647200868
 20
50.274688951851772
 30
0.0
  0
VERTEX
  5
57D3D
  8
0
 10
41.327713568487212
 20
50.237132590868441
 30
0.0
  0
VERTEX
  5
57D3E
  8
0
 10
41.21782335224264
 20
50.201299464165523
 30
0.0
  0
VERTEX
  5
57D3F
  8
0
 10
41.10272185686258
 20
50.167167595048511
 30
0.0
  0
VERTEX
  5
57D40
  8
0
 10
40.982502661542178
 20
50.134712497803548
 30
0.0
  0
VERTEX
  5
57D41
  8
0
 10
40.920505375618831
 20
50.119105420304599
 30
0.0
  0
VERTEX
  5
57D42
  8
0
 10
40.85726740640149
 20
50.10390724624591
 30
0.0
  0
VERTEX
  5
57D43
  8
0
 10
40.727125714559861
 20
50.074722454493042
 30
0.0
  0
VERTEX
  5
57D44
  8
0
 10
40.592195031895379
 20
50.047126293302419
 30
0.0
  0
VERTEX
  5
57D45
  8
0
 10
40.45260038801365
 20
50.021084539728797
 30
0.0
  0
VERTEX
  5
57D46
  8
0
 10
40.308474080570647
 20
49.996560657364853
 30
0.0
  0
VERTEX
  5
57D47
  8
0
 10
40.159955284528699
 20
49.97351590430366
 30
0.0
  0
VERTEX
  5
57D48
  8
0
 10
40.084093963087717
 20
49.962535523555971
 30
0.0
  0
VERTEX
  5
57D49
  8
0
 10
40.007189587302769
 20
49.951909465879787
 30
0.0
  0
VERTEX
  5
57D4A
  8
0
 10
39.850328450092412
 20
49.931698609213242
 30
0.0
  0
VERTEX
  5
57D4B
  8
0
 10
39.689470142891203
 20
49.9128323189451
 30
0.0
  0
VERTEX
  5
57D4C
  8
0
 10
39.607253609463548
 20
49.903853511311347
 30
0.0
  0
SEQEND
  5
57D4D
  8
0
  0
POLYLINE
  5
573B8
  8
0
 66
     1
 10
0.0
 20
0.0
 30
0.0
  0
VERTEX
  5
57D4E
  8
0
 10
39.607253609463548
 20
49.903853511311347
 30
0.0
  0
VERTEX
  5
57D4F
  8
0
 10
39.535186945748052
 20
49.896118799377057
 30
0.0
  0
VERTEX
  5
57D50
  8
0
 10
39.395664587049822
 20
49.880855145318492
 30
0.0
  0
VERTEX
  5
57D51
  8
0
 10
39.262667169065821
 20
49.865950628039059
 30
0.0
  0
VERTEX
  5
57D52
  8
0
 10
39.198746284693442
 20
49.858664170050808
 30
0.0
  0
VERTEX
  5
57D53
  8
0
 10
39.136609738170449
 20
49.851504562282912
 30
0.0
  0
VERTEX
  5
57D54
  8
0
 10
39.017873538245738
 20
49.837613559623712
 30
0.0
  0
VERTEX
  5
57D55
  8
0
 10
38.906801396023269
 20
49.824370028294368
 30
0.0
  0
VERTEX
  5
57D56
  8
0
 10
38.803693549575492
 20
49.811860721337091
 30
0.0
  0
VERTEX
  5
57D57
  8
0
 10
38.70879944027584
 20
49.800164805788199
 30
0.0
  0
VERTEX
  5
57D58
  8
0
 10
38.622294223128023
 20
49.789350011890292
 30
0.0
  0
VERTEX
  5
57D59
  8
0
 10
38.582243526599058
 20
49.784293576729283
 30
0.0
  0
VERTEX
  5
57D5A
  8
0
 10
38.544354171424601
 20
49.779481279270669
 30
0.0
  0
VERTEX
  5
57D5B
  8
0
 10
38.475123452471621
 20
49.770616208978481
 30
0.0
  0
VERTEX
  5
57D5C
  8
0
 10
38.41470123239111
 20
49.762802913590242
 30
0.0
  0
VERTEX
  5
57D5D
  8
0
 10
38.363139049785481
 20
49.7560792123179
 30
0.0
  0
VERTEX
  5
57D5E
  8
0
 10
38.320439791466953
 20
49.750472137873139
 30
0.0
  0
VERTEX
  5
57D5F
  8
0
 10
38.286559801878667
 20
49.745997975844311
 30
0.0
  0
VERTEX
  5
57D60
  8
0
 10
38.27290077969085
 20
49.74418787324435
 30
0.0
  0
VERTEX
  5
57D61
  8
0
 10
38.26140894603779
 20
49.7426621623299
 30
0.0
  0
VERTEX
  5
57D62
  8
0
 10
38.244847224717603
 20
49.74045883937606
 30
0.0
  0
VERTEX
  5
57D63
  8
0
 10
38.236682562846092
 20
49.739370677404452
 30
0.0
  0
VERTEX
  5
57D64
  8
0
 10
38.235674683156283
 20
49.739236260468537
 30
0.0
  0
SEQEND
  5
57D65
  8
0
  0
POLYLINE
  5
573B9
  8
0
 66
     1
 10
0.0
 20
0.0
 30
0.0
  0
VERTEX
  5
57D66
  8
0
 10
38.235674683156283
 20
49.739236260468537
 30
0.0
  0
VERTEX
  5
57D67
  8
0
 10
38.236682562846092
 20
49.739370677404452
 30
0.0
  0
VERTEX
  5
57D68
  8
0
 10
38.244847224717603
 20
49.74045883937606
 30
0.0
  0
VERTEX
  5
57D69
  8
0
 10
38.26140894603779
 20
49.7426621623299
 30
0.0
  0
VERTEX
  5
57D6A
  8
0
 10
38.27290077969085
 20
49.74418787324435
 30
0.0
  0
VERTEX
  5
57D6B
  8
0
 10
38.286559801878667
 20
49.745997975844311
 30
0.0
  0
VERTEX
  5
57D6C
  8
0
 10
38.320439791466953
 20
49.750472137873139
 30
0.0
  0
VERTEX
  5
57D6D
  8
0
 10
38.363139049785481
 20
49.7560792123179
 30
0.0
  0
VERTEX
  5
57D6E
  8
0
 10
38.41470123239111
 20
49.762802913590242
 30
0.0
  0
VERTEX
  5
57D6F
  8
0
 10
38.475123452471621
 20
49.770616208978481
 30
0.0
  0
VERTEX
  5
57D70
  8
0
 10
38.544354171424601
 20
49.779481279270669
 30
0.0
  0
VERTEX
  5
57D71
  8
0
 10
38.582243526599058
 20
49.78429357672934
 30
0.0
  0
VERTEX
  5
57D72
  8
0
 10
38.622294223128023
 20
49.789350011890292
 30
0.0
  0
VERTEX
  5
57D73
  8
0
 10
38.70879944027584
 20
49.800164805788249
 30
0.0
  0
VERTEX
  5
57D74
  8
0
 10
38.803693549575492
 20
49.811860721337091
 30
0.0
  0
VERTEX
  5
57D75
  8
0
 10
38.906801396023269
 20
49.824370028294418
 30
0.0
  0
VERTEX
  5
57D76
  8
0
 10
39.017873538245738
 20
49.837613559623712
 30
0.0
  0
VERTEX
  5
57D77
  8
0
 10
39.136609738170449
 20
49.851504562282912
 30
0.0
  0
VERTEX
  5
57D78
  8
0
 10
39.198746284693442
 20
49.858664170050808
 30
0.0
  0
VERTEX
  5
57D79
  8
0
 10
39.262667169065821
 20
49.865950628039108
 30
0.0
  0
VERTEX
  5
57D7A
  8
0
 10
39.395664587049822
 20
49.880855145318492
 30
0.0
  0
VERTEX
  5
57D7B
  8
0
 10
39.535186945748052
 20
49.896118799377057
 30
0.0
  0
VERTEX
  5
57D7C
  8
0
 10
39.607253609463548
 20
49.903853511311347
 30
0.0
  0
SEQEND
  5
57D7D
  8
0
  0
LINE
  5
573BA
  8
1
 10
44.985674683156269
 20
28.75656758623299
 30
0.0
 11
44.985674683156269
 21
54.528300163634583
 31
0.0
  0
ARC
  5
573BB
  8
0
 10
114.1306531964559
 20
97.043495224065339
 30
0.0
 40
19.999999999999599
 50
173.42305379589979
 51
186.5769463086659
  0
ARC
  5
573BC
  8
0
 10
114.13065319645639
 20
97.043495224065296
 30
0.0
 40
19.999999999999861
 50
353.42305379589982
 51
6.576946308665943
  0
POLYLINE
  5
573BE
  8
0
 66
     1
 10
0.0
 20
0.0
 30
0.0
  0
VERTEX
  5
57D7E
  8
0
 10
94.262274563986054
 20
94.752746325386966
 30
0.0
  0
VERTEX
  5
57D7F
  8
0
 10
94.267974458590857
 20
94.710598570769889
 30
0.0
  0
VERTEX
  5
57D80
  8
0
 10
94.284215745623385
 20
94.627546883728954
 30
0.0
  0
VERTEX
  5
57D81
  8
0
 10
94.306738287812934
 20
94.546490187781387
 30
0.0
  0
VERTEX
  5
57D82
  8
0
 10
94.320293142352057
 20
94.50681520787748
 30
0.0
  0
VERTEX
  5
57D83
  8
0
 10
94.335344540244137
 20
94.46776431143627
 30
0.0
  0
VERTEX
  5
57D84
  8
0
 10
94.369840443955425
 20
94.391698050754258
 30
0.0
  0
VERTEX
  5
57D85
  8
0
 10
94.410034016576446
 20
94.318615223819634
 30
0.0
  0
VERTEX
  5
57D86
  8
0
 10
94.455734296401658
 20
94.248836561382959
 30
0.0
  0
VERTEX
  5
57D87
  8
0
 10
94.506750615292503
 20
94.182681604431139
 30
0.0
  0
VERTEX
  5
57D88
  8
0
 10
94.562892159828749
 20
94.120470781631013
 30
0.0
  0
VERTEX
  5
57D89
  8
0
 10
94.592825167079098
 20
94.090945386987414
 30
0.0
  0
VERTEX
  5
57D8A
  8
0
 10
94.623967758028485
 20
94.062527848679736
 30
0.0
  0
VERTEX
  5
57D8B
  8
0
 10
94.689785797259731
 20
94.009182886789574
 30
0.0
  0
VERTEX
  5
57D8C
  8
0
 10
94.760237374557803
 20
93.960723530669156
 30
0.0
  0
VERTEX
  5
57D8D
  8
0
 10
94.835813329960331
 20
93.917172925486966
 30
0.0
  0
VERTEX
  5
57D8E
  8
0
 10
94.916507879879774
 20
93.879055043163646
 30
0.0
  0
VERTEX
  5
57D8F
  8
0
 10
95.002149777557122
 20
93.847025583810066
 30
0.0
  0
VERTEX
  5
57D90
  8
0
 10
95.046765853450609
 20
93.83350938405863
 30
0.0
  0
VERTEX
  5
57D91
  8
0
 10
95.092543690175773
 20
93.821780109990115
 30
0.0
  0
VERTEX
  5
57D92
  8
0
 10
95.187601094826874
 20
93.804053115887356
 30
0.0
  0
VERTEX
  5
57D93
  8
0
 10
95.28715989857227
 20
93.794711409467325
 30
0.0
  0
VERTEX
  5
57D94
  8
0
 10
95.338478406578162
 20
93.793495224065325
 30
0.0
  0
SEQEND
  5
57D95
  8
0
  0
POLYLINE
  5
573BF
  8
0
 66
     1
 10
0.0
 20
0.0
 30
0.0
  0
VERTEX
  5
57D96
  8
0
 10
95.338478406578247
 20
100.2934952240653
 30
0.0
  0
VERTEX
  5
57D97
  8
0
 10
95.287159898598105
 20
100.2922790386646
 30
0.0
  0
VERTEX
  5
57D98
  8
0
 10
95.187601094900785
 20
100.2829373322537
 30
0.0
  0
VERTEX
  5
57D99
  8
0
 10
95.092543690292644
 20
100.26521033816771
 30
0.0
  0
VERTEX
  5
57D9A
  8
0
 10
95.046765853587942
 20
100.2534810641104
 30
0.0
  0
VERTEX
  5
57D9B
  8
0
 10
95.002149777714109
 20
100.2399648643719
 30
0.0
  0
VERTEX
  5
57D9C
  8
0
 10
94.916507880074221
 20
100.2079354050493
 30
0.0
  0
VERTEX
  5
57D9D
  8
0
 10
94.835813330190263
 20
100.16981752276411
 30
0.0
  0
VERTEX
  5
57D9E
  8
0
 10
94.760237374821699
 20
100.1262669176281
 30
0.0
  0
VERTEX
  5
57D9F
  8
0
 10
94.689785797524564
 20
100.0778075615391
 30
0.0
  0
VERTEX
  5
57DA0
  8
0
 10
94.623967758266886
 20
100.0244625996602
 30
0.0
  0
VERTEX
  5
57DA1
  8
0
 10
94.592825167303204
 20
99.996045061355858
 30
0.0
  0
VERTEX
  5
57DA2
  8
0
 10
94.562892160038004
 20
99.966519666714305
 30
0.0
  0
VERTEX
  5
57DA3
  8
0
 10
94.506750615471006
 20
99.904308843913441
 30
0.0
  0
VERTEX
  5
57DA4
  8
0
 10
94.455734296548755
 20
99.838153886954501
 30
0.0
  0
VERTEX
  5
57DA5
  8
0
 10
94.410034016692578
 20
99.768375224504226
 30
0.0
  0
VERTEX
  5
57DA6
  8
0
 10
94.369840444041984
 20
99.695292397549281
 30
0.0
  0
VERTEX
  5
57DA7
  8
0
 10
94.335344540303595
 20
99.619226136840268
 30
0.0
  0
VERTEX
  5
57DA8
  8
0
 10
94.320293142399237
 20
99.580175240383042
 30
0.0
  0
VERTEX
  5
57DA9
  8
0
 10
94.306738287848873
 20
99.540500260461556
 30
0.0
  0
VERTEX
  5
57DAA
  8
0
 10
94.284215745640438
 20
99.459443564473872
 30
0.0
  0
VERTEX
  5
57DAB
  8
0
 10
94.267974458594836
 20
99.376391877386425
 30
0.0
  0
VERTEX
  5
57DAC
  8
0
 10
94.262274563986054
 20
99.334244122743755
 30
0.0
  0
SEQEND
  5
57DAD
  8
0
  0
POLYLINE
  5
573C0
  8
0
 66
     1
 10
0.0
 20
0.0
 30
0.0
  0
VERTEX
  5
57DAE
  8
0
 10
99.514587649232155
 20
99.854568455730245
 30
0.0
  0
VERTEX
  5
57DAF
  8
0
 10
99.381521897565293
 20
99.868554229799258
 30
0.0
  0
VERTEX
  5
57DB0
  8
0
 10
99.109611115462371
 20
99.897133204612715
 30
0.0
  0
VERTEX
  5
57DB1
  8
0
 10
98.833520573161536
 20
99.926151489925303
 30
0.0
  0
VERTEX
  5
57DB2
  8
0
 10
98.69520893209021
 20
99.940688629188458
 30
0.0
  0
VERTEX
  5
57DB3
  8
0
 10
98.557385605286385
 20
99.955174444553904
 30
0.0
  0
VERTEX
  5
57DB4
  8
0
 10
98.285115287011763
 20
99.983791208141724
 30
0.0
  0
VERTEX
  5
57DB5
  8
0
 10
98.020523253713861
 20
100.0116009514589
 30
0.0
  0
VERTEX
  5
57DB6
  8
0
 10
97.767318233977335
 20
100.03821387142369
 30
0.0
  0
VERTEX
  5
57DB7
  8
0
 10
97.526276017028692
 20
100.0635484293028
 30
0.0
  0
VERTEX
  5
57DB8
  8
0
 10
97.283717167970266
 20
100.08904239164001
 30
0.0
  0
VERTEX
  5
57DB9
  8
0
 10
97.162046837085043
 20
100.1018304587222
 30
0.0
  0
VERTEX
  5
57DBA
  8
0
 10
97.040821013300899
 20
100.1145718062255
 30
0.0
  0
VERTEX
  5
57DBB
  8
0
 10
96.801683923315295
 20
100.1397061271921
 30
0.0
  0
VERTEX
  5
57DBC
  8
0
 10
96.569965294343604
 20
100.164060736487
 30
0.0
  0
VERTEX
  5
57DBD
  8
0
 10
96.348878024445355
 20
100.18729794491659
 30
0.0
  0
VERTEX
  5
57DBE
  8
0
 10
96.141299694180248
 20
100.2091153065769
 30
0.0
  0
VERTEX
  5
57DBF
  8
0
 10
95.94966385420912
 20
100.2292570449865
 30
0.0
  0
VERTEX
  5
57DC0
  8
0
 10
95.858539062844216
 20
100.2388346464967
 30
0.0
  0
VERTEX
  5
57DC1
  8
0
 10
95.767911135959707
 20
100.24836002544561
 30
0.0
  0
VERTEX
  5
57DC2
  8
0
 10
95.590084684560907
 20
100.2670503386299
 30
0.0
  0
VERTEX
  5
57DC3
  8
0
 10
95.419807874225853
 20
100.2849471525637
 30
0.0
  0
VERTEX
  5
57DC4
  8
0
 10
95.338478406578176
 20
100.2934952240653
 30
0.0
  0
SEQEND
  5
57DC5
  8
0
  0
POLYLINE
  5
573C1
  8
0
 66
     1
 10
0.0
 20
0.0
 30
0.0
  0
VERTEX
  5
57DC6
  8
0
 10
133.99903182892669
 20
99.334244122743712
 30
0.0
  0
VERTEX
  5
57DC7
  8
0
 10
133.9933319343219
 20
99.376391877360788
 30
0.0
  0
VERTEX
  5
57DC8
  8
0
 10
133.9770906472894
 20
99.459443564401582
 30
0.0
  0
VERTEX
  5
57DC9
  8
0
 10
133.9545681050999
 20
99.540500260349006
 30
0.0
  0
VERTEX
  5
57DCA
  8
0
 10
133.94101325056079
 20
99.580175240252785
 30
0.0
  0
VERTEX
  5
57DCB
  8
0
 10
133.92596185266871
 20
99.61922613669401
 30
0.0
  0
VERTEX
  5
57DCC
  8
0
 10
133.89146594895749
 20
99.695292397376036
 30
0.0
  0
VERTEX
  5
57DCD
  8
0
 10
133.85127237633651
 20
99.768375224310617
 30
0.0
  0
VERTEX
  5
57DCE
  8
0
 10
133.80557209651141
 20
99.838153886747264
 30
0.0
  0
VERTEX
  5
57DCF
  8
0
 10
133.7545557776206
 20
99.904308843699084
 30
0.0
  0
VERTEX
  5
57DD0
  8
0
 10
133.69841423308441
 20
99.966519666499281
 30
0.0
  0
VERTEX
  5
57DD1
  8
0
 10
133.668481225834
 20
99.996045061142794
 30
0.0
  0
VERTEX
  5
57DD2
  8
0
 10
133.6373386348846
 20
100.0244625994506
 30
0.0
  0
VERTEX
  5
57DD3
  8
0
 10
133.5715205956534
 20
100.0778075613408
 30
0.0
  0
VERTEX
  5
57DD4
  8
0
 10
133.50106901835531
 20
100.12626691746129
 30
0.0
  0
VERTEX
  5
57DD5
  8
0
 10
133.42549306295271
 20
100.1698175226435
 30
0.0
  0
VERTEX
  5
57DD6
  8
0
 10
133.34479851303331
 20
100.2079354049669
 30
0.0
  0
VERTEX
  5
57DD7
  8
0
 10
133.25915661535581
 20
100.2399648643205
 30
0.0
  0
VERTEX
  5
57DD8
  8
0
 10
133.21454053946229
 20
100.25348106407201
 30
0.0
  0
VERTEX
  5
57DD9
  8
0
 10
133.1687627027371
 20
100.26521033814051
 30
0.0
  0
VERTEX
  5
57DDA
  8
0
 10
133.07370529808591
 20
100.28293733224331
 30
0.0
  0
VERTEX
  5
57DDB
  8
0
 10
132.97414649434049
 20
100.29227903866339
 30
0.0
  0
VERTEX
  5
57DDC
  8
0
 10
132.92282798633451
 20
100.2934952240653
 30
0.0
  0
SEQEND
  5
57DDD
  8
0
  0
POLYLINE
  5
573C2
  8
0
 66
     1
 10
0.0
 20
0.0
 30
0.0
  0
VERTEX
  5
57DDE
  8
0
 10
132.92282798633451
 20
93.793495224065325
 30
0.0
  0
VERTEX
  5
57DDF
  8
0
 10
132.97414649431511
 20
93.794711409466103
 30
0.0
  0
VERTEX
  5
57DE0
  8
0
 10
133.07370529801329
 20
93.804053115877124
 30
0.0
  0
VERTEX
  5
57DE1
  8
0
 10
133.16876270262219
 20
93.821780109963356
 30
0.0
  0
VERTEX
  5
57DE2
  8
0
 10
133.2145405393272
 20
93.833509384020928
 30
0.0
  0
VERTEX
  5
57DE3
  8
0
 10
133.25915661520131
 20
93.84702558375966
 30
0.0
  0
VERTEX
  5
57DE4
  8
0
 10
133.34479851284181
 20
93.879055043082815
 30
0.0
  0
VERTEX
  5
57DE5
  8
0
 10
133.4254930627263
 20
93.917172925368504
 30
0.0
  0
VERTEX
  5
57DE6
  8
0
 10
133.50106901809519
 20
93.96072353050522
 30
0.0
  0
VERTEX
  5
57DE7
  8
0
 10
133.5715205953926
 20
94.009182886594886
 30
0.0
  0
VERTEX
  5
57DE8
  8
0
 10
133.63733863465029
 20
94.062527848474474
 30
0.0
  0
VERTEX
  5
57DE9
  8
0
 10
133.6684812256139
 20
94.090945386778955
 30
0.0
  0
VERTEX
  5
57DEA
  8
0
 10
133.698414232879
 20
94.12047078142075
 30
0.0
  0
VERTEX
  5
57DEB
  8
0
 10
133.7545557774456
 20
94.182681604221898
 30
0.0
  0
VERTEX
  5
57DEC
  8
0
 10
133.80557209636731
 20
94.248836561180894
 30
0.0
  0
VERTEX
  5
57DED
  8
0
 10
133.85127237622291
 20
94.31861522363107
 30
0.0
  0
VERTEX
  5
57DEE
  8
0
 10
133.89146594887291
 20
94.391698050585674
 30
0.0
  0
VERTEX
  5
57DEF
  8
0
 10
133.92596185261061
 20
94.467764311294104
 30
0.0
  0
VERTEX
  5
57DF0
  8
0
 10
133.94101325051469
 20
94.506815207750947
 30
0.0
  0
VERTEX
  5
57DF1
  8
0
 10
133.95456810506479
 20
94.546490187672021
 30
0.0
  0
VERTEX
  5
57DF2
  8
0
 10
133.97709064727269
 20
94.627546883658738
 30
0.0
  0
VERTEX
  5
57DF3
  8
0
 10
133.99333193431801
 20
94.710598570744935
 30
0.0
  0
VERTEX
  5
57DF4
  8
0
 10
133.99903182892669
 20
94.752746325386894
 30
0.0
  0
SEQEND
  5
57DF5
  8
0
  0
POLYLINE
  5
573C3
  8
0
 66
     1
 10
0.0
 20
0.0
 30
0.0
  0
VERTEX
  5
57DF6
  8
0
 10
128.7467187436805
 20
94.232421992400404
 30
0.0
  0
VERTEX
  5
57DF7
  8
0
 10
128.87978449534731
 20
94.218436218331419
 30
0.0
  0
VERTEX
  5
57DF8
  8
0
 10
129.1516952774503
 20
94.18985724351802
 30
0.0
  0
VERTEX
  5
57DF9
  8
0
 10
129.42778581975111
 20
94.160838958205431
 30
0.0
  0
VERTEX
  5
57DFA
  8
0
 10
129.5660974608225
 20
94.146301818942234
 30
0.0
  0
VERTEX
  5
57DFB
  8
0
 10
129.70392078762629
 20
94.131816003576773
 30
0.0
  0
VERTEX
  5
57DFC
  8
0
 10
129.97619110590091
 20
94.103199239988953
 30
0.0
  0
VERTEX
  5
57DFD
  8
0
 10
130.24078313919881
 20
94.075389496671789
 30
0.0
  0
VERTEX
  5
57DFE
  8
0
 10
130.49398815893531
 20
94.048776576706985
 30
0.0
  0
VERTEX
  5
57DFF
  8
0
 10
130.73503037588401
 20
94.023442018827836
 30
0.0
  0
VERTEX
  5
57E00
  8
0
 10
130.97758922494239
 20
93.9979480564906
 30
0.0
  0
VERTEX
  5
57E01
  8
0
 10
131.09925955582759
 20
93.985159989408416
 30
0.0
  0
VERTEX
  5
57E02
  8
0
 10
131.22048537961169
 20
93.972418641905165
 30
0.0
  0
VERTEX
  5
57E03
  8
0
 10
131.45962246959729
 20
93.947284320938536
 30
0.0
  0
VERTEX
  5
57E04
  8
0
 10
131.6913410985691
 20
93.922929711643647
 30
0.0
  0
VERTEX
  5
57E05
  8
0
 10
131.91242836846729
 20
93.899692503214055
 30
0.0
  0
VERTEX
  5
57E06
  8
0
 10
132.12000669873251
 20
93.877875141553773
 30
0.0
  0
VERTEX
  5
57E07
  8
0
 10
132.31164253870361
 20
93.857733403144152
 30
0.0
  0
VERTEX
  5
57E08
  8
0
 10
132.40276733006851
 20
93.848155801633993
 30
0.0
  0
VERTEX
  5
57E09
  8
0
 10
132.49339525695299
 20
93.838630422685057
 30
0.0
  0
VERTEX
  5
57E0A
  8
0
 10
132.67122170835179
 20
93.819940109500749
 30
0.0
  0
VERTEX
  5
57E0B
  8
0
 10
132.84149851868679
 20
93.802043295567046
 30
0.0
  0
VERTEX
  5
57E0C
  8
0
 10
132.92282798633451
 20
93.793495224065325
 30
0.0
  0
SEQEND
  5
57E0D
  8
0
  0
POLYLINE
  5
573C4
  8
0
 66
     1
 10
0.0
 20
0.0
 30
0.0
  0
VERTEX
  5
57E0E
  8
0
 10
95.338478406578176
 20
93.793495224065325
 30
0.0
  0
VERTEX
  5
57E0F
  8
0
 10
95.419807874225853
 20
93.802043295567046
 30
0.0
  0
VERTEX
  5
57E10
  8
0
 10
95.590084684560907
 20
93.819940109500749
 30
0.0
  0
VERTEX
  5
57E11
  8
0
 10
95.767911135959707
 20
93.838630422685057
 30
0.0
  0
VERTEX
  5
57E12
  8
0
 10
95.858539062844216
 20
93.848155801633993
 30
0.0
  0
VERTEX
  5
57E13
  8
0
 10
95.94966385420912
 20
93.857733403144096
 30
0.0
  0
VERTEX
  5
57E14
  8
0
 10
96.141299694180248
 20
93.877875141553773
 30
0.0
  0
VERTEX
  5
57E15
  8
0
 10
96.348878024445355
 20
93.899692503213984
 30
0.0
  0
VERTEX
  5
57E16
  8
0
 10
96.569965294343604
 20
93.922929711643647
 30
0.0
  0
VERTEX
  5
57E17
  8
0
 10
96.801683923315323
 20
93.947284320938465
 30
0.0
  0
VERTEX
  5
57E18
  8
0
 10
97.040821013300942
 20
93.972418641905094
 30
0.0
  0
VERTEX
  5
57E19
  8
0
 10
97.162046837085043
 20
93.985159989408373
 30
0.0
  0
VERTEX
  5
57E1A
  8
0
 10
97.283717167970281
 20
93.9979480564906
 30
0.0
  0
VERTEX
  5
57E1B
  8
0
 10
97.526276017028721
 20
94.023442018827836
 30
0.0
  0
VERTEX
  5
57E1C
  8
0
 10
97.767318233977363
 20
94.048776576706928
 30
0.0
  0
VERTEX
  5
57E1D
  8
0
 10
98.020523253713861
 20
94.075389496671789
 30
0.0
  0
VERTEX
  5
57E1E
  8
0
 10
98.285115287011791
 20
94.103199239988953
 30
0.0
  0
VERTEX
  5
57E1F
  8
0
 10
98.557385605286413
 20
94.131816003576773
 30
0.0
  0
VERTEX
  5
57E20
  8
0
 10
98.695208932090225
 20
94.146301818942234
 30
0.0
  0
VERTEX
  5
57E21
  8
0
 10
98.833520573161536
 20
94.160838958205375
 30
0.0
  0
VERTEX
  5
57E22
  8
0
 10
99.109611115462371
 20
94.189857243517963
 30
0.0
  0
VERTEX
  5
57E23
  8
0
 10
99.381521897565307
 20
94.218436218331419
 30
0.0
  0
VERTEX
  5
57E24
  8
0
 10
99.514587649232155
 20
94.232421992400404
 30
0.0
  0
SEQEND
  5
57E25
  8
0
  0
POLYLINE
  5
573C5
  8
0
 66
     1
 10
0.0
 20
0.0
 30
0.0
  0
VERTEX
  5
57E26
  8
0
 10
132.92282798633451
 20
100.2934952240653
 30
0.0
  0
VERTEX
  5
57E27
  8
0
 10
132.84149851868679
 20
100.2849471525636
 30
0.0
  0
VERTEX
  5
57E28
  8
0
 10
132.67122170835179
 20
100.2670503386299
 30
0.0
  0
VERTEX
  5
57E29
  8
0
 10
132.49339525695299
 20
100.24836002544561
 30
0.0
  0
VERTEX
  5
57E2A
  8
0
 10
132.40276733006851
 20
100.2388346464967
 30
0.0
  0
VERTEX
  5
57E2B
  8
0
 10
132.31164253870361
 20
100.2292570449865
 30
0.0
  0
VERTEX
  5
57E2C
  8
0
 10
132.12000669873251
 20
100.2091153065769
 30
0.0
  0
VERTEX
  5
57E2D
  8
0
 10
131.91242836846729
 20
100.18729794491659
 30
0.0
  0
VERTEX
  5
57E2E
  8
0
 10
131.6913410985691
 20
100.164060736487
 30
0.0
  0
VERTEX
  5
57E2F
  8
0
 10
131.45962246959741
 20
100.1397061271922
 30
0.0
  0
VERTEX
  5
57E30
  8
0
 10
131.22048537961169
 20
100.1145718062255
 30
0.0
  0
VERTEX
  5
57E31
  8
0
 10
131.09925955582759
 20
100.1018304587222
 30
0.0
  0
VERTEX
  5
57E32
  8
0
 10
130.97758922494239
 20
100.08904239164001
 30
0.0
  0
VERTEX
  5
57E33
  8
0
 10
130.73503037588401
 20
100.0635484293028
 30
0.0
  0
VERTEX
  5
57E34
  8
0
 10
130.49398815893531
 20
100.03821387142369
 30
0.0
  0
VERTEX
  5
57E35
  8
0
 10
130.24078313919881
 20
100.0116009514589
 30
0.0
  0
VERTEX
  5
57E36
  8
0
 10
129.97619110590091
 20
99.983791208141724
 30
0.0
  0
VERTEX
  5
57E37
  8
0
 10
129.70392078762629
 20
99.955174444553904
 30
0.0
  0
VERTEX
  5
57E38
  8
0
 10
129.5660974608225
 20
99.940688629188458
 30
0.0
  0
VERTEX
  5
57E39
  8
0
 10
129.42778581975111
 20
99.926151489925303
 30
0.0
  0
VERTEX
  5
57E3A
  8
0
 10
129.1516952774503
 20
99.897133204612715
 30
0.0
  0
VERTEX
  5
57E3B
  8
0
 10
128.87978449534731
 20
99.868554229799258
 30
0.0
  0
VERTEX
  5
57E3C
  8
0
 10
128.7467187436805
 20
99.854568455730245
 30
0.0
  0
SEQEND
  5
57E3D
  8
0
  0
POLYLINE
  5
573C6
  8
0
 66
     1
 10
0.0
 20
0.0
 30
0.0
  0
VERTEX
  5
57E3E
  8
0
 10
127.11298929810739
 20
94.387577075629224
 30
0.0
  0
VERTEX
  5
57E3F
  8
0
 10
126.85242318572639
 20
94.399483689049774
 30
0.0
  0
VERTEX
  5
57E40
  8
0
 10
126.32891772401619
 20
94.408179709664054
 30
0.0
  0
VERTEX
  5
57E41
  8
0
 10
125.8032153628408
 20
94.396475701453866
 30
0.0
  0
VERTEX
  5
57E42
  8
0
 10
125.5399102930286
 20
94.382903081896075
 30
0.0
  0
VERTEX
  5
57E43
  8
0
 10
125.27650213081471
 20
94.364157071587897
 30
0.0
  0
VERTEX
  5
57E44
  8
0
 10
124.74997586880281
 20
94.311100042786833
 30
0.0
  0
VERTEX
  5
57E45
  8
0
 10
124.2248267121244
 20
94.237270401188326
 30
0.0
  0
VERTEX
  5
57E46
  8
0
 10
123.70199334688959
 20
94.142673452874135
 30
0.0
  0
VERTEX
  5
57E47
  8
0
 10
123.1824300485458
 20
94.027368475980211
 30
0.0
  0
VERTEX
  5
57E48
  8
0
 10
122.6673202449829
 20
93.891533562689105
 30
0.0
  0
VERTEX
  5
57E49
  8
0
 10
122.41180647166421
 20
93.8159991537363
 30
0.0
  0
VERTEX
  5
57E4A
  8
0
 10
122.1578498341914
 20
93.735442181067128
 30
0.0
  0
VERTEX
  5
57E4B
  8
0
 10
121.65518644231319
 20
93.559460740157306
 30
0.0
  0
VERTEX
  5
57E4C
  8
0
 10
121.16045936474799
 20
93.364042358944857
 30
0.0
  0
VERTEX
  5
57E4D
  8
0
 10
120.6747436283118
 20
93.149718298484586
 30
0.0
  0
VERTEX
  5
57E4E
  8
0
 10
120.1990818313532
 20
92.917105260374797
 30
0.0
  0
VERTEX
  5
57E4F
  8
0
 10
119.7345076054691
 20
92.666921001709511
 30
0.0
  0
VERTEX
  5
57E50
  8
0
 10
119.50669453176479
 20
92.535491444592594
 30
0.0
  0
VERTEX
  5
57E51
  8
0
 10
119.2820275127914
 20
92.399983210454309
 30
0.0
  0
VERTEX
  5
57E52
  8
0
 10
118.8425998727671
 20
92.117202922790852
 30
0.0
  0
VERTEX
  5
57E53
  8
0
 10
118.4171155197597
 20
91.819574467172231
 30
0.0
  0
VERTEX
  5
57E54
  8
0
 10
118.2092665336162
 20
91.665074150372618
 30
0.0
  0
SEQEND
  5
57E55
  8
0
  0
POLYLINE
  5
573C7
  8
0
 66
     1
 10
0.0
 20
0.0
 30
0.0
  0
VERTEX
  5
57E56
  8
0
 10
118.2092665336162
 20
91.665074150372618
 30
0.0
  0
VERTEX
  5
57E57
  8
0
 10
118.1771733123669
 20
91.640887062118793
 30
0.0
  0
VERTEX
  5
57E58
  8
0
 10
118.1124471921777
 20
91.593007486657143
 30
0.0
  0
VERTEX
  5
57E59
  8
0
 10
118.04701287141491
 20
91.545802353746126
 30
0.0
  0
VERTEX
  5
57E5A
  8
0
 10
118.0140344884266
 20
91.522458207238174
 30
0.0
  0
VERTEX
  5
57E5B
  8
0
 10
117.9808843232281
 20
91.499289215046701
 30
0.0
  0
VERTEX
  5
57E5C
  8
0
 10
117.91407586983399
 20
91.453485127958857
 30
0.0
  0
VERTEX
  5
57E5D
  8
0
 10
117.846601941633
 20
91.408406500431965
 30
0.0
  0
VERTEX
  5
57E5E
  8
0
 10
117.778476755569
 20
91.364068907826834
 30
0.0
  0
VERTEX
  5
57E5F
  8
0
 10
117.70971522353329
 20
91.320487709974884
 30
0.0
  0
VERTEX
  5
57E60
  8
0
 10
117.64033274207981
 20
91.277677893709438
 30
0.0
  0
VERTEX
  5
57E61
  8
0
 10
117.6054135782761
 20
91.256566825602519
 30
0.0
  0
VERTEX
  5
57E62
  8
0
 10
117.5703451495386
 20
91.235654035818115
 30
0.0
  0
VERTEX
  5
57E63
  8
0
 10
117.4997686989789
 20
91.194430279079484
 30
0.0
  0
VERTEX
  5
57E64
  8
0
 10
117.4286200303205
 20
91.154020310057135
 30
0.0
  0
VERTEX
  5
57E65
  8
0
 10
117.3569161415713
 20
91.114437338618586
 30
0.0
  0
VERTEX
  5
57E66
  8
0
 10
117.2846743591635
 20
91.0756940791548
 30
0.0
  0
VERTEX
  5
57E67
  8
0
 10
117.2119123073582
 20
91.037802733479054
 30
0.0
  0
VERTEX
  5
57E68
  8
0
 10
117.1753417617055
 20
91.019180197388778
 30
0.0
  0
VERTEX
  5
57E69
  8
0
 10
117.1386478766908
 20
91.000774975395757
 30
0.0
  0
VERTEX
  5
57E6A
  8
0
 10
117.06489919142351
 20
90.964621936932303
 30
0.0
  0
VERTEX
  5
57E6B
  8
0
 10
116.9906845759751
 20
90.929354196237455
 30
0.0
  0
VERTEX
  5
57E6C
  8
0
 10
116.9534083170452
 20
90.912055464172894
 30
0.0
  0
VERTEX
  5
57E6D
  8
0
 10
116.9160225202954
 20
90.894981767154263
 30
0.0
  0
VERTEX
  5
57E6E
  8
0
 10
116.8409316441534
 20
90.861514090484533
 30
0.0
  0
VERTEX
  5
57E6F
  8
0
 10
116.7654306603107
 20
90.828960026967707
 30
0.0
  0
VERTEX
  5
57E70
  8
0
 10
116.7275322418464
 20
90.813028209176835
 30
0.0
  0
VERTEX
  5
57E71
  8
0
 10
116.6895374896436
 20
90.797327505049154
 30
0.0
  0
VERTEX
  5
57E72
  8
0
 10
116.61326012976549
 20
90.766619981184945
 30
0.0
  0
VERTEX
  5
57E73
  8
0
 10
116.5366142546733
 20
90.736843863292052
 30
0.0
  0
VERTEX
  5
57E74
  8
0
 10
116.45961918937969
 20
90.708006497549704
 30
0.0
  0
VERTEX
  5
57E75
  8
0
 10
116.3822946245995
 20
90.680114764037057
 30
0.0
  0
VERTEX
  5
57E76
  8
0
 10
116.30466058606871
 20
90.653175054472058
 30
0.0
  0
VERTEX
  5
57E77
  8
0
 10
116.2657338561113
 20
90.640064067508149
 30
0.0
  0
VERTEX
  5
57E78
  8
0
 10
116.22673740326481
 20
90.627193251903464
 30
0.0
  0
VERTEX
  5
57E79
  8
0
 10
116.1485456775229
 20
90.602174712333706
 30
0.0
  0
VERTEX
  5
57E7A
  8
0
 10
116.0701062495354
 20
90.578124248251015
 30
0.0
  0
VERTEX
  5
57E7B
  8
0
 10
115.99144016621879
 20
90.555046114057404
 30
0.0
  0
VERTEX
  5
57E7C
  8
0
 10
115.91256864692831
 20
90.532943993380684
 30
0.0
  0
VERTEX
  5
57E7D
  8
0
 10
115.83351304899659
 20
90.511820988265853
 30
0.0
  0
VERTEX
  5
57E7E
  8
0
 10
115.7939229237959
 20
90.501627462170745
 30
0.0
  0
VERTEX
  5
57E7F
  8
0
 10
115.7542948325687
 20
90.491679610246365
 30
0.0
  0
VERTEX
  5
57E80
  8
0
 10
115.67493552470449
 20
90.472521773300173
 30
0.0
  0
VERTEX
  5
57E81
  8
0
 10
115.595456682715
 20
90.454348788703271
 30
0.0
  0
VERTEX
  5
57E82
  8
0
 10
115.5158798566994
 20
90.437161361797095
 30
0.0
  0
VERTEX
  5
57E83
  8
0
 10
115.436226551245
 20
90.420959590694565
 30
0.0
  0
VERTEX
  5
57E84
  8
0
 10
115.3565181967103
 20
90.405742968884965
 30
0.0
  0
VERTEX
  5
57E85
  8
0
 10
115.3166500852858
 20
90.398503773379616
 30
0.0
  0
VERTEX
  5
57E86
  8
0
 10
115.2767762988443
 20
90.391510419950691
 30
0.0
  0
VERTEX
  5
57E87
  8
0
 10
115.1970226627331
 20
90.378260332376044
 30
0.0
  0
VERTEX
  5
57E88
  8
0
 10
115.1172793911761
 20
90.365990544030069
 30
0.0
  0
VERTEX
  5
57E89
  8
0
 10
115.0375688477004
 20
90.354698321667342
 30
0.0
  0
VERTEX
  5
57E8A
  8
0
 10
114.9579136194459
 20
90.344380342787758
 30
0.0
  0
VERTEX
  5
57E8B
  8
0
 10
114.87833647993941
 20
90.335032679815754
 30
0.0
  0
VERTEX
  5
57E8C
  8
0
 10
114.8385843519747
 20
90.330721320599878
 30
0.0
  0
VERTEX
  5
57E8D
  8
0
 10
114.7988603517656
 20
90.32665078656396
 30
0.0
  0
VERTEX
  5
57E8E
  8
0
 10
114.719508269131
 20
90.319229486946881
 30
0.0
  0
VERTEX
  5
57E8F
  8
0
 10
114.6403033403097
 20
90.312762965917614
 30
0.0
  0
VERTEX
  5
57E90
  8
0
 10
114.5612687099504
 20
90.307244762604014
 30
0.0
  0
VERTEX
  5
57E91
  8
0
 10
114.4824275212148
 20
90.302667765626666
 30
0.0
  0
VERTEX
  5
57E92
  8
0
 10
114.4038028777112
 20
90.299024210588399
 30
0.0
  0
VERTEX
  5
57E93
  8
0
 10
114.3645789600601
 20
90.297549868733554
 30
0.0
  0
VERTEX
  5
57E94
  8
0
 10
114.32541780517759
 20
90.296305679729855
 30
0.0
  0
VERTEX
  5
57E95
  8
0
 10
114.24729521286071
 20
90.294503103755119
 30
0.0
  0
VERTEX
  5
57E96
  8
0
 10
114.1694578545293
 20
90.293606765837922
 30
0.0
  0
VERTEX
  5
57E97
  8
0
 10
114.13065319645629
 20
90.293495224065325
 30
0.0
  0
VERTEX
  5
57E98
  8
0
 10
114.0918485383834
 20
90.293606765837922
 30
0.0
  0
VERTEX
  5
57E99
  8
0
 10
114.01401118005199
 20
90.294503103755119
 30
0.0
  0
VERTEX
  5
57E9A
  8
0
 10
113.93588858773499
 20
90.296305679729855
 30
0.0
  0
VERTEX
  5
57E9B
  8
0
 10
113.8967274328526
 20
90.297549868733554
 30
0.0
  0
VERTEX
  5
57E9C
  8
0
 10
113.8575035152015
 20
90.299024210588399
 30
0.0
  0
VERTEX
  5
57E9D
  8
0
 10
113.7788788716979
 20
90.302667765626666
 30
0.0
  0
VERTEX
  5
57E9E
  8
0
 10
113.7000376829622
 20
90.307244762604014
 30
0.0
  0
VERTEX
  5
57E9F
  8
0
 10
113.621003052603
 20
90.312762965917614
 30
0.0
  0
VERTEX
  5
57EA0
  8
0
 10
113.5417981237817
 20
90.319229486946881
 30
0.0
  0
VERTEX
  5
57EA1
  8
0
 10
113.4624460411471
 20
90.32665078656396
 30
0.0
  0
VERTEX
  5
57EA2
  8
0
 10
113.422722040938
 20
90.330721320599878
 30
0.0
  0
VERTEX
  5
57EA3
  8
0
 10
113.38296991297319
 20
90.335032679815754
 30
0.0
  0
VERTEX
  5
57EA4
  8
0
 10
113.3033927734668
 20
90.344380342787758
 30
0.0
  0
VERTEX
  5
57EA5
  8
0
 10
113.2237375452123
 20
90.354698321667342
 30
0.0
  0
VERTEX
  5
57EA6
  8
0
 10
113.1440270017366
 20
90.365990544030069
 30
0.0
  0
VERTEX
  5
57EA7
  8
0
 10
113.0642837301796
 20
90.378260332376044
 30
0.0
  0
VERTEX
  5
57EA8
  8
0
 10
112.9845300940684
 20
90.391510419950691
 30
0.0
  0
VERTEX
  5
57EA9
  8
0
 10
112.9446563076268
 20
90.398503773379616
 30
0.0
  0
VERTEX
  5
57EAA
  8
0
 10
112.9047881962024
 20
90.405742968884965
 30
0.0
  0
VERTEX
  5
57EAB
  8
0
 10
112.8250798416677
 20
90.420959590694565
 30
0.0
  0
VERTEX
  5
57EAC
  8
0
 10
112.7454265362132
 20
90.437161361797095
 30
0.0
  0
VERTEX
  5
57EAD
  8
0
 10
112.6658497101977
 20
90.454348788703271
 30
0.0
  0
VERTEX
  5
57EAE
  8
0
 10
112.58637086820821
 20
90.472521773300173
 30
0.0
  0
VERTEX
  5
57EAF
  8
0
 10
112.507011560344
 20
90.491679610246365
 30
0.0
  0
VERTEX
  5
57EB0
  8
0
 10
112.4673834691167
 20
90.501627462170745
 30
0.0
  0
VERTEX
  5
57EB1
  8
0
 10
112.42779334391609
 20
90.511820988265853
 30
0.0
  0
VERTEX
  5
57EB2
  8
0
 10
112.34873774598439
 20
90.532943993380684
 30
0.0
  0
VERTEX
  5
57EB3
  8
0
 10
112.26986622669391
 20
90.555046114057404
 30
0.0
  0
VERTEX
  5
57EB4
  8
0
 10
112.1912001433773
 20
90.578124248251015
 30
0.0
  0
VERTEX
  5
57EB5
  8
0
 10
112.1127607153898
 20
90.602174712333706
 30
0.0
  0
VERTEX
  5
57EB6
  8
0
 10
112.03456898964789
 20
90.627193251903464
 30
0.0
  0
VERTEX
  5
57EB7
  8
0
 10
111.9955725368014
 20
90.640064067508149
 30
0.0
  0
VERTEX
  5
57EB8
  8
0
 10
111.95664580684399
 20
90.653175054472058
 30
0.0
  0
VERTEX
  5
57EB9
  8
0
 10
111.87901176831321
 20
90.680114764037057
 30
0.0
  0
VERTEX
  5
57EBA
  8
0
 10
111.80168720353301
 20
90.708006497549704
 30
0.0
  0
VERTEX
  5
57EBB
  8
0
 10
111.72469213823931
 20
90.736843863292052
 30
0.0
  0
VERTEX
  5
57EBC
  8
0
 10
111.64804626314719
 20
90.766619981184945
 30
0.0
  0
VERTEX
  5
57EBD
  8
0
 10
111.5717689032691
 20
90.797327505049154
 30
0.0
  0
VERTEX
  5
57EBE
  8
0
 10
111.5337741510663
 20
90.813028209176835
 30
0.0
  0
VERTEX
  5
57EBF
  8
0
 10
111.495875732602
 20
90.828960026967707
 30
0.0
  0
VERTEX
  5
57EC0
  8
0
 10
111.4203747487593
 20
90.861514090484533
 30
0.0
  0
VERTEX
  5
57EC1
  8
0
 10
111.3452838726173
 20
90.894981767154263
 30
0.0
  0
VERTEX
  5
57EC2
  8
0
 10
111.3078980758675
 20
90.912055464172894
 30
0.0
  0
VERTEX
  5
57EC3
  8
0
 10
111.27062181693761
 20
90.929354196237455
 30
0.0
  0
VERTEX
  5
57EC4
  8
0
 10
111.19640720148919
 20
90.964621936932303
 30
0.0
  0
VERTEX
  5
57EC5
  8
0
 10
111.1226585162219
 20
91.000774975395757
 30
0.0
  0
VERTEX
  5
57EC6
  8
0
 10
111.0859646312072
 20
91.019180197388778
 30
0.0
  0
VERTEX
  5
57EC7
  8
0
 10
111.0493940855545
 20
91.037802733479054
 30
0.0
  0
VERTEX
  5
57EC8
  8
0
 10
110.9766320337492
 20
91.0756940791548
 30
0.0
  0
VERTEX
  5
57EC9
  8
0
 10
110.9043902513414
 20
91.114437338618586
 30
0.0
  0
VERTEX
  5
57ECA
  8
0
 10
110.8326863625922
 20
91.154020310057135
 30
0.0
  0
VERTEX
  5
57ECB
  8
0
 10
110.7615376939338
 20
91.194430279079484
 30
0.0
  0
VERTEX
  5
57ECC
  8
0
 10
110.6909612433741
 20
91.235654035818115
 30
0.0
  0
VERTEX
  5
57ECD
  8
0
 10
110.6558928146365
 20
91.256566825602519
 30
0.0
  0
VERTEX
  5
57ECE
  8
0
 10
110.62097365083289
 20
91.277677893709438
 30
0.0
  0
VERTEX
  5
57ECF
  8
0
 10
110.55159116937941
 20
91.320487709974884
 30
0.0
  0
VERTEX
  5
57ED0
  8
0
 10
110.4828296373437
 20
91.364068907826834
 30
0.0
  0
VERTEX
  5
57ED1
  8
0
 10
110.4147044512797
 20
91.408406500431965
 30
0.0
  0
VERTEX
  5
57ED2
  8
0
 10
110.34723052307869
 20
91.453485127958857
 30
0.0
  0
VERTEX
  5
57ED3
  8
0
 10
110.2804220696846
 20
91.499289215046701
 30
0.0
  0
VERTEX
  5
57ED4
  8
0
 10
110.2472719044861
 20
91.522458207238174
 30
0.0
  0
VERTEX
  5
57ED5
  8
0
 10
110.21429352149779
 20
91.545802353746126
 30
0.0
  0
VERTEX
  5
57ED6
  8
0
 10
110.148859200735
 20
91.593007486657143
 30
0.0
  0
VERTEX
  5
57ED7
  8
0
 10
110.0841330805458
 20
91.640887062118793
 30
0.0
  0
VERTEX
  5
57ED8
  8
0
 10
110.0520398592965
 20
91.665074150372618
 30
0.0
  0
SEQEND
  5
57ED9
  8
0
  0
POLYLINE
  5
573C8
  8
0
 66
     1
 10
0.0
 20
0.0
 30
0.0
  0
VERTEX
  5
57EDA
  8
0
 10
110.0520398592965
 20
91.665074150372618
 30
0.0
  0
VERTEX
  5
57EDB
  8
0
 10
109.8441908731527
 20
91.819574467172458
 30
0.0
  0
VERTEX
  5
57EDC
  8
0
 10
109.4187065201447
 20
92.117202922791421
 30
0.0
  0
VERTEX
  5
57EDD
  8
0
 10
108.97927888011979
 20
92.399983210455176
 30
0.0
  0
VERTEX
  5
57EDE
  8
0
 10
108.7546118611461
 20
92.535491444593674
 30
0.0
  0
VERTEX
  5
57EDF
  8
0
 10
108.52679878744139
 20
92.666921001710747
 30
0.0
  0
VERTEX
  5
57EE0
  8
0
 10
108.0622245615567
 20
92.917105260376218
 30
0.0
  0
VERTEX
  5
57EE1
  8
0
 10
107.5865627645974
 20
93.149718298486164
 30
0.0
  0
VERTEX
  5
57EE2
  8
0
 10
107.1008470281605
 20
93.364042358946605
 30
0.0
  0
VERTEX
  5
57EE3
  8
0
 10
106.6061199505946
 20
93.559460740159125
 30
0.0
  0
VERTEX
  5
57EE4
  8
0
 10
106.10345655871561
 20
93.735442181068947
 30
0.0
  0
VERTEX
  5
57EE5
  8
0
 10
105.8494999212425
 20
93.815999153738105
 30
0.0
  0
VERTEX
  5
57EE6
  8
0
 10
105.5939861479234
 20
93.891533562690938
 30
0.0
  0
VERTEX
  5
57EE7
  8
0
 10
105.0788763443597
 20
94.027368475981916
 30
0.0
  0
VERTEX
  5
57EE8
  8
0
 10
104.55931304601521
 20
94.142673452875684
 30
0.0
  0
VERTEX
  5
57EE9
  8
0
 10
104.03647968077971
 20
94.237270401189676
 30
0.0
  0
VERTEX
  5
57EEA
  8
0
 10
103.51133052410169
 20
94.311100042787814
 30
0.0
  0
VERTEX
  5
57EEB
  8
0
 10
102.9848042620918
 20
94.364157071588409
 30
0.0
  0
VERTEX
  5
57EEC
  8
0
 10
102.7213960998792
 20
94.382903081896416
 30
0.0
  0
VERTEX
  5
57EED
  8
0
 10
102.4580910300685
 20
94.396475701453994
 30
0.0
  0
VERTEX
  5
57EEE
  8
0
 10
101.9323886688956
 20
94.408179709664012
 30
0.0
  0
VERTEX
  5
57EEF
  8
0
 10
101.4088832071868
 20
94.399483689049774
 30
0.0
  0
VERTEX
  5
57EF0
  8
0
 10
101.1483170948058
 20
94.387577075629224
 30
0.0
  0
SEQEND
  5
57EF1
  8
0
  0
POLYLINE
  5
573C9
  8
0
 66
     1
 10
0.0
 20
0.0
 30
0.0
  0
VERTEX
  5
57EF2
  8
0
 10
101.1483170948058
 20
99.699413372501411
 30
0.0
  0
VERTEX
  5
57EF3
  8
0
 10
101.4088832071867
 20
99.687506759080918
 30
0.0
  0
VERTEX
  5
57EF4
  8
0
 10
101.932388668897
 20
99.678810738466666
 30
0.0
  0
VERTEX
  5
57EF5
  8
0
 10
102.4580910300723
 20
99.690514746676854
 30
0.0
  0
VERTEX
  5
57EF6
  8
0
 10
102.7213960998845
 20
99.704087366234603
 30
0.0
  0
VERTEX
  5
57EF7
  8
0
 10
102.98480426209829
 20
99.722833376542781
 30
0.0
  0
VERTEX
  5
57EF8
  8
0
 10
103.51133052411031
 20
99.775890405343901
 30
0.0
  0
VERTEX
  5
57EF9
  8
0
 10
104.0364796807886
 20
99.849720046942423
 30
0.0
  0
VERTEX
  5
57EFA
  8
0
 10
104.55931304602331
 20
99.944316995256614
 30
0.0
  0
VERTEX
  5
57EFB
  8
0
 10
105.0788763443671
 20
100.0596219721505
 30
0.0
  0
VERTEX
  5
57EFC
  8
0
 10
105.59398614793
 20
100.1954568854416
 30
0.0
  0
VERTEX
  5
57EFD
  8
0
 10
105.84949992124869
 20
100.27099129439441
 30
0.0
  0
VERTEX
  5
57EFE
  8
0
 10
106.1034565587215
 20
100.35154826706361
 30
0.0
  0
VERTEX
  5
57EFF
  8
0
 10
106.60611995059971
 20
100.5275297079735
 30
0.0
  0
VERTEX
  5
57F00
  8
0
 10
107.10084702816491
 20
100.72294808918581
 30
0.0
  0
VERTEX
  5
57F01
  8
0
 10
107.586562764601
 20
100.93727214964611
 30
0.0
  0
VERTEX
  5
57F02
  8
0
 10
108.0622245615596
 20
101.1698851877559
 30
0.0
  0
VERTEX
  5
57F03
  8
0
 10
108.5267987874437
 20
101.4200694464211
 30
0.0
  0
VERTEX
  5
57F04
  8
0
 10
108.75461186114789
 20
101.5514990035381
 30
0.0
  0
VERTEX
  5
57F05
  8
0
 10
108.9792788801213
 20
101.6870072376764
 30
0.0
  0
VERTEX
  5
57F06
  8
0
 10
109.41870652014561
 20
101.9697875253399
 30
0.0
  0
VERTEX
  5
57F07
  8
0
 10
109.844190873153
 20
102.2674159809584
 30
0.0
  0
VERTEX
  5
57F08
  8
0
 10
110.0520398592965
 20
102.421916297758
 30
0.0
  0
SEQEND
  5
57F09
  8
0
  0
POLYLINE
  5
573CA
  8
0
 66
     1
 10
0.0
 20
0.0
 30
0.0
  0
VERTEX
  5
57F0A
  8
0
 10
110.0520398592965
 20
102.421916297758
 30
0.0
  0
VERTEX
  5
57F0B
  8
0
 10
110.0841330805458
 20
102.4461033860118
 30
0.0
  0
VERTEX
  5
57F0C
  8
0
 10
110.148859200735
 20
102.49398296147351
 30
0.0
  0
VERTEX
  5
57F0D
  8
0
 10
110.21429352149779
 20
102.54118809438449
 30
0.0
  0
VERTEX
  5
57F0E
  8
0
 10
110.2472719044861
 20
102.5645322408925
 30
0.0
  0
VERTEX
  5
57F0F
  8
0
 10
110.2804220696846
 20
102.587701233084
 30
0.0
  0
VERTEX
  5
57F10
  8
0
 10
110.34723052307869
 20
102.63350532017181
 30
0.0
  0
VERTEX
  5
57F11
  8
0
 10
110.4147044512797
 20
102.6785839476987
 30
0.0
  0
VERTEX
  5
57F12
  8
0
 10
110.4828296373437
 20
102.7229215403038
 30
0.0
  0
VERTEX
  5
57F13
  8
0
 10
110.55159116937941
 20
102.76650273815579
 30
0.0
  0
VERTEX
  5
57F14
  8
0
 10
110.62097365083299
 20
102.8093125544212
 30
0.0
  0
VERTEX
  5
57F15
  8
0
 10
110.6558928146365
 20
102.8304236225281
 30
0.0
  0
VERTEX
  5
57F16
  8
0
 10
110.6909612433741
 20
102.85133641231251
 30
0.0
  0
VERTEX
  5
57F17
  8
0
 10
110.7615376939338
 20
102.89256016905119
 30
0.0
  0
VERTEX
  5
57F18
  8
0
 10
110.8326863625922
 20
102.9329701380735
 30
0.0
  0
VERTEX
  5
57F19
  8
0
 10
110.9043902513414
 20
102.97255310951211
 30
0.0
  0
VERTEX
  5
57F1A
  8
0
 10
110.9766320337492
 20
103.01129636897591
 30
0.0
  0
VERTEX
  5
57F1B
  8
0
 10
111.0493940855545
 20
103.04918771465159
 30
0.0
  0
VERTEX
  5
57F1C
  8
0
 10
111.0859646312072
 20
103.0678102507419
 30
0.0
  0
VERTEX
  5
57F1D
  8
0
 10
111.1226585162219
 20
103.08621547273491
 30
0.0
  0
VERTEX
  5
57F1E
  8
0
 10
111.19640720148919
 20
103.1223685111984
 30
0.0
  0
VERTEX
  5
57F1F
  8
0
 10
111.27062181693761
 20
103.15763625189319
 30
0.0
  0
VERTEX
  5
57F20
  8
0
 10
111.3078980758675
 20
103.1749349839578
 30
0.0
  0
VERTEX
  5
57F21
  8
0
 10
111.3452838726173
 20
103.1920086809764
 30
0.0
  0
VERTEX
  5
57F22
  8
0
 10
111.4203747487593
 20
103.2254763576461
 30
0.0
  0
VERTEX
  5
57F23
  8
0
 10
111.495875732602
 20
103.2580304211629
 30
0.0
  0
VERTEX
  5
57F24
  8
0
 10
111.5337741510663
 20
103.2739622389538
 30
0.0
  0
VERTEX
  5
57F25
  8
0
 10
111.5717689032691
 20
103.2896629430815
 30
0.0
  0
VERTEX
  5
57F26
  8
0
 10
111.64804626314719
 20
103.3203704669457
 30
0.0
  0
VERTEX
  5
57F27
  8
0
 10
111.72469213823931
 20
103.3501465848386
 30
0.0
  0
VERTEX
  5
57F28
  8
0
 10
111.80168720353301
 20
103.3789839505809
 30
0.0
  0
VERTEX
  5
57F29
  8
0
 10
111.87901176831321
 20
103.40687568409361
 30
0.0
  0
VERTEX
  5
57F2A
  8
0
 10
111.95664580684399
 20
103.43381539365861
 30
0.0
  0
VERTEX
  5
57F2B
  8
0
 10
111.9955725368014
 20
103.4469263806225
 30
0.0
  0
VERTEX
  5
57F2C
  8
0
 10
112.03456898964789
 20
103.4597971962272
 30
0.0
  0
VERTEX
  5
57F2D
  8
0
 10
112.1127607153898
 20
103.484815735797
 30
0.0
  0
VERTEX
  5
57F2E
  8
0
 10
112.1912001433773
 20
103.50886619987961
 30
0.0
  0
VERTEX
  5
57F2F
  8
0
 10
112.26986622669391
 20
103.5319443340732
 30
0.0
  0
VERTEX
  5
57F30
  8
0
 10
112.34873774598439
 20
103.55404645474999
 30
0.0
  0
VERTEX
  5
57F31
  8
0
 10
112.42779334391609
 20
103.5751694598648
 30
0.0
  0
VERTEX
  5
57F32
  8
0
 10
112.4673834691167
 20
103.5853629859599
 30
0.0
  0
VERTEX
  5
57F33
  8
0
 10
112.507011560344
 20
103.5953108378843
 30
0.0
  0
VERTEX
  5
57F34
  8
0
 10
112.58637086820821
 20
103.6144686748305
 30
0.0
  0
VERTEX
  5
57F35
  8
0
 10
112.6658497101977
 20
103.63264165942741
 30
0.0
  0
VERTEX
  5
57F36
  8
0
 10
112.7454265362132
 20
103.6498290863336
 30
0.0
  0
VERTEX
  5
57F37
  8
0
 10
112.8250798416677
 20
103.6660308574361
 30
0.0
  0
VERTEX
  5
57F38
  8
0
 10
112.9047881962024
 20
103.6812474792457
 30
0.0
  0
VERTEX
  5
57F39
  8
0
 10
112.9446563076268
 20
103.688486674751
 30
0.0
  0
VERTEX
  5
57F3A
  8
0
 10
112.9845300940684
 20
103.69548002818
 30
0.0
  0
VERTEX
  5
57F3B
  8
0
 10
113.0642837301796
 20
103.70873011575461
 30
0.0
  0
VERTEX
  5
57F3C
  8
0
 10
113.1440270017366
 20
103.72099990410059
 30
0.0
  0
VERTEX
  5
57F3D
  8
0
 10
113.2237375452123
 20
103.73229212646331
 30
0.0
  0
VERTEX
  5
57F3E
  8
0
 10
113.3033927734668
 20
103.74261010534291
 30
0.0
  0
VERTEX
  5
57F3F
  8
0
 10
113.38296991297319
 20
103.7519577683149
 30
0.0
  0
VERTEX
  5
57F40
  8
0
 10
113.422722040938
 20
103.7562691275308
 30
0.0
  0
VERTEX
  5
57F41
  8
0
 10
113.4624460411471
 20
103.7603396615667
 30
0.0
  0
VERTEX
  5
57F42
  8
0
 10
113.5417981237817
 20
103.7677609611838
 30
0.0
  0
VERTEX
  5
57F43
  8
0
 10
113.621003052603
 20
103.77422748221301
 30
0.0
  0
VERTEX
  5
57F44
  8
0
 10
113.7000376829622
 20
103.77974568552671
 30
0.0
  0
VERTEX
  5
57F45
  8
0
 10
113.7788788716979
 20
103.784322682504
 30
0.0
  0
VERTEX
  5
57F46
  8
0
 10
113.8575035152015
 20
103.78796623754219
 30
0.0
  0
VERTEX
  5
57F47
  8
0
 10
113.8967274328526
 20
103.78944057939709
 30
0.0
  0
VERTEX
  5
57F48
  8
0
 10
113.93588858773499
 20
103.79068476840079
 30
0.0
  0
VERTEX
  5
57F49
  8
0
 10
114.01401118005199
 20
103.7924873443755
 30
0.0
  0
VERTEX
  5
57F4A
  8
0
 10
114.0918485383834
 20
103.7933836822927
 30
0.0
  0
VERTEX
  5
57F4B
  8
0
 10
114.13065319645629
 20
103.7934952240653
 30
0.0
  0
VERTEX
  5
57F4C
  8
0
 10
114.1694578545293
 20
103.7933836822927
 30
0.0
  0
VERTEX
  5
57F4D
  8
0
 10
114.24729521286071
 20
103.7924873443755
 30
0.0
  0
VERTEX
  5
57F4E
  8
0
 10
114.32541780517759
 20
103.79068476840069
 30
0.0
  0
VERTEX
  5
57F4F
  8
0
 10
114.3645789600601
 20
103.78944057939709
 30
0.0
  0
VERTEX
  5
57F50
  8
0
 10
114.4038028777112
 20
103.78796623754219
 30
0.0
  0
VERTEX
  5
57F51
  8
0
 10
114.4824275212148
 20
103.784322682504
 30
0.0
  0
VERTEX
  5
57F52
  8
0
 10
114.5612687099504
 20
103.77974568552671
 30
0.0
  0
VERTEX
  5
57F53
  8
0
 10
114.6403033403097
 20
103.77422748221301
 30
0.0
  0
VERTEX
  5
57F54
  8
0
 10
114.719508269131
 20
103.7677609611838
 30
0.0
  0
VERTEX
  5
57F55
  8
0
 10
114.7988603517656
 20
103.7603396615667
 30
0.0
  0
VERTEX
  5
57F56
  8
0
 10
114.8385843519747
 20
103.7562691275308
 30
0.0
  0
VERTEX
  5
57F57
  8
0
 10
114.87833647993941
 20
103.7519577683149
 30
0.0
  0
VERTEX
  5
57F58
  8
0
 10
114.9579136194459
 20
103.74261010534291
 30
0.0
  0
VERTEX
  5
57F59
  8
0
 10
115.0375688477004
 20
103.73229212646331
 30
0.0
  0
VERTEX
  5
57F5A
  8
0
 10
115.1172793911761
 20
103.72099990410059
 30
0.0
  0
VERTEX
  5
57F5B
  8
0
 10
115.1970226627331
 20
103.70873011575461
 30
0.0
  0
VERTEX
  5
57F5C
  8
0
 10
115.2767762988443
 20
103.69548002818
 30
0.0
  0
VERTEX
  5
57F5D
  8
0
 10
115.3166500852858
 20
103.688486674751
 30
0.0
  0
VERTEX
  5
57F5E
  8
0
 10
115.3565181967104
 20
103.6812474792457
 30
0.0
  0
VERTEX
  5
57F5F
  8
0
 10
115.436226551245
 20
103.6660308574361
 30
0.0
  0
VERTEX
  5
57F60
  8
0
 10
115.5158798566995
 20
103.6498290863336
 30
0.0
  0
VERTEX
  5
57F61
  8
0
 10
115.595456682715
 20
103.63264165942741
 30
0.0
  0
VERTEX
  5
57F62
  8
0
 10
115.67493552470449
 20
103.6144686748305
 30
0.0
  0
VERTEX
  5
57F63
  8
0
 10
115.7542948325687
 20
103.5953108378843
 30
0.0
  0
VERTEX
  5
57F64
  8
0
 10
115.7939229237959
 20
103.5853629859599
 30
0.0
  0
VERTEX
  5
57F65
  8
0
 10
115.83351304899659
 20
103.5751694598648
 30
0.0
  0
VERTEX
  5
57F66
  8
0
 10
115.91256864692831
 20
103.55404645474999
 30
0.0
  0
VERTEX
  5
57F67
  8
0
 10
115.99144016621879
 20
103.5319443340732
 30
0.0
  0
VERTEX
  5
57F68
  8
0
 10
116.0701062495354
 20
103.50886619987961
 30
0.0
  0
VERTEX
  5
57F69
  8
0
 10
116.1485456775229
 20
103.484815735797
 30
0.0
  0
VERTEX
  5
57F6A
  8
0
 10
116.22673740326481
 20
103.4597971962272
 30
0.0
  0
VERTEX
  5
57F6B
  8
0
 10
116.2657338561113
 20
103.4469263806225
 30
0.0
  0
VERTEX
  5
57F6C
  8
0
 10
116.30466058606871
 20
103.43381539365861
 30
0.0
  0
VERTEX
  5
57F6D
  8
0
 10
116.3822946245995
 20
103.40687568409361
 30
0.0
  0
VERTEX
  5
57F6E
  8
0
 10
116.45961918937969
 20
103.3789839505809
 30
0.0
  0
VERTEX
  5
57F6F
  8
0
 10
116.5366142546733
 20
103.3501465848386
 30
0.0
  0
VERTEX
  5
57F70
  8
0
 10
116.61326012976549
 20
103.3203704669457
 30
0.0
  0
VERTEX
  5
57F71
  8
0
 10
116.6895374896436
 20
103.2896629430815
 30
0.0
  0
VERTEX
  5
57F72
  8
0
 10
116.7275322418464
 20
103.2739622389538
 30
0.0
  0
VERTEX
  5
57F73
  8
0
 10
116.7654306603107
 20
103.2580304211629
 30
0.0
  0
VERTEX
  5
57F74
  8
0
 10
116.8409316441534
 20
103.2254763576461
 30
0.0
  0
VERTEX
  5
57F75
  8
0
 10
116.9160225202954
 20
103.1920086809764
 30
0.0
  0
VERTEX
  5
57F76
  8
0
 10
116.9534083170452
 20
103.1749349839578
 30
0.0
  0
VERTEX
  5
57F77
  8
0
 10
116.9906845759751
 20
103.15763625189319
 30
0.0
  0
VERTEX
  5
57F78
  8
0
 10
117.06489919142351
 20
103.1223685111984
 30
0.0
  0
VERTEX
  5
57F79
  8
0
 10
117.1386478766908
 20
103.08621547273491
 30
0.0
  0
VERTEX
  5
57F7A
  8
0
 10
117.1753417617055
 20
103.0678102507419
 30
0.0
  0
VERTEX
  5
57F7B
  8
0
 10
117.2119123073582
 20
103.04918771465159
 30
0.0
  0
VERTEX
  5
57F7C
  8
0
 10
117.2846743591635
 20
103.01129636897591
 30
0.0
  0
VERTEX
  5
57F7D
  8
0
 10
117.3569161415713
 20
102.97255310951211
 30
0.0
  0
VERTEX
  5
57F7E
  8
0
 10
117.4286200303205
 20
102.9329701380735
 30
0.0
  0
VERTEX
  5
57F7F
  8
0
 10
117.4997686989789
 20
102.89256016905119
 30
0.0
  0
VERTEX
  5
57F80
  8
0
 10
117.5703451495386
 20
102.85133641231251
 30
0.0
  0
VERTEX
  5
57F81
  8
0
 10
117.6054135782761
 20
102.8304236225281
 30
0.0
  0
VERTEX
  5
57F82
  8
0
 10
117.64033274207981
 20
102.8093125544212
 30
0.0
  0
VERTEX
  5
57F83
  8
0
 10
117.70971522353329
 20
102.76650273815579
 30
0.0
  0
VERTEX
  5
57F84
  8
0
 10
117.778476755569
 20
102.7229215403038
 30
0.0
  0
VERTEX
  5
57F85
  8
0
 10
117.846601941633
 20
102.6785839476987
 30
0.0
  0
VERTEX
  5
57F86
  8
0
 10
117.91407586983399
 20
102.63350532017181
 30
0.0
  0
VERTEX
  5
57F87
  8
0
 10
117.9808843232281
 20
102.587701233084
 30
0.0
  0
VERTEX
  5
57F88
  8
0
 10
118.0140344884266
 20
102.5645322408925
 30
0.0
  0
VERTEX
  5
57F89
  8
0
 10
118.04701287141491
 20
102.54118809438449
 30
0.0
  0
VERTEX
  5
57F8A
  8
0
 10
118.1124471921777
 20
102.49398296147351
 30
0.0
  0
VERTEX
  5
57F8B
  8
0
 10
118.1771733123669
 20
102.4461033860118
 30
0.0
  0
VERTEX
  5
57F8C
  8
0
 10
118.2092665336162
 20
102.421916297758
 30
0.0
  0
SEQEND
  5
57F8D
  8
0
  0
POLYLINE
  5
573CB
  8
0
 66
     1
 10
0.0
 20
0.0
 30
0.0
  0
VERTEX
  5
57F8E
  8
0
 10
118.2092665336162
 20
102.421916297758
 30
0.0
  0
VERTEX
  5
57F8F
  8
0
 10
118.41711551976
 20
102.26741598095821
 30
0.0
  0
VERTEX
  5
57F90
  8
0
 10
118.84259987276801
 20
101.9697875253392
 30
0.0
  0
VERTEX
  5
57F91
  8
0
 10
119.28202751279289
 20
101.6870072376754
 30
0.0
  0
VERTEX
  5
57F92
  8
0
 10
119.5066945317667
 20
101.5514990035369
 30
0.0
  0
VERTEX
  5
57F93
  8
0
 10
119.73450760547129
 20
101.4200694464199
 30
0.0
  0
VERTEX
  5
57F94
  8
0
 10
120.1990818313561
 20
101.1698851877544
 30
0.0
  0
VERTEX
  5
57F95
  8
0
 10
120.6747436283154
 20
100.9372721496444
 30
0.0
  0
VERTEX
  5
57F96
  8
0
 10
121.1604593647523
 20
100.722948089184
 30
0.0
  0
VERTEX
  5
57F97
  8
0
 10
121.6551864423183
 20
100.5275297079715
 30
0.0
  0
VERTEX
  5
57F98
  8
0
 10
122.15784983419729
 20
100.3515482670616
 30
0.0
  0
VERTEX
  5
57F99
  8
0
 10
122.4118064716704
 20
100.2709912943925
 30
0.0
  0
VERTEX
  5
57F9A
  8
0
 10
122.6673202449895
 20
100.1954568854397
 30
0.0
  0
VERTEX
  5
57F9B
  8
0
 10
123.1824300485532
 20
100.05962197214861
 30
0.0
  0
VERTEX
  5
57F9C
  8
0
 10
123.70199334689779
 20
99.944316995254894
 30
0.0
  0
VERTEX
  5
57F9D
  8
0
 10
124.22482671213329
 20
99.849720046940945
 30
0.0
  0
VERTEX
  5
57F9E
  8
0
 10
124.7499758688113
 20
99.775890405342807
 30
0.0
  0
VERTEX
  5
57F9F
  8
0
 10
125.2765021308213
 20
99.722833376542269
 30
0.0
  0
VERTEX
  5
57FA0
  8
0
 10
125.5399102930339
 20
99.704087366234262
 30
0.0
  0
VERTEX
  5
57FA1
  8
0
 10
125.8032153628447
 20
99.690514746676683
 30
0.0
  0
VERTEX
  5
57FA2
  8
0
 10
126.3289177240175
 20
99.678810738466666
 30
0.0
  0
VERTEX
  5
57FA3
  8
0
 10
126.85242318572639
 20
99.687506759080975
 30
0.0
  0
VERTEX
  5
57FA4
  8
0
 10
127.11298929810739
 20
99.699413372501454
 30
0.0
  0
SEQEND
  5
57FA5
  8
0
  0
POLYLINE
  5
573CC
  8
0
 66
     1
 10
0.0
 20
0.0
 30
0.0
  0
VERTEX
  5
57FA6
  8
0
 10
100.4836789308635
 20
94.334277590458896
 30
0.0
  0
VERTEX
  5
57FA7
  8
0
 10
100.3239164991121
 20
94.317485882245478
 30
0.0
  0
VERTEX
  5
57FA8
  8
0
 10
100.00182231219441
 20
94.283632419046
 30
0.0
  0
VERTEX
  5
57FA9
  8
0
 10
99.677336924302367
 20
94.249527630496686
 30
0.0
  0
VERTEX
  5
57FAA
  8
0
 10
99.514587649232155
 20
94.232421992400404
 30
0.0
  0
SEQEND
  5
57FAB
  8
0
  0
POLYLINE
  5
573CD
  8
0
 66
     1
 10
0.0
 20
0.0
 30
0.0
  0
VERTEX
  5
57FAC
  8
0
 10
99.514587649232155
 20
99.854568455730245
 30
0.0
  0
VERTEX
  5
57FAD
  8
0
 10
99.677336924302324
 20
99.837462817634005
 30
0.0
  0
VERTEX
  5
57FAE
  8
0
 10
100.00182231219441
 20
99.803358029084677
 30
0.0
  0
VERTEX
  5
57FAF
  8
0
 10
100.3239164991121
 20
99.7695045658852
 30
0.0
  0
VERTEX
  5
57FB0
  8
0
 10
100.4836789308635
 20
99.752712857671781
 30
0.0
  0
SEQEND
  5
57FB1
  8
0
  0
POLYLINE
  5
573CE
  8
0
 66
     1
 10
0.0
 20
0.0
 30
0.0
  0
VERTEX
  5
57FB2
  8
0
 10
100.4836789308635
 20
99.752712857671781
 30
0.0
  0
VERTEX
  5
57FB3
  8
0
 10
100.59539398514509
 20
99.741440641983914
 30
0.0
  0
VERTEX
  5
57FB4
  8
0
 10
100.8180102589844
 20
99.721771581117267
 30
0.0
  0
VERTEX
  5
57FB5
  8
0
 10
101.038835780818
 20
99.705922712322774
 30
0.0
  0
VERTEX
  5
57FB6
  8
0
 10
101.1483170948058
 20
99.699413372501411
 30
0.0
  0
SEQEND
  5
57FB7
  8
0
  0
POLYLINE
  5
573CF
  8
0
 66
     1
 10
0.0
 20
0.0
 30
0.0
  0
VERTEX
  5
57FB8
  8
0
 10
101.1483170948058
 20
94.387577075629281
 30
0.0
  0
VERTEX
  5
57FB9
  8
0
 10
101.0388370350673
 20
94.381067815494774
 30
0.0
  0
VERTEX
  5
57FBA
  8
0
 10
100.8180126937492
 20
94.365219061838502
 30
0.0
  0
VERTEX
  5
57FBB
  8
0
 10
100.5953954378945
 20
94.345549946630854
 30
0.0
  0
VERTEX
  5
57FBC
  8
0
 10
100.4836789308635
 20
94.334277590458896
 30
0.0
  0
SEQEND
  5
57FBD
  8
0
  0
POLYLINE
  5
573D0
  8
0
 66
     1
 10
0.0
 20
0.0
 30
0.0
  0
VERTEX
  5
57FBE
  8
0
 10
127.7776274620492
 20
99.752712857671781
 30
0.0
  0
VERTEX
  5
57FBF
  8
0
 10
127.9373898938005
 20
99.7695045658852
 30
0.0
  0
VERTEX
  5
57FC0
  8
0
 10
128.25948408071821
 20
99.803358029084677
 30
0.0
  0
VERTEX
  5
57FC1
  8
0
 10
128.58396946861029
 20
99.837462817634005
 30
0.0
  0
VERTEX
  5
57FC2
  8
0
 10
128.7467187436805
 20
99.854568455730245
 30
0.0
  0
SEQEND
  5
57FC3
  8
0
  0
POLYLINE
  5
573D1
  8
0
 66
     1
 10
0.0
 20
0.0
 30
0.0
  0
VERTEX
  5
57FC4
  8
0
 10
128.7467187436805
 20
94.232421992400404
 30
0.0
  0
VERTEX
  5
57FC5
  8
0
 10
128.58396946861029
 20
94.249527630496743
 30
0.0
  0
VERTEX
  5
57FC6
  8
0
 10
128.25948408071829
 20
94.283632419046
 30
0.0
  0
VERTEX
  5
57FC7
  8
0
 10
127.9373898938005
 20
94.317485882245478
 30
0.0
  0
VERTEX
  5
57FC8
  8
0
 10
127.7776274620492
 20
94.334277590458896
 30
0.0
  0
SEQEND
  5
57FC9
  8
0
  0
POLYLINE
  5
573D2
  8
0
 66
     1
 10
0.0
 20
0.0
 30
0.0
  0
VERTEX
  5
57FCA
  8
0
 10
127.7776274620492
 20
94.334277590458896
 30
0.0
  0
VERTEX
  5
57FCB
  8
0
 10
127.66591240776771
 20
94.345549806146764
 30
0.0
  0
VERTEX
  5
57FCC
  8
0
 10
127.4432961339286
 20
94.365218867013425
 30
0.0
  0
VERTEX
  5
57FCD
  8
0
 10
127.22247061209509
 20
94.381067735807846
 30
0.0
  0
VERTEX
  5
57FCE
  8
0
 10
127.11298929810739
 20
94.387577075629224
 30
0.0
  0
SEQEND
  5
57FCF
  8
0
  0
POLYLINE
  5
573D3
  8
0
 66
     1
 10
0.0
 20
0.0
 30
0.0
  0
VERTEX
  5
57FD0
  8
0
 10
127.11298929810739
 20
99.699413372501454
 30
0.0
  0
VERTEX
  5
57FD1
  8
0
 10
127.2224693578458
 20
99.705922632635918
 30
0.0
  0
VERTEX
  5
57FD2
  8
0
 10
127.4432936991637
 20
99.721771386292176
 30
0.0
  0
VERTEX
  5
57FD3
  8
0
 10
127.66591095501821
 20
99.741440501499824
 30
0.0
  0
VERTEX
  5
57FD4
  8
0
 10
127.7776274620492
 20
99.752712857671781
 30
0.0
  0
SEQEND
  5
57FD5
  8
0
  0
LINE
  5
573D4
  8
1
 10
114.13065319645629
 20
106.24973882678179
 30
0.0
 11
114.13065319645629
 21
87.837251621348855
 31
0.0
  0
LINE
  5
573D5
  8
1
 10
91.432451548658705
 20
97.043495224065339
 30
0.0
 11
136.82885484425401
 21
97.043495224065339
 31
0.0
  0
LINE
  5
573D6
  8
0
 10
107.38065319645629
 20
36.114236260468552
 30
0.0
 11
107.38065319645629
 21
30.739236260468541
 31
0.0
  0
LINE
  5
573D7
  8
0
 10
120.88065319645639
 20
30.739236260468541
 30
0.0
 11
120.88065319645639
 21
36.114236260468552
 31
0.0
  0
ARC
  5
573D8
  8
0
 10
108.9680969713974
 20
75.054869637136676
 30
0.0
 40
40.000000000001847
 50
289.02246800070469
 51
306.20113625556797
  0
ARC
  5
573D9
  8
0
 10
119.293209421515
 20
75.054869637135994
 30
0.0
 40
40.000000000001172
 50
233.798863744432
 51
250.97753199929539
  0
ARC
  5
573DA
  8
0
 10
122.00565319645629
 20
36.114236260468552
 30
0.0
 40
1.125
 50
90.0
 51
180.0
  0
ARC
  5
573DB
  8
0
 10
106.25565319645629
 20
36.114236260468552
 30
0.0
 40
1.1249999999999989
 50
0.0
 51
90.0
  0
ARC
  5
573E4
  8
0
 10
128.88065319645631
 20
46.489236260468601
 30
0.0
 40
5.249999999999976
 50
314.99999999999648
 51
90.0
  0
ARC
  5
573E5
  8
0
 10
99.380653196456365
 20
46.489236260468601
 30
0.0
 40
5.2499999999999751
 50
90.0
 51
225.0000000000035
  0
LINE
  5
573E6
  8
0
 10
107.38065319645629
 20
30.739236260468541
 30
0.0
 11
120.88065319645639
 21
30.739236260468541
 31
0.0
  0
POLYLINE
  5
573E7
  8
0
 66
     1
 10
0.0
 20
0.0
 30
0.0
  0
VERTEX
  5
57FD6
  8
0
 10
127.7776274620492
 20
42.42911136098823
 30
0.0
  0
VERTEX
  5
57FD7
  8
0
 10
127.7234781045042
 20
42.429824113924411
 30
0.0
  0
VERTEX
  5
57FD8
  8
0
 10
127.6139037282457
 20
42.433046150364241
 30
0.0
  0
VERTEX
  5
57FD9
  8
0
 10
127.5028454500647
 20
42.438743958009859
 30
0.0
  0
VERTEX
  5
57FDA
  8
0
 10
127.4468415697484
 20
42.442547704816882
 30
0.0
  0
VERTEX
  5
57FDB
  8
0
 10
127.3905647938834
 20
42.447000119279323
 30
0.0
  0
VERTEX
  5
57FDC
  8
0
 10
127.2773227700193
 20
42.457881334884263
 30
0.0
  0
VERTEX
  5
57FDD
  8
0
 10
127.1633776477516
 20
42.471438663833418
 30
0.0
  0
VERTEX
  5
57FDE
  8
0
 10
127.04898531195261
 20
42.48770762842139
 30
0.0
  0
VERTEX
  5
57FDF
  8
0
 10
126.9344025331863
 20
42.506707697600802
 30
0.0
  0
VERTEX
  5
57FE0
  8
0
 10
126.819885356456
 20
42.528442214583549
 30
0.0
  0
VERTEX
  5
57FE1
  8
0
 10
126.7627306408752
 20
42.54033157155078
 30
0.0
  0
VERTEX
  5
57FE2
  8
0
 10
126.7056868914717
 20
42.552898599682692
 30
0.0
  0
VERTEX
  5
57FE3
  8
0
 10
126.5920474644135
 20
42.580050705502963
 30
0.0
  0
VERTEX
  5
57FE4
  8
0
 10
126.4791911420719
 20
42.609860814821751
 30
0.0
  0
VERTEX
  5
57FE5
  8
0
 10
126.36735969989419
 20
42.642270805185888
 30
0.0
  0
VERTEX
  5
57FE6
  8
0
 10
126.2567929073127
 20
42.677205598330772
 30
0.0
  0
VERTEX
  5
57FE7
  8
0
 10
126.1477251811832
 20
42.714573697577137
 30
0.0
  0
VERTEX
  5
57FE8
  8
0
 10
126.0938246959373
 20
42.734137285630247
 30
0.0
  0
VERTEX
  5
57FE9
  8
0
 10
126.0403833649095
 20
42.754267715075819
 30
0.0
  0
VERTEX
  5
57FEA
  8
0
 10
125.93498695926171
 20
42.79616415650738
 30
0.0
  0
VERTEX
  5
57FEB
  8
0
 10
125.8317510737899
 20
42.840121880385787
 30
0.0
  0
VERTEX
  5
57FEC
  8
0
 10
125.7810090589431
 20
42.862824737544202
 30
0.0
  0
VERTEX
  5
57FED
  8
0
 10
125.7308851306931
 20
42.885981947022032
 30
0.0
  0
VERTEX
  5
57FEE
  8
0
 10
125.6325904756324
 20
42.933568136060039
 30
0.0
  0
VERTEX
  5
57FEF
  8
0
 10
125.53620176101209
 20
42.983141277724421
 30
0.0
  0
VERTEX
  5
57FF0
  8
0
 10
125.48757906224949
 20
43.009287832424093
 30
0.0
  0
VERTEX
  5
57FF1
  8
0
 10
125.4386684964371
 20
43.036387810676729
 30
0.0
  0
VERTEX
  5
57FF2
  8
0
 10
125.3403566087887
 20
43.093375965867573
 30
0.0
  0
VERTEX
  5
57FF3
  8
0
 10
125.2419965589736
 20
43.153928454535098
 30
0.0
  0
VERTEX
  5
57FF4
  8
0
 10
125.1442882847079
 20
43.217815119429702
 30
0.0
  0
VERTEX
  5
57FF5
  8
0
 10
125.0478923102969
 20
43.284754563506823
 30
0.0
  0
VERTEX
  5
57FF6
  8
0
 10
124.9534211345908
 20
43.354417579225213
 30
0.0
  0
VERTEX
  5
57FF7
  8
0
 10
124.90708645388131
 20
43.390153514549212
 30
0.0
  0
VERTEX
  5
57FF8
  8
0
 10
124.86144400663029
 20
43.426422053291716
 30
0.0
  0
VERTEX
  5
57FF9
  8
0
 10
124.77249742092209
 20
43.50032169406154
 30
0.0
  0
VERTEX
  5
57FFA
  8
0
 10
124.6870774628198
 20
43.575607932277642
 30
0.0
  0
VERTEX
  5
57FFB
  8
0
 10
124.6056308935586
 20
43.65171519479258
 30
0.0
  0
VERTEX
  5
57FFC
  8
0
 10
124.52851294578331
 20
43.72806332987593
 30
0.0
  0
VERTEX
  5
57FFD
  8
0
 10
124.4538768760999
 20
43.806347650316013
 30
0.0
  0
VERTEX
  5
57FFE
  8
0
 10
124.417100226252
 20
43.846658198656762
 30
0.0
  0
VERTEX
  5
57FFF
  8
0
 10
124.3807347961049
 20
43.887732051047259
 30
0.0
  0
VERTEX
  5
58000
  8
0
 10
124.3093837109361
 20
43.972117309423993
 30
0.0
  0
VERTEX
  5
58001
  8
0
 10
124.2401067623738
 20
44.05939035810556
 30
0.0
  0
VERTEX
  5
58002
  8
0
 10
124.1731710758561
 20
44.149426178401249
 30
0.0
  0
VERTEX
  5
58003
  8
0
 10
124.10882584184409
 20
44.242090207060009
 30
0.0
  0
VERTEX
  5
58004
  8
0
 10
124.0473021223509
 20
44.337239018885192
 30
0.0
  0
VERTEX
  5
58005
  8
0
 10
124.01766643240759
 20
44.385696681877327
 30
0.0
  0
VERTEX
  5
58006
  8
0
 10
123.9888159809276
 20
44.434715424050843
 30
0.0
  0
VERTEX
  5
58007
  8
0
 10
123.93356786234899
 20
44.534347925723303
 30
0.0
  0
VERTEX
  5
58008
  8
0
 10
123.8817403131516
 20
44.63595320897354
 30
0.0
  0
VERTEX
  5
58009
  8
0
 10
123.83349605647091
 20
44.739339181262011
 30
0.0
  0
VERTEX
  5
5800A
  8
0
 10
123.7889676335311
 20
44.844330613497988
 30
0.0
  0
VERTEX
  5
5800B
  8
0
 10
123.7482638211382
 20
44.950765604720971
 30
0.0
  0
VERTEX
  5
5800C
  8
0
 10
123.7293815653165
 20
45.00445717772191
 30
0.0
  0
VERTEX
  5
5800D
  8
0
 10
123.7114956238341
 20
45.058427141130011
 30
0.0
  0
VERTEX
  5
5800E
  8
0
 10
123.67875433284929
 20
45.167085612571242
 30
0.0
  0
VERTEX
  5
5800F
  8
0
 10
123.65010906593029
 20
45.276503693981709
 30
0.0
  0
VERTEX
  5
58010
  8
0
 10
123.6256054597052
 20
45.386440616211473
 30
0.0
  0
VERTEX
  5
58011
  8
0
 10
123.6052653581699
 20
45.496655411749572
 30
0.0
  0
VERTEX
  5
58012
  8
0
 10
123.58908827843391
 20
45.60690059384256
 30
0.0
  0
VERTEX
  5
58013
  8
0
 10
123.5825545666751
 20
45.661954340804378
 30
0.0
  0
VERTEX
  5
58014
  8
0
 10
123.5770510384998
 20
45.716918466035366
 30
0.0
  0
VERTEX
  5
58015
  8
0
 10
123.5691060095061
 20
45.826445310189143
 30
0.0
  0
VERTEX
  5
58016
  8
0
 10
123.56518016181209
 20
45.935216203251002
 30
0.0
  0
VERTEX
  5
58017
  8
0
 10
123.56469463554809
 20
45.989236260468537
 30
0.0
  0
VERTEX
  5
58018
  8
0
 10
123.56518016181209
 20
46.043256317686087
 30
0.0
  0
VERTEX
  5
58019
  8
0
 10
123.5691060095061
 20
46.152027210747967
 30
0.0
  0
VERTEX
  5
5801A
  8
0
 10
123.5770510384997
 20
46.261554054901687
 30
0.0
  0
VERTEX
  5
5801B
  8
0
 10
123.5825545666751
 20
46.316518180132668
 30
0.0
  0
VERTEX
  5
5801C
  8
0
 10
123.58908827843391
 20
46.371571927094521
 30
0.0
  0
VERTEX
  5
5801D
  8
0
 10
123.6052653581699
 20
46.481817109187482
 30
0.0
  0
VERTEX
  5
5801E
  8
0
 10
123.6256054597052
 20
46.592031904725609
 30
0.0
  0
VERTEX
  5
5801F
  8
0
 10
123.65010906593029
 20
46.701968826955351
 30
0.0
  0
VERTEX
  5
58020
  8
0
 10
123.67875433284929
 20
46.811386908365819
 30
0.0
  0
VERTEX
  5
58021
  8
0
 10
123.7114956238341
 20
46.9200453798071
 30
0.0
  0
VERTEX
  5
58022
  8
0
 10
123.7293815653165
 20
46.974015343215157
 30
0.0
  0
VERTEX
  5
58023
  8
0
 10
123.7482638211382
 20
47.027706916216111
 30
0.0
  0
VERTEX
  5
58024
  8
0
 10
123.7889676335311
 20
47.134141907439073
 30
0.0
  0
VERTEX
  5
58025
  8
0
 10
123.83349605647091
 20
47.239133339675043
 30
0.0
  0
VERTEX
  5
58026
  8
0
 10
123.8817403131516
 20
47.342519311963542
 30
0.0
  0
VERTEX
  5
58027
  8
0
 10
123.93356786234899
 20
47.444124595213793
 30
0.0
  0
VERTEX
  5
58028
  8
0
 10
123.9888159809276
 20
47.543757096886218
 30
0.0
  0
VERTEX
  5
58029
  8
0
 10
124.01766643240759
 20
47.592775839059748
 30
0.0
  0
VERTEX
  5
5802A
  8
0
 10
124.0473021223509
 20
47.641233502051932
 30
0.0
  0
VERTEX
  5
5802B
  8
0
 10
124.10882584184409
 20
47.736382313877009
 30
0.0
  0
VERTEX
  5
5802C
  8
0
 10
124.1731710758561
 20
47.829046342535833
 30
0.0
  0
VERTEX
  5
5802D
  8
0
 10
124.2401067623738
 20
47.919082162831486
 30
0.0
  0
VERTEX
  5
5802E
  8
0
 10
124.3093837109361
 20
48.006355211513103
 30
0.0
  0
VERTEX
  5
5802F
  8
0
 10
124.3807347961049
 20
48.090740469889788
 30
0.0
  0
VERTEX
  5
58030
  8
0
 10
124.417100226252
 20
48.13181432228032
 30
0.0
  0
VERTEX
  5
58031
  8
0
 10
124.4538768760999
 20
48.172124870621069
 30
0.0
  0
VERTEX
  5
58032
  8
0
 10
124.52851294578331
 20
48.250409191061181
 30
0.0
  0
VERTEX
  5
58033
  8
0
 10
124.6056308935586
 20
48.326757326144502
 30
0.0
  0
VERTEX
  5
58034
  8
0
 10
124.6870774628198
 20
48.40286458865944
 30
0.0
  0
VERTEX
  5
58035
  8
0
 10
124.77249742092209
 20
48.478150826875549
 30
0.0
  0
VERTEX
  5
58036
  8
0
 10
124.86144400663029
 20
48.552050467645358
 30
0.0
  0
VERTEX
  5
58037
  8
0
 10
124.90708645388131
 20
48.588319006387849
 30
0.0
  0
VERTEX
  5
58038
  8
0
 10
124.9534211345908
 20
48.62405494171184
 30
0.0
  0
VERTEX
  5
58039
  8
0
 10
125.0478923102969
 20
48.693717957430238
 30
0.0
  0
VERTEX
  5
5803A
  8
0
 10
125.1442882847079
 20
48.760657401507387
 30
0.0
  0
VERTEX
  5
5803B
  8
0
 10
125.2419965589736
 20
48.82454406640192
 30
0.0
  0
VERTEX
  5
5803C
  8
0
 10
125.3403566087887
 20
48.885096555069481
 30
0.0
  0
VERTEX
  5
5803D
  8
0
 10
125.4386684964371
 20
48.94208471026036
 30
0.0
  0
VERTEX
  5
5803E
  8
0
 10
125.48757906224949
 20
48.969184688513003
 30
0.0
  0
VERTEX
  5
5803F
  8
0
 10
125.53620176101209
 20
48.995331243212661
 30
0.0
  0
VERTEX
  5
58040
  8
0
 10
125.6325904756324
 20
49.044904384877043
 30
0.0
  0
VERTEX
  5
58041
  8
0
 10
125.730885130693
 20
49.092490573915029
 30
0.0
  0
VERTEX
  5
58042
  8
0
 10
125.7810090589431
 20
49.115647783392888
 30
0.0
  0
VERTEX
  5
58043
  8
0
 10
125.8317510737899
 20
49.138350640551273
 30
0.0
  0
VERTEX
  5
58044
  8
0
 10
125.93498695926171
 20
49.182308364429673
 30
0.0
  0
VERTEX
  5
58045
  8
0
 10
126.0403833649095
 20
49.224204805861227
 30
0.0
  0
VERTEX
  5
58046
  8
0
 10
126.0938246959373
 20
49.244335235306842
 30
0.0
  0
VERTEX
  5
58047
  8
0
 10
126.1477251811832
 20
49.263898823359909
 30
0.0
  0
VERTEX
  5
58048
  8
0
 10
126.2567929073127
 20
49.301266922606317
 30
0.0
  0
VERTEX
  5
58049
  8
0
 10
126.36735969989419
 20
49.336201715751201
 30
0.0
  0
VERTEX
  5
5804A
  8
0
 10
126.4791911420719
 20
49.368611706115303
 30
0.0
  0
VERTEX
  5
5804B
  8
0
 10
126.5920474644135
 20
49.398421815434112
 30
0.0
  0
VERTEX
  5
5804C
  8
0
 10
126.7056868914717
 20
49.425573921254397
 30
0.0
  0
VERTEX
  5
5804D
  8
0
 10
126.7627306408752
 20
49.438140949386302
 30
0.0
  0
VERTEX
  5
5804E
  8
0
 10
126.819885356456
 20
49.45003030635354
 30
0.0
  0
VERTEX
  5
5804F
  8
0
 10
126.9344025331863
 20
49.471764823336279
 30
0.0
  0
VERTEX
  5
58050
  8
0
 10
127.04898531195261
 20
49.490764892515699
 30
0.0
  0
VERTEX
  5
58051
  8
0
 10
127.1633776477516
 20
49.507033857103693
 30
0.0
  0
VERTEX
  5
58052
  8
0
 10
127.2773227700193
 20
49.520591186052798
 30
0.0
  0
VERTEX
  5
58053
  8
0
 10
127.3905647938834
 20
49.531472401657759
 30
0.0
  0
VERTEX
  5
58054
  8
0
 10
127.4468415697484
 20
49.5359248161202
 30
0.0
  0
VERTEX
  5
58055
  8
0
 10
127.5028454500647
 20
49.539728562927223
 30
0.0
  0
VERTEX
  5
58056
  8
0
 10
127.6139037282457
 20
49.545426370572841
 30
0.0
  0
VERTEX
  5
58057
  8
0
 10
127.7234781045042
 20
49.548648407012699
 30
0.0
  0
VERTEX
  5
58058
  8
0
 10
127.7776274620492
 20
49.54936115994883
 30
0.0
  0
SEQEND
  5
58059
  8
0
  0
POLYLINE
  5
573E8
  8
0
 10
127.7776274620493
 20
42.429111360988216
 30
0.0
 66
     1
 70
     8
  0
VERTEX
  8
0
  5
581E1
 10
127.778
 20
42.4291
 30
0.000000
  70
    32
  0
VERTEX
  8
0
  5
581E2
 10
127.865
 20
42.4295
 30
0.000000
  70
    32
  0
VERTEX
  8
0
  5
581E3
 10
127.952
 20
42.4321
 30
0.000000
  70
    32
  0
VERTEX
  8
0
  5
581E4
 10
128.039
 20
42.4368
 30
0.000000
  70
    32
  0
VERTEX
  8
0
  5
581E5
 10
128.127
 20
42.4437
 30
0.000000
  70
    32
  0
VERTEX
  8
0
  5
581E6
 10
128.213
 20
42.4528
 30
0.000000
  70
    32
  0
VERTEX
  8
0
  5
581E7
 10
128.300
 20
42.4640
 30
0.000000
  70
    32
  0
VERTEX
  8
0
  5
581E8
 10
128.386
 20
42.4773
 30
0.000000
  70
    32
  0
VERTEX
  8
0
  5
581E9
 10
128.472
 20
42.4928
 30
0.000000
  70
    32
  0
VERTEX
  8
0
  5
581EA
 10
128.558
 20
42.5104
 30
0.000000
  70
    32
  0
VERTEX
  8
0
  5
581EB
 10
128.643
 20
42.5301
 30
0.000000
  70
    32
  0
VERTEX
  8
0
  5
581EC
 10
128.728
 20
42.5519
 30
0.000000
  70
    32
  0
VERTEX
  8
0
  5
581ED
 10
128.812
 20
42.5759
 30
0.000000
  70
    32
  0
VERTEX
  8
0
  5
581EE
 10
128.895
 20
42.6019
 30
0.000000
  70
    32
  0
VERTEX
  8
0
  5
581EF
 10
128.978
 20
42.6299
 30
0.000000
  70
    32
  0
VERTEX
  8
0
  5
581F0
 10
129.060
 20
42.6600
 30
0.000000
  70
    32
  0
VERTEX
  8
0
  5
581F1
 10
129.141
 20
42.6922
 30
0.000000
  70
    32
  0
VERTEX
  8
0
  5
581F2
 10
129.221
 20
42.7263
 30
0.000000
  70
    32
  0
VERTEX
  8
0
  5
581F3
 10
129.301
 20
42.7624
 30
0.000000
  70
    32
  0
VERTEX
  8
0
  5
581F4
 10
129.380
 20
42.8005
 30
0.000000
  70
    32
  0
VERTEX
  8
0
  5
581F5
 10
129.457
 20
42.8405
 30
0.000000
  70
    32
  0
VERTEX
  8
0
  5
581F6
 10
129.534
 20
42.8824
 30
0.000000
  70
    32
  0
VERTEX
  8
0
  5
581F7
 10
129.610
 20
42.9263
 30
0.000000
  70
    32
  0
VERTEX
  8
0
  5
581F8
 10
129.684
 20
42.9719
 30
0.000000
  70
    32
  0
VERTEX
  8
0
  5
581F9
 10
129.758
 20
43.0195
 30
0.000000
  70
    32
  0
VERTEX
  8
0
  5
581FA
 10
129.830
 20
43.0688
 30
0.000000
  70
    32
  0
VERTEX
  8
0
  5
581FB
 10
129.901
 20
43.1199
 30
0.000000
  70
    32
  0
VERTEX
  8
0
  5
581FC
 10
129.971
 20
43.1728
 30
0.000000
  70
    32
  0
VERTEX
  8
0
  5
581FD
 10
130.039
 20
43.2273
 30
0.000000
  70
    32
  0
VERTEX
  8
0
  5
581FE
 10
130.106
 20
43.2836
 30
0.000000
  70
    32
  0
VERTEX
  8
0
  5
581FF
 10
130.172
 20
43.3415
 30
0.000000
  70
    32
  0
VERTEX
  8
0
  5
58200
 10
130.236
 20
43.4010
 30
0.000000
  70
    32
  0
VERTEX
  8
0
  5
58201
 10
130.299
 20
43.4620
 30
0.000000
  70
    32
  0
VERTEX
  8
0
  5
58202
 10
130.360
 20
43.5247
 30
0.000000
  70
    32
  0
VERTEX
  8
0
  5
58203
 10
130.420
 20
43.5888
 30
0.000000
  70
    32
  0
VERTEX
  8
0
  5
58204
 10
130.478
 20
43.6543
 30
0.000000
  70
    32
  0
VERTEX
  8
0
  5
58205
 10
130.534
 20
43.7213
 30
0.000000
  70
    32
  0
VERTEX
  8
0
  5
58206
 10
130.589
 20
43.7897
 30
0.000000
  70
    32
  0
VERTEX
  8
0
  5
58207
 10
130.642
 20
43.8594
 30
0.000000
  70
    32
  0
VERTEX
  8
0
  5
58208
 10
130.694
 20
43.9304
 30
0.000000
  70
    32
  0
VERTEX
  8
0
  5
58209
 10
130.743
 20
44.0027
 30
0.000000
  70
    32
  0
VERTEX
  8
0
  5
5820A
 10
130.791
 20
44.0762
 30
0.000000
  70
    32
  0
VERTEX
  8
0
  5
5820B
 10
130.837
 20
44.1508
 30
0.000000
  70
    32
  0
VERTEX
  8
0
  5
5820C
 10
130.881
 20
44.2265
 30
0.000000
  70
    32
  0
VERTEX
  8
0
  5
5820D
 10
130.924
 20
44.3034
 30
0.000000
  70
    32
  0
VERTEX
  8
0
  5
5820E
 10
130.964
 20
44.3812
 30
0.000000
  70
    32
  0
VERTEX
  8
0
  5
5820F
 10
131.003
 20
44.4600
 30
0.000000
  70
    32
  0
VERTEX
  8
0
  5
58210
 10
131.039
 20
44.5398
 30
0.000000
  70
    32
  0
VERTEX
  8
0
  5
58211
 10
131.074
 20
44.6204
 30
0.000000
  70
    32
  0
VERTEX
  8
0
  5
58212
 10
131.106
 20
44.7019
 30
0.000000
  70
    32
  0
VERTEX
  8
0
  5
58213
 10
131.137
 20
44.7842
 30
0.000000
  70
    32
  0
VERTEX
  8
0
  5
58214
 10
131.165
 20
44.8671
 30
0.000000
  70
    32
  0
VERTEX
  8
0
  5
58215
 10
131.192
 20
44.9508
 30
0.000000
  70
    32
  0
VERTEX
  8
0
  5
58216
 10
131.216
 20
45.0351
 30
0.000000
  70
    32
  0
VERTEX
  8
0
  5
58217
 10
131.239
 20
45.1200
 30
0.000000
  70
    32
  0
VERTEX
  8
0
  5
58218
 10
131.259
 20
45.2054
 30
0.000000
  70
    32
  0
VERTEX
  8
0
  5
58219
 10
131.277
 20
45.2913
 30
0.000000
  70
    32
  0
VERTEX
  8
0
  5
5821A
 10
131.293
 20
45.3776
 30
0.000000
  70
    32
  0
VERTEX
  8
0
  5
5821B
 10
131.307
 20
45.4643
 30
0.000000
  70
    32
  0
VERTEX
  8
0
  5
5821C
 10
131.319
 20
45.5513
 30
0.000000
  70
    32
  0
VERTEX
  8
0
  5
5821D
 10
131.329
 20
45.6386
 30
0.000000
  70
    32
  0
VERTEX
  8
0
  5
5821E
 10
131.336
 20
45.7260
 30
0.000000
  70
    32
  0
VERTEX
  8
0
  5
5821F
 10
131.341
 20
45.8137
 30
0.000000
  70
    32
  0
VERTEX
  8
0
  5
58220
 10
131.345
 20
45.9014
 30
0.000000
  70
    32
  0
VERTEX
  8
0
  5
58221
 10
131.346
 20
45.9892
 30
0.000000
  70
    32
  0
VERTEX
  8
0
  5
58222
 10
131.345
 20
46.0770
 30
0.000000
  70
    32
  0
VERTEX
  8
0
  5
58223
 10
131.341
 20
46.1648
 30
0.000000
  70
    32
  0
VERTEX
  8
0
  5
58224
 10
131.336
 20
46.2524
 30
0.000000
  70
    32
  0
VERTEX
  8
0
  5
58225
 10
131.329
 20
46.3399
 30
0.000000
  70
    32
  0
VERTEX
  8
0
  5
58226
 10
131.319
 20
46.4272
 30
0.000000
  70
    32
  0
VERTEX
  8
0
  5
58227
 10
131.307
 20
46.5142
 30
0.000000
  70
    32
  0
VERTEX
  8
0
  5
58228
 10
131.293
 20
46.6009
 30
0.000000
  70
    32
  0
VERTEX
  8
0
  5
58229
 10
131.277
 20
46.6872
 30
0.000000
  70
    32
  0
VERTEX
  8
0
  5
5822A
 10
131.259
 20
46.7731
 30
0.000000
  70
    32
  0
VERTEX
  8
0
  5
5822B
 10
131.239
 20
46.8585
 30
0.000000
  70
    32
  0
VERTEX
  8
0
  5
5822C
 10
131.216
 20
46.9434
 30
0.000000
  70
    32
  0
VERTEX
  8
0
  5
5822D
 10
131.192
 20
47.0277
 30
0.000000
  70
    32
  0
VERTEX
  8
0
  5
5822E
 10
131.165
 20
47.1113
 30
0.000000
  70
    32
  0
VERTEX
  8
0
  5
5822F
 10
131.137
 20
47.1943
 30
0.000000
  70
    32
  0
VERTEX
  8
0
  5
58230
 10
131.106
 20
47.2766
 30
0.000000
  70
    32
  0
VERTEX
  8
0
  5
58231
 10
131.074
 20
47.3580
 30
0.000000
  70
    32
  0
VERTEX
  8
0
  5
58232
 10
131.039
 20
47.4387
 30
0.000000
  70
    32
  0
VERTEX
  8
0
  5
58233
 10
131.003
 20
47.5184
 30
0.000000
  70
    32
  0
VERTEX
  8
0
  5
58234
 10
130.964
 20
47.5973
 30
0.000000
  70
    32
  0
VERTEX
  8
0
  5
58235
 10
130.924
 20
47.6751
 30
0.000000
  70
    32
  0
VERTEX
  8
0
  5
58236
 10
130.881
 20
47.7519
 30
0.000000
  70
    32
  0
VERTEX
  8
0
  5
58237
 10
130.837
 20
47.8277
 30
0.000000
  70
    32
  0
VERTEX
  8
0
  5
58238
 10
130.791
 20
47.9023
 30
0.000000
  70
    32
  0
VERTEX
  8
0
  5
58239
 10
130.743
 20
47.9758
 30
0.000000
  70
    32
  0
VERTEX
  8
0
  5
5823A
 10
130.694
 20
48.0480
 30
0.000000
  70
    32
  0
VERTEX
  8
0
  5
5823B
 10
130.642
 20
48.1191
 30
0.000000
  70
    32
  0
VERTEX
  8
0
  5
5823C
 10
130.589
 20
48.1888
 30
0.000000
  70
    32
  0
VERTEX
  8
0
  5
5823D
 10
130.534
 20
48.2571
 30
0.000000
  70
    32
  0
VERTEX
  8
0
  5
5823E
 10
130.478
 20
48.3241
 30
0.000000
  70
    32
  0
VERTEX
  8
0
  5
5823F
 10
130.420
 20
48.3897
 30
0.000000
  70
    32
  0
VERTEX
  8
0
  5
58240
 10
130.360
 20
48.4538
 30
0.000000
  70
    32
  0
VERTEX
  8
0
  5
58241
 10
130.299
 20
48.5164
 30
0.000000
  70
    32
  0
VERTEX
  8
0
  5
58242
 10
130.236
 20
48.5775
 30
0.000000
  70
    32
  0
VERTEX
  8
0
  5
58243
 10
130.172
 20
48.6370
 30
0.000000
  70
    32
  0
VERTEX
  8
0
  5
58244
 10
130.106
 20
48.6949
 30
0.000000
  70
    32
  0
VERTEX
  8
0
  5
58245
 10
130.039
 20
48.7511
 30
0.000000
  70
    32
  0
VERTEX
  8
0
  5
58246
 10
129.971
 20
48.8057
 30
0.000000
  70
    32
  0
VERTEX
  8
0
  5
58247
 10
129.901
 20
48.8586
 30
0.000000
  70
    32
  0
VERTEX
  8
0
  5
58248
 10
129.830
 20
48.9097
 30
0.000000
  70
    32
  0
VERTEX
  8
0
  5
58249
 10
129.758
 20
48.9590
 30
0.000000
  70
    32
  0
VERTEX
  8
0
  5
5824A
 10
129.684
 20
49.0065
 30
0.000000
  70
    32
  0
VERTEX
  8
0
  5
5824B
 10
129.610
 20
49.0522
 30
0.000000
  70
    32
  0
VERTEX
  8
0
  5
5824C
 10
129.534
 20
49.0960
 30
0.000000
  70
    32
  0
VERTEX
  8
0
  5
5824D
 10
129.457
 20
49.1380
 30
0.000000
  70
    32
  0
VERTEX
  8
0
  5
5824E
 10
129.380
 20
49.1780
 30
0.000000
  70
    32
  0
VERTEX
  8
0
  5
5824F
 10
129.301
 20
49.2161
 30
0.000000
  70
    32
  0
VERTEX
  8
0
  5
58250
 10
129.221
 20
49.2522
 30
0.000000
  70
    32
  0
VERTEX
  8
0
  5
58251
 10
129.141
 20
49.2863
 30
0.000000
  70
    32
  0
VERTEX
  8
0
  5
58252
 10
129.060
 20
49.3184
 30
0.000000
  70
    32
  0
VERTEX
  8
0
  5
58253
 10
128.978
 20
49.3485
 30
0.000000
  70
    32
  0
VERTEX
  8
0
  5
58254
 10
128.895
 20
49.3766
 30
0.000000
  70
    32
  0
VERTEX
  8
0
  5
58255
 10
128.812
 20
49.4026
 30
0.000000
  70
    32
  0
VERTEX
  8
0
  5
58256
 10
128.728
 20
49.4265
 30
0.000000
  70
    32
  0
VERTEX
  8
0
  5
58257
 10
128.643
 20
49.4484
 30
0.000000
  70
    32
  0
VERTEX
  8
0
  5
58258
 10
128.558
 20
49.4681
 30
0.000000
  70
    32
  0
VERTEX
  8
0
  5
58259
 10
128.472
 20
49.4857
 30
0.000000
  70
    32
  0
VERTEX
  8
0
  5
5825A
 10
128.386
 20
49.5012
 30
0.000000
  70
    32
  0
VERTEX
  8
0
  5
5825B
 10
128.300
 20
49.5145
 30
0.000000
  70
    32
  0
VERTEX
  8
0
  5
5825C
 10
128.213
 20
49.5257
 30
0.000000
  70
    32
  0
VERTEX
  8
0
  5
5825D
 10
128.127
 20
49.5348
 30
0.000000
  70
    32
  0
VERTEX
  8
0
  5
5825E
 10
128.039
 20
49.5417
 30
0.000000
  70
    32
  0
VERTEX
  8
0
  5
5825F
 10
127.952
 20
49.5464
 30
0.000000
  70
    32
  0
VERTEX
  8
0
  5
58260
 10
127.865
 20
49.5490
 30
0.000000
  70
    32
  0
VERTEX
  8
0
  5
58261
 10
127.778
 20
49.5494
 30
0.000000
  70
    32
  0
SEQEND
  8
0
  5
58262
  0
POLYLINE
  5
573EC
  8
0
 10
100.48367893086352
 20
49.549361159944354
 30
0.0
 66
     1
 70
     8
  0
VERTEX
  8
0
  5
58263
 10
100.484
 20
49.5494
 30
0.000000
  70
    32
  0
VERTEX
  8
0
  5
58264
 10
100.396
 20
49.5490
 30
0.000000
  70
    32
  0
VERTEX
  8
0
  5
58265
 10
100.309
 20
49.5464
 30
0.000000
  70
    32
  0
VERTEX
  8
0
  5
58266
 10
100.222
 20
49.5417
 30
0.000000
  70
    32
  0
VERTEX
  8
0
  5
58267
 10
100.135
 20
49.5348
 30
0.000000
  70
    32
  0
VERTEX
  8
0
  5
58268
 10
100.048
 20
49.5257
 30
0.000000
  70
    32
  0
VERTEX
  8
0
  5
58269
 10
99.9613
 20
49.5145
 30
0.000000
  70
    32
  0
VERTEX
  8
0
  5
5826A
 10
99.8750
 20
49.5012
 30
0.000000
  70
    32
  0
VERTEX
  8
0
  5
5826B
 10
99.7890
 20
49.4857
 30
0.000000
  70
    32
  0
VERTEX
  8
0
  5
5826C
 10
99.7035
 20
49.4681
 30
0.000000
  70
    32
  0
VERTEX
  8
0
  5
5826D
 10
99.6184
 20
49.4484
 30
0.000000
  70
    32
  0
VERTEX
  8
0
  5
5826E
 10
99.5338
 20
49.4265
 30
0.000000
  70
    32
  0
VERTEX
  8
0
  5
5826F
 10
99.4498
 20
49.4026
 30
0.000000
  70
    32
  0
VERTEX
  8
0
  5
58270
 10
99.3664
 20
49.3766
 30
0.000000
  70
    32
  0
VERTEX
  8
0
  5
58271
 10
99.2836
 20
49.3485
 30
0.000000
  70
    32
  0
VERTEX
  8
0
  5
58272
 10
99.2016
 20
49.3184
 30
0.000000
  70
    32
  0
VERTEX
  8
0
  5
58273
 10
99.1203
 20
49.2863
 30
0.000000
  70
    32
  0
VERTEX
  8
0
  5
58274
 10
99.0398
 20
49.2522
 30
0.000000
  70
    32
  0
VERTEX
  8
0
  5
58275
 10
98.9602
 20
49.2161
 30
0.000000
  70
    32
  0
VERTEX
  8
0
  5
58276
 10
98.8815
 20
49.1780
 30
0.000000
  70
    32
  0
VERTEX
  8
0
  5
58277
 10
98.8038
 20
49.1380
 30
0.000000
  70
    32
  0
VERTEX
  8
0
  5
58278
 10
98.7271
 20
49.0960
 30
0.000000
  70
    32
  0
VERTEX
  8
0
  5
58279
 10
98.6514
 20
49.0522
 30
0.000000
  70
    32
  0
VERTEX
  8
0
  5
5827A
 10
98.5768
 20
49.0065
 30
0.000000
  70
    32
  0
VERTEX
  8
0
  5
5827B
 10
98.5034
 20
48.9590
 30
0.000000
  70
    32
  0
VERTEX
  8
0
  5
5827C
 10
98.4312
 20
48.9097
 30
0.000000
  70
    32
  0
VERTEX
  8
0
  5
5827D
 10
98.3601
 20
48.8586
 30
0.000000
  70
    32
  0
VERTEX
  8
0
  5
5827E
 10
98.2904
 20
48.8057
 30
0.000000
  70
    32
  0
VERTEX
  8
0
  5
5827F
 10
98.2220
 20
48.7511
 30
0.000000
  70
    32
  0
VERTEX
  8
0
  5
58280
 10
98.1549
 20
48.6949
 30
0.000000
  70
    32
  0
VERTEX
  8
0
  5
58281
 10
98.0893
 20
48.6370
 30
0.000000
  70
    32
  0
VERTEX
  8
0
  5
58282
 10
98.0250
 20
48.5775
 30
0.000000
  70
    32
  0
VERTEX
  8
0
  5
58283
 10
97.9623
 20
48.5164
 30
0.000000
  70
    32
  0
VERTEX
  8
0
  5
58284
 10
97.9011
 20
48.4538
 30
0.000000
  70
    32
  0
VERTEX
  8
0
  5
58285
 10
97.8414
 20
48.3897
 30
0.000000
  70
    32
  0
VERTEX
  8
0
  5
58286
 10
97.7833
 20
48.3241
 30
0.000000
  70
    32
  0
VERTEX
  8
0
  5
58287
 10
97.7269
 20
48.2571
 30
0.000000
  70
    32
  0
VERTEX
  8
0
  5
58288
 10
97.6721
 20
48.1888
 30
0.000000
  70
    32
  0
VERTEX
  8
0
  5
58289
 10
97.6190
 20
48.1191
 30
0.000000
  70
    32
  0
VERTEX
  8
0
  5
5828A
 10
97.5676
 20
48.0480
 30
0.000000
  70
    32
  0
VERTEX
  8
0
  5
5828B
 10
97.5180
 20
47.9758
 30
0.000000
  70
    32
  0
VERTEX
  8
0
  5
5828C
 10
97.4701
 20
47.9023
 30
0.000000
  70
    32
  0
VERTEX
  8
0
  5
5828D
 10
97.4241
 20
47.8277
 30
0.000000
  70
    32
  0
VERTEX
  8
0
  5
5828E
 10
97.3800
 20
47.7519
 30
0.000000
  70
    32
  0
VERTEX
  8
0
  5
5828F
 10
97.3377
 20
47.6751
 30
0.000000
  70
    32
  0
VERTEX
  8
0
  5
58290
 10
97.2973
 20
47.5973
 30
0.000000
  70
    32
  0
VERTEX
  8
0
  5
58291
 10
97.2588
 20
47.5184
 30
0.000000
  70
    32
  0
VERTEX
  8
0
  5
58292
 10
97.2222
 20
47.4387
 30
0.000000
  70
    32
  0
VERTEX
  8
0
  5
58293
 10
97.1877
 20
47.3580
 30
0.000000
  70
    32
  0
VERTEX
  8
0
  5
58294
 10
97.1551
 20
47.2766
 30
0.000000
  70
    32
  0
VERTEX
  8
0
  5
58295
 10
97.1245
 20
47.1943
 30
0.000000
  70
    32
  0
VERTEX
  8
0
  5
58296
 10
97.0960
 20
47.1113
 30
0.000000
  70
    32
  0
VERTEX
  8
0
  5
58297
 10
97.0695
 20
47.0277
 30
0.000000
  70
    32
  0
VERTEX
  8
0
  5
58298
 10
97.0450
 20
46.9434
 30
0.000000
  70
    32
  0
VERTEX
  8
0
  5
58299
 10
97.0227
 20
46.8585
 30
0.000000
  70
    32
  0
VERTEX
  8
0
  5
5829A
 10
97.0024
 20
46.7731
 30
0.000000
  70
    32
  0
VERTEX
  8
0
  5
5829B
 10
96.9842
 20
46.6872
 30
0.000000
  70
    32
  0
VERTEX
  8
0
  5
5829C
 10
96.9682
 20
46.6009
 30
0.000000
  70
    32
  0
VERTEX
  8
0
  5
5829D
 10
96.9542
 20
46.5142
 30
0.000000
  70
    32
  0
VERTEX
  8
0
  5
5829E
 10
96.9424
 20
46.4272
 30
0.000000
  70
    32
  0
VERTEX
  8
0
  5
5829F
 10
96.9327
 20
46.3399
 30
0.000000
  70
    32
  0
VERTEX
  8
0
  5
582A0
 10
96.9252
 20
46.2524
 30
0.000000
  70
    32
  0
VERTEX
  8
0
  5
582A1
 10
96.9198
 20
46.1648
 30
0.000000
  70
    32
  0
VERTEX
  8
0
  5
582A2
 10
96.9166
 20
46.0770
 30
0.000000
  70
    32
  0
VERTEX
  8
0
  5
582A3
 10
96.9155
 20
45.9892
 30
0.000000
  70
    32
  0
VERTEX
  8
0
  5
582A4
 10
96.9166
 20
45.9014
 30
0.000000
  70
    32
  0
VERTEX
  8
0
  5
582A5
 10
96.9198
 20
45.8137
 30
0.000000
  70
    32
  0
VERTEX
  8
0
  5
582A6
 10
96.9252
 20
45.7260
 30
0.000000
  70
    32
  0
VERTEX
  8
0
  5
582A7
 10
96.9327
 20
45.6386
 30
0.000000
  70
    32
  0
VERTEX
  8
0
  5
582A8
 10
96.9424
 20
45.5513
 30
0.000000
  70
    32
  0
VERTEX
  8
0
  5
582A9
 10
96.9542
 20
45.4643
 30
0.000000
  70
    32
  0
VERTEX
  8
0
  5
582AA
 10
96.9682
 20
45.3776
 30
0.000000
  70
    32
  0
VERTEX
  8
0
  5
582AB
 10
96.9842
 20
45.2913
 30
0.000000
  70
    32
  0
VERTEX
  8
0
  5
582AC
 10
97.0024
 20
45.2054
 30
0.000000
  70
    32
  0
VERTEX
  8
0
  5
582AD
 10
97.0227
 20
45.1200
 30
0.000000
  70
    32
  0
VERTEX
  8
0
  5
582AE
 10
97.0450
 20
45.0351
 30
0.000000
  70
    32
  0
VERTEX
  8
0
  5
582AF
 10
97.0695
 20
44.9508
 30
0.000000
  70
    32
  0
VERTEX
  8
0
  5
582B0
 10
97.0960
 20
44.8671
 30
0.000000
  70
    32
  0
VERTEX
  8
0
  5
582B1
 10
97.1245
 20
44.7842
 30
0.000000
  70
    32
  0
VERTEX
  8
0
  5
582B2
 10
97.1551
 20
44.7019
 30
0.000000
  70
    32
  0
VERTEX
  8
0
  5
582B3
 10
97.1877
 20
44.6204
 30
0.000000
  70
    32
  0
VERTEX
  8
0
  5
582B4
 10
97.2222
 20
44.5398
 30
0.000000
  70
    32
  0
VERTEX
  8
0
  5
582B5
 10
97.2588
 20
44.4600
 30
0.000000
  70
    32
  0
VERTEX
  8
0
  5
582B6
 10
97.2973
 20
44.3812
 30
0.000000
  70
    32
  0
VERTEX
  8
0
  5
582B7
 10
97.3377
 20
44.3034
 30
0.000000
  70
    32
  0
VERTEX
  8
0
  5
582B8
 10
97.3800
 20
44.2265
 30
0.000000
  70
    32
  0
VERTEX
  8
0
  5
582B9
 10
97.4241
 20
44.1508
 30
0.000000
  70
    32
  0
VERTEX
  8
0
  5
582BA
 10
97.4701
 20
44.0762
 30
0.000000
  70
    32
  0
VERTEX
  8
0
  5
582BB
 10
97.5180
 20
44.0027
 30
0.000000
  70
    32
  0
VERTEX
  8
0
  5
582BC
 10
97.5676
 20
43.9304
 30
0.000000
  70
    32
  0
VERTEX
  8
0
  5
582BD
 10
97.6190
 20
43.8594
 30
0.000000
  70
    32
  0
VERTEX
  8
0
  5
582BE
 10
97.6721
 20
43.7897
 30
0.000000
  70
    32
  0
VERTEX
  8
0
  5
582BF
 10
97.7269
 20
43.7213
 30
0.000000
  70
    32
  0
VERTEX
  8
0
  5
582C0
 10
97.7833
 20
43.6543
 30
0.000000
  70
    32
  0
VERTEX
  8
0
  5
582C1
 10
97.8414
 20
43.5888
 30
0.000000
  70
    32
  0
VERTEX
  8
0
  5
582C2
 10
97.9011
 20
43.5247
 30
0.000000
  70
    32
  0
VERTEX
  8
0
  5
582C3
 10
97.9623
 20
43.4620
 30
0.000000
  70
    32
  0
VERTEX
  8
0
  5
582C4
 10
98.0250
 20
43.4010
 30
0.000000
  70
    32
  0
VERTEX
  8
0
  5
582C5
 10
98.0893
 20
43.3415
 30
0.000000
  70
    32
  0
VERTEX
  8
0
  5
582C6
 10
98.1549
 20
43.2836
 30
0.000000
  70
    32
  0
VERTEX
  8
0
  5
582C7
 10
98.2220
 20
43.2273
 30
0.000000
  70
    32
  0
VERTEX
  8
0
  5
582C8
 10
98.2904
 20
43.1728
 30
0.000000
  70
    32
  0
VERTEX
  8
0
  5
582C9
 10
98.3601
 20
43.1199
 30
0.000000
  70
    32
  0
VERTEX
  8
0
  5
582CA
 10
98.4312
 20
43.0688
 30
0.000000
  70
    32
  0
VERTEX
  8
0
  5
582CB
 10
98.5034
 20
43.0195
 30
0.000000
  70
    32
  0
VERTEX
  8
0
  5
582CC
 10
98.5768
 20
42.9719
 30
0.000000
  70
    32
  0
VERTEX
  8
0
  5
582CD
 10
98.6514
 20
42.9263
 30
0.000000
  70
    32
  0
VERTEX
  8
0
  5
582CE
 10
98.7271
 20
42.8824
 30
0.000000
  70
    32
  0
VERTEX
  8
0
  5
582CF
 10
98.8038
 20
42.8405
 30
0.000000
  70
    32
  0
VERTEX
  8
0
  5
582D0
 10
98.8815
 20
42.8005
 30
0.000000
  70
    32
  0
VERTEX
  8
0
  5
582D1
 10
98.9602
 20
42.7624
 30
0.000000
  70
    32
  0
VERTEX
  8
0
  5
582D2
 10
99.0398
 20
42.7263
 30
0.000000
  70
    32
  0
VERTEX
  8
0
  5
582D3
 10
99.1203
 20
42.6922
 30
0.000000
  70
    32
  0
VERTEX
  8
0
  5
582D4
 10
99.2016
 20
42.6600
 30
0.000000
  70
    32
  0
VERTEX
  8
0
  5
582D5
 10
99.2836
 20
42.6299
 30
0.000000
  70
    32
  0
VERTEX
  8
0
  5
582D6
 10
99.3664
 20
42.6019
 30
0.000000
  70
    32
  0
VERTEX
  8
0
  5
582D7
 10
99.4498
 20
42.5759
 30
0.000000
  70
    32
  0
VERTEX
  8
0
  5
582D8
 10
99.5338
 20
42.5519
 30
0.000000
  70
    32
  0
VERTEX
  8
0
  5
582D9
 10
99.6184
 20
42.5301
 30
0.000000
  70
    32
  0
VERTEX
  8
0
  5
582DA
 10
99.7035
 20
42.5104
 30
0.000000
  70
    32
  0
VERTEX
  8
0
  5
582DB
 10
99.7890
 20
42.4928
 30
0.000000
  70
    32
  0
VERTEX
  8
0
  5
582DC
 10
99.8750
 20
42.4773
 30
0.000000
  70
    32
  0
VERTEX
  8
0
  5
582DD
 10
99.9613
 20
42.4640
 30
0.000000
  70
    32
  0
VERTEX
  8
0
  5
582DE
 10
100.048
 20
42.4528
 30
0.000000
  70
    32
  0
VERTEX
  8
0
  5
582DF
 10
100.135
 20
42.4437
 30
0.000000
  70
    32
  0
VERTEX
  8
0
  5
582E0
 10
100.222
 20
42.4368
 30
0.000000
  70
    32
  0
VERTEX
  8
0
  5
582E1
 10
100.309
 20
42.4321
 30
0.000000
  70
    32
  0
VERTEX
  8
0
  5
582E2
 10
100.396
 20
42.4295
 30
0.000000
  70
    32
  0
VERTEX
  8
0
  5
582E3
 10
100.484
 20
42.4291
 30
0.000000
  70
    32
  0
SEQEND
  8
0
  5
582E4
  0
POLYLINE
  5
573ED
  8
0
 66
     1
 10
0.0
 20
0.0
 30
0.0
  0
VERTEX
  5
5805A
  8
0
 10
100.4836789308635
 20
49.549361159948887
 30
0.0
  0
VERTEX
  5
5805B
  8
0
 10
100.53782828840851
 20
49.548648407012699
 30
0.0
  0
VERTEX
  5
5805C
  8
0
 10
100.6474026646671
 20
49.545426370572841
 30
0.0
  0
VERTEX
  5
5805D
  8
0
 10
100.758460942848
 20
49.539728562927223
 30
0.0
  0
VERTEX
  5
5805E
  8
0
 10
100.8144648231643
 20
49.5359248161202
 30
0.0
  0
VERTEX
  5
5805F
  8
0
 10
100.8707415990293
 20
49.531472401657759
 30
0.0
  0
VERTEX
  5
58060
  8
0
 10
100.9839836228934
 20
49.520591186052847
 30
0.0
  0
VERTEX
  5
58061
  8
0
 10
101.0979287451611
 20
49.507033857103693
 30
0.0
  0
VERTEX
  5
58062
  8
0
 10
101.21232108096019
 20
49.490764892515699
 30
0.0
  0
VERTEX
  5
58063
  8
0
 10
101.3269038597265
 20
49.471764823336279
 30
0.0
  0
VERTEX
  5
58064
  8
0
 10
101.4414210364567
 20
49.45003030635354
 30
0.0
  0
VERTEX
  5
58065
  8
0
 10
101.4985757520376
 20
49.438140949386302
 30
0.0
  0
VERTEX
  5
58066
  8
0
 10
101.555619501441
 20
49.425573921254397
 30
0.0
  0
VERTEX
  5
58067
  8
0
 10
101.6692589284992
 20
49.398421815434112
 30
0.0
  0
VERTEX
  5
58068
  8
0
 10
101.7821152508407
 20
49.368611706115303
 30
0.0
  0
VERTEX
  5
58069
  8
0
 10
101.89394669301851
 20
49.336201715751201
 30
0.0
  0
VERTEX
  5
5806A
  8
0
 10
102.0045134856
 20
49.301266922606317
 30
0.0
  0
VERTEX
  5
5806B
  8
0
 10
102.1135812117295
 20
49.263898823359959
 30
0.0
  0
VERTEX
  5
5806C
  8
0
 10
102.1674816969754
 20
49.244335235306842
 30
0.0
  0
VERTEX
  5
5806D
  8
0
 10
102.2209230280032
 20
49.224204805861291
 30
0.0
  0
VERTEX
  5
5806E
  8
0
 10
102.32631943365099
 20
49.182308364429673
 30
0.0
  0
VERTEX
  5
5806F
  8
0
 10
102.4295553191228
 20
49.138350640551323
 30
0.0
  0
VERTEX
  5
58070
  8
0
 10
102.4802973339696
 20
49.115647783392888
 30
0.0
  0
VERTEX
  5
58071
  8
0
 10
102.5304212622197
 20
49.092490573915093
 30
0.0
  0
VERTEX
  5
58072
  8
0
 10
102.6287159172803
 20
49.044904384877043
 30
0.0
  0
VERTEX
  5
58073
  8
0
 10
102.72510463190061
 20
48.995331243212661
 30
0.0
  0
VERTEX
  5
58074
  8
0
 10
102.77372733066321
 20
48.969184688513003
 30
0.0
  0
VERTEX
  5
58075
  8
0
 10
102.8226378964756
 20
48.94208471026036
 30
0.0
  0
VERTEX
  5
58076
  8
0
 10
102.92094978412401
 20
48.885096555069481
 30
0.0
  0
VERTEX
  5
58077
  8
0
 10
103.019309833939
 20
48.824544066401977
 30
0.0
  0
VERTEX
  5
58078
  8
0
 10
103.1170181082049
 20
48.760657401507387
 30
0.0
  0
VERTEX
  5
58079
  8
0
 10
103.2134140826158
 20
48.693717957430287
 30
0.0
  0
VERTEX
  5
5807A
  8
0
 10
103.3078852583219
 20
48.62405494171184
 30
0.0
  0
VERTEX
  5
5807B
  8
0
 10
103.3542199390314
 20
48.588319006387898
 30
0.0
  0
VERTEX
  5
5807C
  8
0
 10
103.39986238628251
 20
48.552050467645358
 30
0.0
  0
VERTEX
  5
5807D
  8
0
 10
103.48880897199059
 20
48.478150826875549
 30
0.0
  0
VERTEX
  5
5807E
  8
0
 10
103.5742289300929
 20
48.40286458865944
 30
0.0
  0
VERTEX
  5
5807F
  8
0
 10
103.6556754993541
 20
48.326757326144502
 30
0.0
  0
VERTEX
  5
58080
  8
0
 10
103.7327934471294
 20
48.250409191061181
 30
0.0
  0
VERTEX
  5
58081
  8
0
 10
103.8074295168128
 20
48.172124870621069
 30
0.0
  0
VERTEX
  5
58082
  8
0
 10
103.8442061666608
 20
48.13181432228032
 30
0.0
  0
VERTEX
  5
58083
  8
0
 10
103.8805715968079
 20
48.090740469889788
 30
0.0
  0
VERTEX
  5
58084
  8
0
 10
103.9519226819766
 20
48.006355211513103
 30
0.0
  0
VERTEX
  5
58085
  8
0
 10
104.0211996305389
 20
47.919082162831486
 30
0.0
  0
VERTEX
  5
58086
  8
0
 10
104.0881353170566
 20
47.829046342535833
 30
0.0
  0
VERTEX
  5
58087
  8
0
 10
104.15248055106861
 20
47.736382313877073
 30
0.0
  0
VERTEX
  5
58088
  8
0
 10
104.2140042705618
 20
47.641233502051932
 30
0.0
  0
VERTEX
  5
58089
  8
0
 10
104.24363996050511
 20
47.592775839059748
 30
0.0
  0
VERTEX
  5
5808A
  8
0
 10
104.272490411985
 20
47.543757096886281
 30
0.0
  0
VERTEX
  5
5808B
  8
0
 10
104.32773853056371
 20
47.444124595213793
 30
0.0
  0
VERTEX
  5
5808C
  8
0
 10
104.3795660797611
 20
47.342519311963542
 30
0.0
  0
VERTEX
  5
5808D
  8
0
 10
104.42781033644169
 20
47.239133339675043
 30
0.0
  0
VERTEX
  5
5808E
  8
0
 10
104.4723387593816
 20
47.13414190743913
 30
0.0
  0
VERTEX
  5
5808F
  8
0
 10
104.51304257177441
 20
47.027706916216111
 30
0.0
  0
VERTEX
  5
58090
  8
0
 10
104.5319248275962
 20
46.974015343215157
 30
0.0
  0
VERTEX
  5
58091
  8
0
 10
104.5498107690787
 20
46.9200453798071
 30
0.0
  0
VERTEX
  5
58092
  8
0
 10
104.58255206006341
 20
46.811386908365819
 30
0.0
  0
VERTEX
  5
58093
  8
0
 10
104.61119732698241
 20
46.701968826955408
 30
0.0
  0
VERTEX
  5
58094
  8
0
 10
104.6357009332075
 20
46.592031904725609
 30
0.0
  0
VERTEX
  5
58095
  8
0
 10
104.6560410347428
 20
46.481817109187553
 30
0.0
  0
VERTEX
  5
58096
  8
0
 10
104.6722181144788
 20
46.371571927094521
 30
0.0
  0
VERTEX
  5
58097
  8
0
 10
104.6787518262376
 20
46.316518180132668
 30
0.0
  0
VERTEX
  5
58098
  8
0
 10
104.684255354413
 20
46.261554054901687
 30
0.0
  0
VERTEX
  5
58099
  8
0
 10
104.6922003834066
 20
46.152027210747967
 30
0.0
  0
VERTEX
  5
5809A
  8
0
 10
104.69612623110061
 20
46.043256317686087
 30
0.0
  0
VERTEX
  5
5809B
  8
0
 10
104.69661175736459
 20
45.989236260468537
 30
0.0
  0
VERTEX
  5
5809C
  8
0
 10
104.69612623110061
 20
45.935216203251002
 30
0.0
  0
VERTEX
  5
5809D
  8
0
 10
104.6922003834066
 20
45.826445310189143
 30
0.0
  0
VERTEX
  5
5809E
  8
0
 10
104.684255354413
 20
45.716918466035366
 30
0.0
  0
VERTEX
  5
5809F
  8
0
 10
104.6787518262376
 20
45.661954340804378
 30
0.0
  0
VERTEX
  5
580A0
  8
0
 10
104.6722181144788
 20
45.60690059384256
 30
0.0
  0
VERTEX
  5
580A1
  8
0
 10
104.6560410347428
 20
45.496655411749572
 30
0.0
  0
VERTEX
  5
580A2
  8
0
 10
104.6357009332075
 20
45.386440616211473
 30
0.0
  0
VERTEX
  5
580A3
  8
0
 10
104.61119732698241
 20
45.276503693981709
 30
0.0
  0
VERTEX
  5
580A4
  8
0
 10
104.58255206006341
 20
45.167085612571242
 30
0.0
  0
VERTEX
  5
580A5
  8
0
 10
104.5498107690787
 20
45.058427141129982
 30
0.0
  0
VERTEX
  5
580A6
  8
0
 10
104.5319248275962
 20
45.00445717772191
 30
0.0
  0
VERTEX
  5
580A7
  8
0
 10
104.51304257177441
 20
44.950765604720971
 30
0.0
  0
VERTEX
  5
580A8
  8
0
 10
104.4723387593816
 20
44.844330613497988
 30
0.0
  0
VERTEX
  5
580A9
  8
0
 10
104.42781033644169
 20
44.739339181262011
 30
0.0
  0
VERTEX
  5
580AA
  8
0
 10
104.3795660797611
 20
44.63595320897354
 30
0.0
  0
VERTEX
  5
580AB
  8
0
 10
104.32773853056371
 20
44.53434792572326
 30
0.0
  0
VERTEX
  5
580AC
  8
0
 10
104.272490411985
 20
44.434715424050843
 30
0.0
  0
VERTEX
  5
580AD
  8
0
 10
104.24363996050511
 20
44.385696681877327
 30
0.0
  0
VERTEX
  5
580AE
  8
0
 10
104.2140042705618
 20
44.33723901888515
 30
0.0
  0
VERTEX
  5
580AF
  8
0
 10
104.15248055106861
 20
44.242090207060009
 30
0.0
  0
VERTEX
  5
580B0
  8
0
 10
104.0881353170566
 20
44.149426178401249
 30
0.0
  0
VERTEX
  5
580B1
  8
0
 10
104.0211996305389
 20
44.05939035810556
 30
0.0
  0
VERTEX
  5
580B2
  8
0
 10
103.9519226819766
 20
43.972117309423993
 30
0.0
  0
VERTEX
  5
580B3
  8
0
 10
103.8805715968079
 20
43.887732051047259
 30
0.0
  0
VERTEX
  5
580B4
  8
0
 10
103.8442061666608
 20
43.846658198656762
 30
0.0
  0
VERTEX
  5
580B5
  8
0
 10
103.8074295168128
 20
43.806347650316013
 30
0.0
  0
VERTEX
  5
580B6
  8
0
 10
103.7327934471294
 20
43.72806332987593
 30
0.0
  0
VERTEX
  5
580B7
  8
0
 10
103.6556754993541
 20
43.65171519479258
 30
0.0
  0
VERTEX
  5
580B8
  8
0
 10
103.574228930093
 20
43.575607932277642
 30
0.0
  0
VERTEX
  5
580B9
  8
0
 10
103.48880897199059
 20
43.50032169406154
 30
0.0
  0
VERTEX
  5
580BA
  8
0
 10
103.39986238628251
 20
43.426422053291716
 30
0.0
  0
VERTEX
  5
580BB
  8
0
 10
103.3542199390314
 20
43.390153514549212
 30
0.0
  0
VERTEX
  5
580BC
  8
0
 10
103.3078852583219
 20
43.354417579225213
 30
0.0
  0
VERTEX
  5
580BD
  8
0
 10
103.2134140826158
 20
43.284754563506823
 30
0.0
  0
VERTEX
  5
580BE
  8
0
 10
103.1170181082049
 20
43.217815119429702
 30
0.0
  0
VERTEX
  5
580BF
  8
0
 10
103.019309833939
 20
43.153928454535098
 30
0.0
  0
VERTEX
  5
580C0
  8
0
 10
102.92094978412401
 20
43.093375965867551
 30
0.0
  0
VERTEX
  5
580C1
  8
0
 10
102.8226378964756
 20
43.036387810676729
 30
0.0
  0
VERTEX
  5
580C2
  8
0
 10
102.77372733066321
 20
43.009287832424093
 30
0.0
  0
VERTEX
  5
580C3
  8
0
 10
102.72510463190061
 20
42.983141277724421
 30
0.0
  0
VERTEX
  5
580C4
  8
0
 10
102.6287159172803
 20
42.933568136060039
 30
0.0
  0
VERTEX
  5
580C5
  8
0
 10
102.5304212622197
 20
42.885981947022003
 30
0.0
  0
VERTEX
  5
580C6
  8
0
 10
102.4802973339696
 20
42.862824737544202
 30
0.0
  0
VERTEX
  5
580C7
  8
0
 10
102.4295553191228
 20
42.840121880385759
 30
0.0
  0
VERTEX
  5
580C8
  8
0
 10
102.32631943365099
 20
42.79616415650738
 30
0.0
  0
VERTEX
  5
580C9
  8
0
 10
102.2209230280032
 20
42.754267715075819
 30
0.0
  0
VERTEX
  5
580CA
  8
0
 10
102.1674816969754
 20
42.734137285630247
 30
0.0
  0
VERTEX
  5
580CB
  8
0
 10
102.1135812117295
 20
42.714573697577123
 30
0.0
  0
VERTEX
  5
580CC
  8
0
 10
102.0045134856
 20
42.677205598330772
 30
0.0
  0
VERTEX
  5
580CD
  8
0
 10
101.89394669301851
 20
42.642270805185888
 30
0.0
  0
VERTEX
  5
580CE
  8
0
 10
101.7821152508407
 20
42.609860814821751
 30
0.0
  0
VERTEX
  5
580CF
  8
0
 10
101.6692589284992
 20
42.580050705502941
 30
0.0
  0
VERTEX
  5
580D0
  8
0
 10
101.555619501441
 20
42.552898599682692
 30
0.0
  0
VERTEX
  5
580D1
  8
0
 10
101.4985757520376
 20
42.54033157155078
 30
0.0
  0
VERTEX
  5
580D2
  8
0
 10
101.4414210364567
 20
42.528442214583549
 30
0.0
  0
VERTEX
  5
580D3
  8
0
 10
101.3269038597265
 20
42.506707697600802
 30
0.0
  0
VERTEX
  5
580D4
  8
0
 10
101.21232108096019
 20
42.487707628421362
 30
0.0
  0
VERTEX
  5
580D5
  8
0
 10
101.0979287451611
 20
42.471438663833418
 30
0.0
  0
VERTEX
  5
580D6
  8
0
 10
100.9839836228934
 20
42.457881334884227
 30
0.0
  0
VERTEX
  5
580D7
  8
0
 10
100.8707415990293
 20
42.447000119279288
 30
0.0
  0
VERTEX
  5
580D8
  8
0
 10
100.8144648231643
 20
42.44254770481686
 30
0.0
  0
VERTEX
  5
580D9
  8
0
 10
100.758460942848
 20
42.438743958009859
 30
0.0
  0
VERTEX
  5
580DA
  8
0
 10
100.6474026646671
 20
42.433046150364241
 30
0.0
  0
VERTEX
  5
580DB
  8
0
 10
100.53782828840851
 20
42.429824113924411
 30
0.0
  0
VERTEX
  5
580DC
  8
0
 10
100.4836789308635
 20
42.429111360988202
 30
0.0
  0
SEQEND
  5
580DD
  8
0
  0
POLYLINE
  5
573EE
  8
0
 66
     1
 10
0.0
 20
0.0
 30
0.0
  0
VERTEX
  5
580DE
  8
0
 10
127.1129892981069
 20
51.432703094834089
 30
0.0
  0
VERTEX
  5
580DF
  8
0
 10
126.852423185726
 20
51.364289687425533
 30
0.0
  0
VERTEX
  5
580E0
  8
0
 10
126.3289177240157
 20
51.231306073133283
 30
0.0
  0
VERTEX
  5
580E1
  8
0
 10
125.8032153628404
 20
51.103725758853159
 30
0.0
  0
VERTEX
  5
580E2
  8
0
 10
125.5399102930283
 20
51.042056213761732
 30
0.0
  0
VERTEX
  5
580E3
  8
0
 10
125.27650213081439
 20
50.98184480165321
 30
0.0
  0
VERTEX
  5
580E4
  8
0
 10
124.74997586880239
 20
50.865910419724173
 30
0.0
  0
VERTEX
  5
580E5
  8
0
 10
124.2248267121241
 20
50.756117183485799
 30
0.0
  0
VERTEX
  5
580E6
  8
0
 10
123.7019933468894
 20
50.6525615143197
 30
0.0
  0
VERTEX
  5
580E7
  8
0
 10
123.1824300485456
 20
50.555305013618288
 30
0.0
  0
VERTEX
  5
580E8
  8
0
 10
122.66732024498261
 20
50.464411167100309
 30
0.0
  0
VERTEX
  5
580E9
  8
0
 10
122.41180647166399
 20
50.421357707920777
 30
0.0
  0
VERTEX
  5
580EA
  8
0
 10
122.1578498341912
 20
50.379898019003861
 30
0.0
  0
VERTEX
  5
580EB
  8
0
 10
121.655186442313
 20
50.301736558025702
 30
0.0
  0
VERTEX
  5
580EC
  8
0
 10
121.16045936474779
 20
50.229850640215197
 30
0.0
  0
VERTEX
  5
580ED
  8
0
 10
120.6747436283117
 20
50.164118756475311
 30
0.0
  0
VERTEX
  5
580EE
  8
0
 10
120.1990818313531
 20
50.104381324248088
 30
0.0
  0
VERTEX
  5
580EF
  8
0
 10
119.73450760546901
 20
50.050446896533231
 30
0.0
  0
VERTEX
  5
580F0
  8
0
 10
119.50669453176479
 20
50.025587430776113
 30
0.0
  0
VERTEX
  5
580F1
  8
0
 10
119.2820275127914
 20
50.00209286786378
 30
0.0
  0
VERTEX
  5
580F2
  8
0
 10
118.8425998727671
 20
49.959066970895371
 30
0.0
  0
VERTEX
  5
580F3
  8
0
 10
118.4171155197597
 20
49.921090060089909
 30
0.0
  0
VERTEX
  5
580F4
  8
0
 10
118.2092665336162
 20
49.903853511311347
 30
0.0
  0
SEQEND
  5
580F5
  8
0
  0
POLYLINE
  5
573EF
  8
0
 66
     1
 10
0.0
 20
0.0
 30
0.0
  0
VERTEX
  5
580F6
  8
0
 10
118.2092665336162
 20
49.903853511311347
 30
0.0
  0
VERTEX
  5
580F7
  8
0
 10
118.1771733123669
 20
49.901268925167528
 30
0.0
  0
VERTEX
  5
580F8
  8
0
 10
118.1124471921777
 20
49.896118799377057
 30
0.0
  0
VERTEX
  5
580F9
  8
0
 10
118.04701287141491
 20
49.890997255785457
 30
0.0
  0
VERTEX
  5
580FA
  8
0
 10
118.0140344884266
 20
49.888448394376503
 30
0.0
  0
VERTEX
  5
580FB
  8
0
 10
117.9808843232281
 20
49.885908106800343
 30
0.0
  0
VERTEX
  5
580FC
  8
0
 10
117.91407586983399
 20
49.880855145318492
 30
0.0
  0
VERTEX
  5
580FD
  8
0
 10
117.846601941633
 20
49.875842122790402
 30
0.0
  0
VERTEX
  5
580FE
  8
0
 10
117.778476755569
 20
49.870872723387038
 30
0.0
  0
VERTEX
  5
580FF
  8
0
 10
117.70971522353329
 20
49.865950628039059
 30
0.0
  0
VERTEX
  5
58100
  8
0
 10
117.64033274207981
 20
49.861079493264469
 30
0.0
  0
VERTEX
  5
58101
  8
0
 10
117.6054135782761
 20
49.858664170050808
 30
0.0
  0
VERTEX
  5
58102
  8
0
 10
117.5703451495386
 20
49.856262943077809
 30
0.0
  0
VERTEX
  5
58103
  8
0
 10
117.4997686989789
 20
49.851504562282912
 30
0.0
  0
VERTEX
  5
58104
  8
0
 10
117.4286200303205
 20
49.846807889915738
 30
0.0
  0
VERTEX
  5
58105
  8
0
 10
117.3569161415714
 20
49.842176412855899
 30
0.0
  0
VERTEX
  5
58106
  8
0
 10
117.2846743591635
 20
49.837613559623712
 30
0.0
  0
VERTEX
  5
58107
  8
0
 10
117.2119123073582
 20
49.833122694381132
 30
0.0
  0
VERTEX
  5
58108
  8
0
 10
117.1753417617055
 20
49.83090528953187
 30
0.0
  0
VERTEX
  5
58109
  8
0
 10
117.1386478766908
 20
49.828707111154188
 30
0.0
  0
VERTEX
  5
5810A
  8
0
 10
117.06489919142351
 20
49.824370028294368
 30
0.0
  0
VERTEX
  5
5810B
  8
0
 10
116.9906845759751
 20
49.820114583196869
 30
0.0
  0
VERTEX
  5
5810C
  8
0
 10
116.9534083170452
 20
49.818018431870321
 30
0.0
  0
VERTEX
  5
5810D
  8
0
 10
116.9160225202954
 20
49.815943827293381
 30
0.0
  0
VERTEX
  5
5810E
  8
0
 10
116.8409316441534
 20
49.811860721337091
 30
0.0
  0
VERTEX
  5
5810F
  8
0
 10
116.7654306603107
 20
49.807868130998152
 30
0.0
  0
VERTEX
  5
58110
  8
0
 10
116.7275322418464
 20
49.805906647697391
 30
0.0
  0
VERTEX
  5
58111
  8
0
 10
116.6895374896436
 20
49.803968779910178
 30
0.0
  0
VERTEX
  5
58112
  8
0
 10
116.61326012976549
 20
49.800164805788199
 30
0.0
  0
VERTEX
  5
58113
  8
0
 10
116.5366142546734
 20
49.796458672197502
 30
0.0
  0
VERTEX
  5
58114
  8
0
 10
116.45961918937969
 20
49.792852923973392
 30
0.0
  0
VERTEX
  5
58115
  8
0
 10
116.3822946245995
 20
49.789350011890292
 30
0.0
  0
VERTEX
  5
58116
  8
0
 10
116.30466058606871
 20
49.785952287320242
 30
0.0
  0
VERTEX
  5
58117
  8
0
 10
116.2657338561113
 20
49.784293576729283
 30
0.0
  0
VERTEX
  5
58118
  8
0
 10
116.22673740326481
 20
49.782661997192797
 30
0.0
  0
VERTEX
  5
58119
  8
0
 10
116.1485456775229
 20
49.779481279270669
 30
0.0
  0
VERTEX
  5
5811A
  8
0
 10
116.0701062495354
 20
49.776412157754983
 30
0.0
  0
VERTEX
  5
5811B
  8
0
 10
115.99144016621879
 20
49.773456539232598
 30
0.0
  0
VERTEX
  5
5811C
  8
0
 10
115.91256864692831
 20
49.770616208978481
 30
0.0
  0
VERTEX
  5
5811D
  8
0
 10
115.83351304899659
 20
49.767892827623882
 30
0.0
  0
VERTEX
  5
5811E
  8
0
 10
115.7939229237959
 20
49.766575476914277
 30
0.0
  0
VERTEX
  5
5811F
  8
0
 10
115.7542948325687
 20
49.765287928203399
 30
0.0
  0
VERTEX
  5
58120
  8
0
 10
115.67493552470449
 20
49.762802913590242
 30
0.0
  0
VERTEX
  5
58121
  8
0
 10
115.595456682715
 20
49.760439054331357
 30
0.0
  0
VERTEX
  5
58122
  8
0
 10
115.5158798566995
 20
49.758197486891667
 30
0.0
  0
VERTEX
  5
58123
  8
0
 10
115.436226551245
 20
49.7560792123179
 30
0.0
  0
VERTEX
  5
58124
  8
0
 10
115.3565181967104
 20
49.754085095584117
 30
0.0
  0
VERTEX
  5
58125
  8
0
 10
115.3166500852858
 20
49.753134830353019
 30
0.0
  0
VERTEX
  5
58126
  8
0
 10
115.2767762988443
 20
49.752215869336062
 30
0.0
  0
VERTEX
  5
58127
  8
0
 10
115.1970226627331
 20
49.750472137873139
 30
0.0
  0
VERTEX
  5
58128
  8
0
 10
115.1172793911761
 20
49.748854374699867
 30
0.0
  0
VERTEX
  5
58129
  8
0
 10
115.0375688477004
 20
49.747362919548657
 30
0.0
  0
VERTEX
  5
5812A
  8
0
 10
114.9579136194459
 20
49.745997975844311
 30
0.0
  0
VERTEX
  5
5812B
  8
0
 10
114.87833647993951
 20
49.744759608615027
 30
0.0
  0
VERTEX
  5
5812C
  8
0
 10
114.8385843519747
 20
49.74418787324435
 30
0.0
  0
VERTEX
  5
5812D
  8
0
 10
114.7988603517656
 20
49.743647742853341
 30
0.0
  0
VERTEX
  5
5812E
  8
0
 10
114.719508269131
 20
49.7426621623299
 30
0.0
  0
VERTEX
  5
5812F
  8
0
 10
114.6403033403097
 20
49.741802508861213
 30
0.0
  0
VERTEX
  5
58130
  8
0
 10
114.5612687099504
 20
49.741068282032643
 30
0.0
  0
VERTEX
  5
58131
  8
0
 10
114.4824275212148
 20
49.74045883937606
 30
0.0
  0
VERTEX
  5
58132
  8
0
 10
114.4038028777112
 20
49.739973397002011
 30
0.0
  0
VERTEX
  5
58133
  8
0
 10
114.3645789600601
 20
49.739776892543603
 30
0.0
  0
VERTEX
  5
58134
  8
0
 10
114.32541780517759
 20
49.739611030685751
 30
0.0
  0
VERTEX
  5
58135
  8
0
 10
114.24729521286071
 20
49.739370677404452
 30
0.0
  0
VERTEX
  5
58136
  8
0
 10
114.1694578545293
 20
49.739251137324693
 30
0.0
  0
VERTEX
  5
58137
  8
0
 10
114.13065319645629
 20
49.739236260468537
 30
0.0
  0
VERTEX
  5
58138
  8
0
 10
114.0918485383834
 20
49.739251137324693
 30
0.0
  0
VERTEX
  5
58139
  8
0
 10
114.01401118005199
 20
49.739370677404452
 30
0.0
  0
VERTEX
  5
5813A
  8
0
 10
113.93588858773499
 20
49.739611030685751
 30
0.0
  0
VERTEX
  5
5813B
  8
0
 10
113.8967274328526
 20
49.739776892543603
 30
0.0
  0
VERTEX
  5
5813C
  8
0
 10
113.8575035152015
 20
49.739973397002011
 30
0.0
  0
VERTEX
  5
5813D
  8
0
 10
113.7788788716979
 20
49.74045883937606
 30
0.0
  0
VERTEX
  5
5813E
  8
0
 10
113.7000376829622
 20
49.741068282032643
 30
0.0
  0
VERTEX
  5
5813F
  8
0
 10
113.621003052603
 20
49.741802508861213
 30
0.0
  0
VERTEX
  5
58140
  8
0
 10
113.5417981237817
 20
49.7426621623299
 30
0.0
  0
VERTEX
  5
58141
  8
0
 10
113.4624460411471
 20
49.743647742853341
 30
0.0
  0
VERTEX
  5
58142
  8
0
 10
113.422722040938
 20
49.74418787324435
 30
0.0
  0
VERTEX
  5
58143
  8
0
 10
113.38296991297329
 20
49.744759608615027
 30
0.0
  0
VERTEX
  5
58144
  8
0
 10
113.3033927734668
 20
49.745997975844311
 30
0.0
  0
VERTEX
  5
58145
  8
0
 10
113.2237375452123
 20
49.747362919548657
 30
0.0
  0
VERTEX
  5
58146
  8
0
 10
113.1440270017366
 20
49.748854374699867
 30
0.0
  0
VERTEX
  5
58147
  8
0
 10
113.0642837301796
 20
49.750472137873139
 30
0.0
  0
VERTEX
  5
58148
  8
0
 10
112.9845300940684
 20
49.752215869336062
 30
0.0
  0
VERTEX
  5
58149
  8
0
 10
112.9446563076268
 20
49.753134830353019
 30
0.0
  0
VERTEX
  5
5814A
  8
0
 10
112.9047881962024
 20
49.754085095584173
 30
0.0
  0
VERTEX
  5
5814B
  8
0
 10
112.8250798416677
 20
49.7560792123179
 30
0.0
  0
VERTEX
  5
5814C
  8
0
 10
112.7454265362132
 20
49.758197486891667
 30
0.0
  0
VERTEX
  5
5814D
  8
0
 10
112.6658497101977
 20
49.760439054331357
 30
0.0
  0
VERTEX
  5
5814E
  8
0
 10
112.58637086820821
 20
49.762802913590242
 30
0.0
  0
VERTEX
  5
5814F
  8
0
 10
112.507011560344
 20
49.765287928203399
 30
0.0
  0
VERTEX
  5
58150
  8
0
 10
112.4673834691167
 20
49.766575476914277
 30
0.0
  0
VERTEX
  5
58151
  8
0
 10
112.42779334391609
 20
49.767892827623882
 30
0.0
  0
VERTEX
  5
58152
  8
0
 10
112.34873774598439
 20
49.770616208978481
 30
0.0
  0
VERTEX
  5
58153
  8
0
 10
112.26986622669391
 20
49.773456539232598
 30
0.0
  0
VERTEX
  5
58154
  8
0
 10
112.1912001433773
 20
49.776412157754983
 30
0.0
  0
VERTEX
  5
58155
  8
0
 10
112.1127607153898
 20
49.779481279270669
 30
0.0
  0
VERTEX
  5
58156
  8
0
 10
112.03456898964789
 20
49.782661997192797
 30
0.0
  0
VERTEX
  5
58157
  8
0
 10
111.9955725368014
 20
49.78429357672934
 30
0.0
  0
VERTEX
  5
58158
  8
0
 10
111.95664580684399
 20
49.785952287320242
 30
0.0
  0
VERTEX
  5
58159
  8
0
 10
111.87901176831321
 20
49.789350011890292
 30
0.0
  0
VERTEX
  5
5815A
  8
0
 10
111.80168720353301
 20
49.792852923973392
 30
0.0
  0
VERTEX
  5
5815B
  8
0
 10
111.7246921382394
 20
49.796458672197559
 30
0.0
  0
VERTEX
  5
5815C
  8
0
 10
111.64804626314719
 20
49.800164805788249
 30
0.0
  0
VERTEX
  5
5815D
  8
0
 10
111.5717689032691
 20
49.803968779910178
 30
0.0
  0
VERTEX
  5
5815E
  8
0
 10
111.5337741510663
 20
49.805906647697391
 30
0.0
  0
VERTEX
  5
5815F
  8
0
 10
111.495875732602
 20
49.807868130998152
 30
0.0
  0
VERTEX
  5
58160
  8
0
 10
111.4203747487593
 20
49.811860721337091
 30
0.0
  0
VERTEX
  5
58161
  8
0
 10
111.3452838726173
 20
49.815943827293381
 30
0.0
  0
VERTEX
  5
58162
  8
0
 10
111.3078980758675
 20
49.818018431870321
 30
0.0
  0
VERTEX
  5
58163
  8
0
 10
111.27062181693761
 20
49.820114583196869
 30
0.0
  0
VERTEX
  5
58164
  8
0
 10
111.19640720148919
 20
49.824370028294368
 30
0.0
  0
VERTEX
  5
58165
  8
0
 10
111.122658516222
 20
49.828707111154188
 30
0.0
  0
VERTEX
  5
58166
  8
0
 10
111.0859646312072
 20
49.830905289531927
 30
0.0
  0
VERTEX
  5
58167
  8
0
 10
111.0493940855545
 20
49.833122694381132
 30
0.0
  0
VERTEX
  5
58168
  8
0
 10
110.9766320337492
 20
49.837613559623712
 30
0.0
  0
VERTEX
  5
58169
  8
0
 10
110.9043902513414
 20
49.842176412855899
 30
0.0
  0
VERTEX
  5
5816A
  8
0
 10
110.8326863625922
 20
49.846807889915738
 30
0.0
  0
VERTEX
  5
5816B
  8
0
 10
110.7615376939338
 20
49.851504562282912
 30
0.0
  0
VERTEX
  5
5816C
  8
0
 10
110.6909612433741
 20
49.856262943077809
 30
0.0
  0
VERTEX
  5
5816D
  8
0
 10
110.6558928146365
 20
49.858664170050808
 30
0.0
  0
VERTEX
  5
5816E
  8
0
 10
110.62097365083299
 20
49.861079493264469
 30
0.0
  0
VERTEX
  5
5816F
  8
0
 10
110.55159116937941
 20
49.865950628039108
 30
0.0
  0
VERTEX
  5
58170
  8
0
 10
110.4828296373437
 20
49.870872723387038
 30
0.0
  0
VERTEX
  5
58171
  8
0
 10
110.4147044512797
 20
49.875842122790452
 30
0.0
  0
VERTEX
  5
58172
  8
0
 10
110.34723052307869
 20
49.880855145318492
 30
0.0
  0
VERTEX
  5
58173
  8
0
 10
110.2804220696846
 20
49.8859081068004
 30
0.0
  0
VERTEX
  5
58174
  8
0
 10
110.2472719044861
 20
49.888448394376503
 30
0.0
  0
VERTEX
  5
58175
  8
0
 10
110.21429352149779
 20
49.890997255785457
 30
0.0
  0
VERTEX
  5
58176
  8
0
 10
110.148859200735
 20
49.896118799377057
 30
0.0
  0
VERTEX
  5
58177
  8
0
 10
110.0841330805458
 20
49.901268925167528
 30
0.0
  0
VERTEX
  5
58178
  8
0
 10
110.0520398592965
 20
49.903853511311347
 30
0.0
  0
SEQEND
  5
58179
  8
0
  0
POLYLINE
  5
573F0
  8
0
 66
     1
 10
0.0
 20
0.0
 30
0.0
  0
VERTEX
  5
5817A
  8
0
 10
110.0520398592965
 20
49.903853511311347
 30
0.0
  0
VERTEX
  5
5817B
  8
0
 10
109.8441908731527
 20
49.921090060089959
 30
0.0
  0
VERTEX
  5
5817C
  8
0
 10
109.4187065201447
 20
49.959066970895492
 30
0.0
  0
VERTEX
  5
5817D
  8
0
 10
108.97927888011979
 20
50.002092867863951
 30
0.0
  0
VERTEX
  5
5817E
  8
0
 10
108.754611861146
 20
50.025587430776341
 30
0.0
  0
VERTEX
  5
5817F
  8
0
 10
108.52679878744139
 20
50.050446896533451
 30
0.0
  0
VERTEX
  5
58180
  8
0
 10
108.0622245615566
 20
50.104381324248493
 30
0.0
  0
VERTEX
  5
58181
  8
0
 10
107.5865627645973
 20
50.16411875647583
 30
0.0
  0
VERTEX
  5
58182
  8
0
 10
107.1008470281604
 20
50.229850640215894
 30
0.0
  0
VERTEX
  5
58183
  8
0
 10
106.6061199505944
 20
50.301736558026498
 30
0.0
  0
VERTEX
  5
58184
  8
0
 10
106.10345655871539
 20
50.379898019004827
 30
0.0
  0
VERTEX
  5
58185
  8
0
 10
105.8494999212423
 20
50.42135770792185
 30
0.0
  0
VERTEX
  5
58186
  8
0
 10
105.5939861479232
 20
50.464411167101503
 30
0.0
  0
VERTEX
  5
58187
  8
0
 10
105.0788763443594
 20
50.555305013619709
 30
0.0
  0
VERTEX
  5
58188
  8
0
 10
104.55931304601491
 20
50.652561514321413
 30
0.0
  0
VERTEX
  5
58189
  8
0
 10
104.03647968077939
 20
50.756117183487731
 30
0.0
  0
VERTEX
  5
5818A
  8
0
 10
103.5113305241013
 20
50.865910419726163
 30
0.0
  0
VERTEX
  5
5818B
  8
0
 10
102.9848042620914
 20
50.981844801654852
 30
0.0
  0
VERTEX
  5
5818C
  8
0
 10
102.7213960998788
 20
51.042056213763082
 30
0.0
  0
VERTEX
  5
5818D
  8
0
 10
102.458091030068
 20
51.103725758854239
 30
0.0
  0
VERTEX
  5
5818E
  8
0
 10
101.9323886688952
 20
51.231306073133787
 30
0.0
  0
VERTEX
  5
5818F
  8
0
 10
101.40888320718631
 20
51.364289687425753
 30
0.0
  0
VERTEX
  5
58190
  8
0
 10
101.14831709480529
 20
51.43270309483426
 30
0.0
  0
SEQEND
  5
58191
  8
0
  0
POLYLINE
  5
573F1
  8
0
 66
     1
 10
0.0
 20
0.0
 30
0.0
  0
VERTEX
  5
58192
  8
0
 10
128.88065319645639
 20
51.739236260468537
 30
0.0
  0
VERTEX
  5
58193
  8
0
 10
128.8768029634501
 20
51.739234848630808
 30
0.0
  0
VERTEX
  5
58194
  8
0
 10
128.8468666081092
 20
51.739127541861698
 30
0.0
  0
VERTEX
  5
58195
  8
0
 10
128.78743060825829
 20
51.738408533222582
 30
0.0
  0
VERTEX
  5
58196
  8
0
 10
128.74671874368059
 20
51.737527559773461
 30
0.0
  0
SEQEND
  5
58197
  8
0
  0
POLYLINE
  5
573F2
  8
0
 66
     1
 10
0.0
 20
0.0
 30
0.0
  0
VERTEX
  5
58198
  8
0
 10
128.74671874368059
 20
51.737527559773461
 30
0.0
  0
VERTEX
  5
58199
  8
0
 10
128.58396946861041
 20
51.730846582271511
 30
0.0
  0
VERTEX
  5
5819A
  8
0
 10
128.25948408071829
 20
51.70235902227386
 30
0.0
  0
VERTEX
  5
5819B
  8
0
 10
127.9373898938005
 20
51.653803458391621
 30
0.0
  0
VERTEX
  5
5819C
  8
0
 10
127.7776274620492
 20
51.622055586066828
 30
0.0
  0
SEQEND
  5
5819D
  8
0
  0
POLYLINE
  5
573F3
  8
0
 66
     1
 10
0.0
 20
0.0
 30
0.0
  0
VERTEX
  5
5819E
  8
0
 10
127.7776274620492
 20
51.622055586066828
 30
0.0
  0
VERTEX
  5
5819F
  8
0
 10
127.66591240776761
 20
51.596770383339951
 30
0.0
  0
VERTEX
  5
581A0
  8
0
 10
127.4432961339283
 20
51.538642629023279
 30
0.0
  0
VERTEX
  5
581A1
  8
0
 10
127.2224706120947
 20
51.470494185623643
 30
0.0
  0
VERTEX
  5
581A2
  8
0
 10
127.1129892981069
 20
51.432703094834089
 30
0.0
  0
SEQEND
  5
581A3
  8
0
  0
POLYLINE
  5
573F4
  8
0
 66
     1
 10
0.0
 20
0.0
 30
0.0
  0
VERTEX
  5
581A4
  8
0
 10
101.14831709480529
 20
51.43270309483421
 30
0.0
  0
VERTEX
  5
581A5
  8
0
 10
101.0388370350669
 20
51.470493768103609
 30
0.0
  0
VERTEX
  5
581A6
  8
0
 10
100.818012693749
 20
51.538641935945861
 30
0.0
  0
VERTEX
  5
581A7
  8
0
 10
100.5953954378945
 20
51.59677003782781
 30
0.0
  0
VERTEX
  5
581A8
  8
0
 10
100.4836789308635
 20
51.622055586066828
 30
0.0
  0
SEQEND
  5
581A9
  8
0
  0
LINE
  5
573F7
  8
1
 10
114.13065319645629
 20
28.45659930788139
 30
0.0
 11
114.13065319645629
 21
54.528300163634583
 31
0.0
  0
LINE
  5
574E1
  8
2
 10
116.63065319645629
 20
30.739236260468541
 30
0.0
 11
116.63065319645629
 21
42.739236260468537
 31
0.0
  0
LINE
  5
574E2
  8
2
 10
111.63065319645629
 20
42.739236260468537
 30
0.0
 11
116.63065319645629
 21
42.739236260468537
 31
0.0
  0
LINE
  5
574E3
  8
2
 10
111.63065319645629
 20
30.739236260468541
 30
0.0
 11
111.63065319645629
 21
42.739236260468537
 31
0.0
  0
LINE
  5
57518
  8
2
 10
112.0636531964563
 20
45.139236260468522
 30
0.0
 11
116.1976531964564
 21
45.139236260468522
 31
0.0
  0
LINE
  5
57519
  8
2
 10
112.0636531964563
 20
31.172236260468541
 30
0.0
 11
116.1976531964564
 21
31.172236260468541
 31
0.0
  0
LINE
  5
5752D
  8
2
 10
116.1976531964564
 20
45.139236260468522
 30
0.0
 11
114.13065319645629
 21
46.332619266883448
 31
0.0
  0
LINE
  5
5752E
  8
2
 10
114.13065319645629
 20
46.332619266883448
 30
0.0
 11
112.0636531964563
 21
45.139236260468522
 31
0.0
  0
LINE
  5
5752F
  8
2
 10
116.1976531964564
 20
31.172236260468541
 30
0.0
 11
116.1976531964564
 21
45.139236260468522
 31
0.0
  0
LINE
  5
57530
  8
2
 10
112.0636531964563
 20
45.139236260468522
 30
0.0
 11
112.0636531964563
 21
31.172236260468541
 31
0.0
  0
LINE
  5
57531
  8
2
 10
116.63065319645629
 20
30.739236260468541
 30
0.0
 11
116.1976531964564
 21
31.172236260468541
 31
0.0
  0
LINE
  5
57532
  8
2
 10
112.0636531964563
 20
31.172236260468541
 30
0.0
 11
111.63065319645629
 21
30.739236260468541
 31
0.0
  0
TEXT
  5
57B85
  8
0
 62
     3
 10
0.0
 20
0.0
 30
0.0
 40
10.0
  1
WN40N-SUS
  7
STANDARD1
  0
VIEWPORT
  5
1EC2F
 67
     1
  8
0
 10
261.51769911504419
 20
148.5
 30
0.0
 40
523.0353982300885
 41
297.0
 68
     1
 69
     1
1001
ACAD
1000
MVIEW
1002
{
1070
    16
1010
0.0
1020
0.0
1030
0.0
1010
0.0
1020
0.0
1030
1.0
1040
0.0
1040
297.0
1040
261.51769911504419
1040
148.5
1040
50.0
1040
0.0
1040
0.0
1070
     0
1070
   100
1070
     1
1070
     1
1070
     0
1070
     0
1070
     0
1070
     0
1040
0.0
1040
0.0
1040
0.0
1040
1.0
1040
1.0
1040
10.0
1040
10.0
1070
     0
1002
{
1002
}
1002
}
  0
ENDSEC
  0
EOF
