  0
SECTION
  2
HEADER
  9
$ACADVER
  1
AC1009
  9
$INSBASE
 10
0.0
 20
0.0
 30
0.0
  9
$EXTMIN
 10
0.0
 20
-2.960436562073669
 30
0.0
  9
$EXTMAX
 10
336.21829196795011
 20
240.87659492157081
 30
0.0
  9
$LIMMIN
 10
0.0
 20
0.0
  9
$LIMMAX
 10
375.0
 20
270.0
  9
$ORTHOMODE
 70
     1
  9
$REGENMODE
 70
     1
  9
$FILLMODE
 70
     1
  9
$QTEXTMODE
 70
     0
  9
$MIRRTEXT
 70
     0
  9
$DRAGMODE
 70
     2
  9
$LTSCALE
 40
10.0
  9
$OSMODE
 70
    55
  9
$ATTMODE
 70
     1
  9
$TEXTSIZE
 40
0.2
  9
$TRACEWID
 40
0.05
  9
$TEXTSTYLE
  7
STANDARD
  9
$CLAYER
  8
0
  9
$CELTYPE
  6
BYLAYER
  9
$CECOLOR
 62
   256
  9
$DIMSCALE
 40
1.0
  9
$DIMASZ
 40
3.0
  9
$DIMEXO
 40
2.0
  9
$DIMDLI
 40
0.38
  9
$DIMRND
 40
0.0
  9
$DIMDLE
 40
0.0
  9
$DIMEXE
 40
2.0
  9
$DIMTP
 40
0.0
  9
$DIMTM
 40
0.0
  9
$DIMTXT
 40
3.2000000000000002
  9
$DIMCEN
 40
0.0
  9
$DIMTSZ
 40
0.0
  9
$DIMTOL
 70
     0
  9
$DIMLIM
 70
     0
  9
$DIMTIH
 70
     0
  9
$DIMTOH
 70
     0
  9
$DIMSE1
 70
     0
  9
$DIMSE2
 70
     0
  9
$DIMTAD
 70
     1
  9
$DIMZIN
 70
     0
  9
$DIMBLK
  1

  9
$DIMASO
 70
     1
  9
$DIMSHO
 70
     0
  9
$DIMPOST
  1

  9
$DIMAPOST
  1

  9
$DIMALT
 70
     0
  9
$DIMALTD
 70
     2
  9
$DIMALTF
 40
25.399999999999999
  9
$DIMLFAC
 40
1.0
  9
$DIMTOFL
 70
     0
  9
$DIMTVP
 40
1.6000000000000001
  9
$DIMTIX
 70
     1
  9
$DIMSOXD
 70
     0
  9
$DIMSAH
 70
     0
  9
$DIMBLK1
  1

  9
$DIMBLK2
  1

  9
$DIMSTYLE
  2
STANDARD
  9
$DIMCLRD
 70
     0
  9
$DIMCLRE
 70
     0
  9
$DIMCLRT
 70
     0
  9
$DIMTFAC
 40
1.0
  9
$DIMGAP
 40
0.09
  9
$LUNITS
 70
     2
  9
$LUPREC
 70
     1
  9
$SKETCHINC
 40
0.1
  9
$FILLETRAD
 40
0.0
  9
$AUNITS
 70
     0
  9
$AUPREC
 70
     0
  9
$MENU
  1
E:\r13\win\SUPPORT\ACAD
  9
$ELEVATION
 40
0.0
  9
$PELEVATION
 40
0.0
  9
$THICKNESS
 40
0.0
  9
$LIMCHECK
 70
     0
  9
$BLIPMODE
 70
     0
  9
$CHAMFERA
 40
0.0
  9
$CHAMFERB
 40
0.0
  9
$SKPOLY
 70
     0
  9
$TDCREATE
 40
2449840.605810185
  9
$TDUPDATE
 40
2456598.392179097
  9
$TDINDWG
 40
0.0001577662
  9
$TDUSRTIMER
 40
0.0001577662
  9
$USRTIMER
 70
     1
  9
$ANGBASE
 50
0.0
  9
$ANGDIR
 70
     0
  9
$PDMODE
 70
     0
  9
$PDSIZE
 40
0.0
  9
$PLINEWID
 40
0.0
  9
$COORDS
 70
     1
  9
$SPLFRAME
 70
     0
  9
$SPLINETYPE
 70
     6
  9
$SPLINESEGS
 70
     8
  9
$ATTDIA
 70
     0
  9
$ATTREQ
 70
     1
  9
$HANDLING
 70
     1
  9
$HANDSEED
  5
334
  9
$SURFTAB1
 70
     6
  9
$SURFTAB2
 70
     6
  9
$SURFTYPE
 70
     6
  9
$SURFU
 70
     6
  9
$SURFV
 70
     6
  9
$UCSNAME
  2

  9
$UCSORG
 10
0.0
 20
0.0
 30
0.0
  9
$UCSXDIR
 10
1.0
 20
0.0
 30
0.0
  9
$UCSYDIR
 10
0.0
 20
1.0
 30
0.0
  9
$PUCSNAME
  2

  9
$PUCSORG
 10
0.0
 20
0.0
 30
0.0
  9
$PUCSXDIR
 10
1.0
 20
0.0
 30
0.0
  9
$PUCSYDIR
 10
0.0
 20
1.0
 30
0.0
  9
$USERI1
 70
     0
  9
$USERI2
 70
     1
  9
$USERI3
 70
     1
  9
$USERI4
 70
     0
  9
$USERI5
 70
     0
  9
$USERR1
 40
0.0
  9
$USERR2
 40
0.0
  9
$USERR3
 40
0.0
  9
$USERR4
 40
0.0
  9
$USERR5
 40
0.0
  9
$WORLDVIEW
 70
     1
  9
$SHADEDGE
 70
     3
  9
$SHADEDIF
 70
    70
  9
$TILEMODE
 70
     1
  9
$MAXACTVP
 70
    16
  9
$PLIMCHECK
 70
     0
  9
$PEXTMIN
 10
1.0000000000000000E+020
 20
1.0000000000000000E+020
 30
1.0000000000000000E+020
  9
$PEXTMAX
 10
-1.0000000000000000E+020
 20
-1.0000000000000000E+020
 30
-1.0000000000000000E+020
  9
$PLIMMIN
 10
0.0
 20
0.0
  9
$PLIMMAX
 10
12.0
 20
9.0
  9
$UNITMODE
 70
     0
  9
$VISRETAIN
 70
     0
  9
$PLINEGEN
 70
     0
  9
$PSLTSCALE
 70
     0
  0
ENDSEC
  0
SECTION
  2
TABLES
  0
TABLE
  2
VPORT
 70
     1
  0
VPORT
  2
*ACTIVE
 70
     0
 10
0.0
 20
0.0
 11
1.0
 21
1.0
 12
187.4942783906524
 22
197.0509055860143
 13
0.0
 23
0.0
 14
10.0
 24
10.0
 15
10.0
 25
10.0
 16
0.0
 26
0.0
 36
1.0
 17
0.0
 27
0.0
 37
0.0
 40
403.57315882993248
 41
1.7807262569832401
 42
50.0
 43
0.0
 44
0.0
 50
0.0
 51
0.0
 71
     0
 72
   500
 73
     1
 74
     0
 75
     0
 76
     0
 77
     0
 78
     0
  0
ENDTAB
  0
TABLE
  2
LTYPE
 70
     4
  0
LTYPE
  2
CONTINUOUS
 70
     0
  3
Solid Line
 72
    65
 73
     0
 40
0.0
  0
LTYPE
  2
CENTER
 70
     0
  3
____ _ ____ _ ____ _ ____ _ ____ _ ____ _ ____
 72
    65
 73
     4
 40
2.0
 49
1.25
 49
-0.25
 49
0.25
 49
-0.25
  0
LTYPE
  2
HIDDEN
 70
     0
  3
_ _ _ _ _ _ _ _ _ _ _ _ _ _ _ _ _ _ _ _ _ _ _
 72
    65
 73
     2
 40
0.375
 49
0.25
 49
-0.125
  0
LTYPE
  2
PHANTOM2
 70
     0
  3
___ _ _ ___ _ _ ___ _ _ ___ _ _
 72
    65
 73
     6
 40
1.25
 49
0.625
 49
-0.125
 49
0.125
 49
-0.125
 49
0.125
 49
-0.125
  0
ENDTAB
  0
TABLE
  2
LAYER
 70
     3
  0
LAYER
  2
0
 70
     0
 62
     7
  6
CONTINUOUS
  0
LAYER
  2
1
 70
     0
 62
     1
  6
CENTER
  0
LAYER
  2
2
 70
     0
 62
     2
  6
HIDDEN
  0
ENDTAB
  0
TABLE
  2
STYLE
 70
     2
  0
STYLE
  2
STANDARD
 70
     0
 40
0.0
 41
1.0
 50
0.0
 71
     0
 42
0.2
  3
TXT
  4
BIGFONT
  0
STYLE
  2
STANDARD1
 70
     0
 40
0.0
 41
1.0
 50
0.0
 71
     0
 42
3.0
  3
txt
  4

  0
ENDTAB
  0
TABLE
  2
VIEW
 70
     1
  0
VIEW
  2
ALL
 70
     0
 40
270.0
 10
220.99159663865549
 20
135.0
 41
0.0
 11
0.0
 21
0.0
 31
1.0
 12
0.0
 22
0.0
 32
0.0
 42
0.0
 43
0.0
 44
0.0
 50
0.0
 71
     0
  0
ENDTAB
  0
TABLE
  2
UCS
 70
     0
  0
ENDTAB
  0
TABLE
  2
APPID
 70
     3
  0
APPID
  2
ACAD
 70
     0
  0
APPID
  2
ACAD_MLEADERVER
 70
     0
  0
APPID
  2
ACAD_NAV_VCDISPLAY
 70
     0
  0
ENDTAB
  0
TABLE
  2
DIMSTYLE
 70
     1
  0
DIMSTYLE
  2
STANDARD
 70
     0
  3

  4

  5

  6

  7

 40
1.0
 41
0.18
 42
0.0625
 43
0.38
 44
0.18
 45
0.0
 46
0.0
 47
0.0
 48
0.0
140
0.18
141
0.09
142
0.0
143
25.399999999999999
144
1.0
145
0.0
146
1.0
147
0.09
 71
     0
 72
     0
 73
     1
 74
     1
 75
     0
 76
     0
 77
     0
 78
     0
170
     0
171
     2
172
     0
173
     0
174
     0
175
     0
176
     0
177
     0
178
     0
  0
ENDTAB
  0
ENDSEC
  0
SECTION
  2
BLOCKS
  0
BLOCK
  8
0
  2
$MODEL_SPACE
 70
     0
 10
0.0
 20
0.0
 30
0.0
  3
$MODEL_SPACE
  1

  0
ENDBLK
  5
1B5
  8
0
  0
BLOCK
 67
     1
  8
0
  2
$PAPER_SPACE
 70
     0
 10
0.0
 20
0.0
 30
0.0
  3
$PAPER_SPACE
  1

  0
ENDBLK
  5
1B3
 67
     1
  8
0
  0
ENDSEC
  0
SECTION
  2
ENTITIES
  0
LINE
  5
35
  8
1
 10
158.21829196794999
 20
194.87659492157141
 30
0.0
 11
158.21829196794999
 21
240.87659492157081
 31
0.0
  0
LINE
  5
36
  8
1
 10
135.21829196795019
 20
217.8765949215711
 30
0.0
 11
242.07984012134821
 21
217.8765949215711
 31
0.0
  0
ARC
  5
37
  8
0
 10
158.21829196794999
 20
217.8765949215711
 30
0.0
 40
17.999999999999972
 50
16.12762021316075
 51
343.8723797868393
  0
CIRCLE
  5
38
  8
0
 10
158.21829196794999
 20
217.8765949215711
 30
0.0
 40
14.0
  0
LINE
  5
39
  8
0
 10
175.94732998020859
 20
131.39670987556059
 30
0.0
 11
176.21829196794999
 21
130.65224793271051
 31
0.0
  0
LINE
  5
3A
  8
0
 10
195.3949118816806
 20
151.06002774234909
 30
0.0
 11
200.02997567044309
 21
138.32529464499211
 31
0.0
  0
LINE
  5
3B
  8
0
 10
214.88601437778149
 20
141.36572975648241
 30
0.0
 11
236.0248300307716
 21
149.0596294418113
 31
0.0
  0
LINE
  5
3C
  8
0
 10
208.7296517979195
 20
158.28019693062879
 30
0.0
 11
229.8684640824471
 21
165.9740953899375
 31
0.0
  0
LINE
  5
3D
  8
0
 10
200.9791831155234
 20
137.8236610094481
 30
0.0
 11
214.88601437778149
 21
141.36572975648241
 31
0.0
  0
LINE
  5
3E
  8
0
 10
208.7296517979195
 20
158.28019693062879
 30
0.0
 11
195.79960325024231
 21
152.05444026570811
 31
0.0
  0
ARC
  5
3F
  8
0
 10
207.10936998392091
 20
148.1128626269273
 30
0.0
 40
30.0
 50
4.7424767095435696
 51
35.257523290456312
  0
ARC
  5
40
  8
0
 10
200.78172976707191
 20
138.5989107596526
 30
0.0
 40
0.8
 50
200.0
 51
284.2894068625003
  0
ARC
  5
41
  8
0
 10
196.1466659783093
 20
151.3336438570096
 30
0.0
 40
0.8
 50
115.7105931374996
 51
199.99999999999989
  0
ARC
  5
42
  8
0
 10
230.38149429743561
 20
164.56455645875869
 30
0.0
 40
1.5
 50
35.257523290456483
 51
110.0
  0
ARC
  5
43
  8
0
 10
235.51179644732059
 20
150.46916714696999
 30
0.0
 40
1.5
 50
290.0
 51
4.742476709544019
  0
LINE
  5
44
  8
0
 10
172.49343167181479
 20
140.83458031250521
 30
0.0
 11
196.00234305943351
 21
149.39112429760019
 31
0.0
  0
LINE
  5
45
  8
0
 10
175.9136331050716
 20
131.4376541046461
 30
0.0
 11
199.42254449269021
 21
139.9941980897411
 31
0.0
  0
LINE
  5
46
  8
0
 10
140.21829196794999
 20
123.6421576105289
 30
0.0
 11
176.21829196794999
 21
123.6421576105289
 31
0.0
  0
LINE
  5
47
  8
1
 10
158.21829196794999
 20
146.6421576105291
 30
0.0
 11
158.21829196794999
 21
118.6421576105288
 31
0.0
  0
LINE
  5
48
  8
0
 10
140.21829196794999
 20
130.65224793271051
 30
0.0
 11
140.21829196794999
 21
123.6421576105289
 31
0.0
  0
LINE
  5
49
  8
0
 10
176.21829196794999
 20
130.6522479327104
 30
0.0
 11
176.21829196794999
 21
123.6421576105289
 31
0.0
  0
LINE
  5
4A
  8
0
 10
144.91849950615969
 20
141.6421576105289
 30
0.0
 11
171.5180844297403
 21
141.6421576105289
 31
0.0
  0
LINE
  5
4B
  8
0
 10
172.4577770505262
 20
140.9841777538546
 30
0.0
 11
172.49292653261941
 21
140.887605345498
 31
0.0
  0
LINE
  5
4C
  8
0
 10
143.97880688537381
 20
140.9841777538546
 30
0.0
 11
140.21829196794999
 21
130.65224793271051
 31
0.0
  0
LINE
  5
4D
  8
2
 10
154.21829196794999
 20
135.6421576105289
 30
0.0
 11
154.21829196794999
 21
123.6421576105289
 31
0.0
  0
LINE
  5
4E
  8
2
 10
162.21829196794999
 20
135.6421576105289
 30
0.0
 11
162.21829196794999
 21
123.6421576105289
 31
0.0
  0
LINE
  5
4F
  8
2
 10
154.21829196794999
 20
135.6421576105289
 30
0.0
 11
162.21829196795011
 21
135.6421576105289
 31
0.0
  0
LINE
  5
50
  8
2
 10
154.71829196794999
 20
137.6421576105289
 30
0.0
 11
161.71829196795011
 21
137.6421576105289
 31
0.0
  0
LINE
  5
51
  8
2
 10
154.71829196794999
 20
137.6421576105289
 30
0.0
 11
158.21829196794999
 21
139.66288355269259
 31
0.0
  0
LINE
  5
52
  8
2
 10
161.71829196795011
 20
137.6421576105289
 30
0.0
 11
158.21829196794999
 21
139.66288355269259
 31
0.0
  0
LINE
  5
53
  8
1
 10
239.99861171142689
 20
160.08356764332541
 30
0.0
 11
158.21829196794999
 21
130.3179655079272
 31
0.0
  0
ARC
  5
54
  8
0
 10
144.91849950615969
 20
140.6421576105289
 30
0.0
 40
1.0
 50
90.0
 51
159.99999999999989
  0
ARC
  5
55
  8
0
 10
171.5180844297403
 20
140.6421576105289
 30
0.0
 40
1.0
 50
20.000000000000082
 51
90.0
  0
LINE
  5
56
  8
0
 10
173.9614680949135
 20
212.8765949215711
 30
0.0
 11
195.7992930269634
 21
212.8765949215711
 31
0.0
  0
LINE
  5
57
  8
0
 10
173.9614680949276
 20
222.8765949215711
 30
0.0
 11
195.7992930269636
 21
222.8765949215711
 31
0.0
  0
POLYLINE
  5
58
  8
0
 66
     1
 10
0.0
 20
0.0
 30
0.0
  0
VERTEX
  5
59
  8
0
 10
174.22012825641411
 20
212.8265949215712
 30
0.0
 42
0.0957655171955694
  0
VERTEX
  5
5A
  8
0
 10
174.4787884179008
 20
212.8765949215711
 30
0.0
 42
0.0904136542735363
  0
SEQEND
  5
5B
  8
0
  0
POLYLINE
  5
5C
  8
0
 66
     1
 10
0.0
 20
0.0
 30
0.0
  0
VERTEX
  5
5D
  8
0
 10
174.4787884179008
 20
222.8765949215711
 30
0.0
 42
0.0957655171955772
 50
108.8817212309072
  0
VERTEX
  5
5E
  8
0
 10
174.22012825641411
 20
222.926594921571
 30
0.0
 42
0.2237701453317355
  0
VERTEX
  5
5F
  8
0
 10
173.6849425114608
 20
222.674452174278
 30
0.0
 42
0.0904136542735285
  0
VERTEX
  5
60
  8
0
 10
172.9988122050419
 20
221.4474841665631
 30
0.0
 42
0.0472389281878685
 70
     2
 50
251.11827876909271
  0
VERTEX
  5
61
  8
0
 10
172.63865301620831
 20
219.94414176262009
 30
0.0
 42
0.035197738440011
 50
251.11827876909271
  0
VERTEX
  5
62
  8
0
 10
172.49292653261949
 20
217.8765949215711
 30
0.0
 42
0.035197738440012
  0
VERTEX
  5
63
  8
0
 10
172.63865301620831
 20
215.8090480805221
 30
0.0
 42
0.0472389281878727
  0
VERTEX
  5
64
  8
0
 10
172.9988122050419
 20
214.30570567657909
 30
0.0
 42
0.0904136542735136
 70
     2
 50
288.8817212309072
  0
VERTEX
  5
65
  8
0
 10
173.6849425114608
 20
213.07873766886419
 30
0.0
 42
0.2237701453316671
 50
288.8817212309072
  0
VERTEX
  5
66
  8
0
 10
174.22012825641411
 20
212.8265949215712
 30
0.0
 42
0.2237701453317114
  0
SEQEND
  5
67
  8
0
  0
POLYLINE
  5
68
  8
0
 66
     1
 10
0.0
 20
0.0
 30
0.0
 70
     1
  0
VERTEX
  5
69
  8
0
 10
230.92347754148699
 20
217.8765949215711
 30
0.0
 42
0.0351977384400108
  0
VERTEX
  5
6A
  8
0
 10
231.18318810629859
 20
214.1918579771272
 30
0.0
 42
0.0472389281878704
  0
VERTEX
  5
6B
  8
0
 10
231.8250559675862
 20
211.51263389089209
 30
0.0
 42
0.0904136542735253
 70
     2
 50
288.88172123090658
  0
VERTEX
  5
6C
  8
0
 10
233.1053523959003
 20
209.22315222358051
 30
0.0
 42
0.261544648448782
 50
288.88172123090658
  0
VERTEX
  5
6D
  8
0
 10
234.00165883141801
 20
208.8765949215711
 30
0.0
 42
0.2237701453317234
  0
VERTEX
  5
6E
  8
0
 10
234.9554552085626
 20
209.32595823357849
 30
0.0
 42
0.0904136542735247
  0
VERTEX
  5
6F
  8
0
 10
236.17826169524969
 20
211.51263389089209
 30
0.0
 42
0.0472389281878849
 70
     2
 50
71.118278769093422
  0
VERTEX
  5
70
  8
0
 10
236.8201295565373
 20
214.1918579771274
 30
0.0
 42
0.0351977384400168
 50
71.118278769093422
  0
VERTEX
  5
71
  8
0
 10
237.07984012134901
 20
217.8765949215711
 30
0.0
 42
0.0351977384400097
  0
VERTEX
  5
72
  8
0
 10
236.8201295565373
 20
221.561331866015
 30
0.0
 42
0.0472389281878661
  0
VERTEX
  5
73
  8
0
 10
236.17826169524969
 20
224.24055595224999
 30
0.0
 42
0.0904136542735163
 70
     2
 50
108.88172123090661
  0
VERTEX
  5
74
  8
0
 10
234.9554552085626
 20
226.42723160956371
 30
0.0
 42
0.2237701453317045
 50
108.88172123090661
  0
VERTEX
  5
75
  8
0
 10
234.00165883141801
 20
226.8765949215711
 30
0.0
 42
0.2237701453317234
  0
VERTEX
  5
76
  8
0
 10
233.0478624542734
 20
226.42723160956371
 30
0.0
 42
0.090413654273525
  0
VERTEX
  5
77
  8
0
 10
231.8250559675862
 20
224.24055595224999
 30
0.0
 42
0.0472389281878752
 70
     2
 50
251.11827876909339
  0
VERTEX
  5
78
  8
0
 10
231.1831881062987
 20
221.561331866015
 30
0.0
 42
0.0351977384400174
 50
251.11827876909339
  0
SEQEND
  5
79
  8
0
  0
POLYLINE
  5
7A
  8
0
 66
     1
 10
0.0
 20
0.0
 30
0.0
  0
VERTEX
  5
7B
  8
0
 10
195.1472927011194
 20
217.8765949215711
 30
0.0
 42
0.0351977384400207
  0
VERTEX
  5
7C
  8
0
 10
195.3637181717958
 20
214.80598080120151
 30
0.0
 42
0.0472389281878946
  0
VERTEX
  5
7D
  8
0
 10
195.89860805620211
 20
212.57329406267201
 30
0.0
 42
0.0904136542735206
 70
     2
 50
288.88172123090652
  0
VERTEX
  5
7E
  8
0
 10
196.96552174646371
 20
210.66539267324561
 30
0.0
 42
0.2615446484490195
 50
288.88172123090652
  0
VERTEX
  5
7F
  8
0
 10
197.71244377606189
 20
210.37659492156951
 30
0.0
 42
0.2237701453317334
  0
SEQEND
  5
80
  8
0
  0
POLYLINE
  5
81
  8
0
 66
     1
 10
0.0
 20
0.0
 30
0.0
  0
VERTEX
  5
82
  8
0
 10
197.71244377606189
 20
225.3765949215711
 30
0.0
 42
0.2237701453317314
  0
VERTEX
  5
83
  8
0
 10
196.91761346177469
 20
225.00212549489831
 30
0.0
 42
0.0904136542735203
  0
VERTEX
  5
84
  8
0
 10
195.89860805620211
 20
223.17989578047019
 30
0.0
 42
0.04723892818787
 70
     2
 50
251.11827876909351
  0
VERTEX
  5
85
  8
0
 10
195.3637181717958
 20
220.94720904194111
 30
0.0
 42
0.0351977384400139
 50
251.11827876909351
  0
VERTEX
  5
86
  8
0
 10
195.1472927011194
 20
217.8765949215711
 30
0.0
 42
0.0351977384400207
  0
SEQEND
  5
87
  8
0
  0
POLYLINE
  5
88
  8
0
 66
     1
 10
0.0
 20
0.0
 30
0.0
  0
VERTEX
  5
89
  8
0
 10
208.7296517979197
 20
217.8765949215711
 30
0.0
 42
0.0351977384400091
  0
VERTEX
  5
8A
  8
0
 10
208.98936236273121
 20
214.1918579771274
 30
0.0
 42
0.0472389281878777
  0
VERTEX
  5
8B
  8
0
 10
209.63123022401891
 20
211.51263389089209
 30
0.0
 42
0.0904136542735274
 70
     2
 50
288.88172123090692
  0
VERTEX
  5
8C
  8
0
 10
210.9115266523329
 20
209.22315222358051
 30
0.0
 42
0.2615446484487645
 50
288.88172123090692
  0
VERTEX
  5
8D
  8
0
 10
211.80783308785061
 20
208.8765949215711
 30
0.0
 42
0.2237701453317173
  0
SEQEND
  5
8E
  8
0
  0
POLYLINE
  5
8F
  8
0
 66
     1
 10
0.0
 20
0.0
 30
0.0
  0
VERTEX
  5
90
  8
0
 10
211.80783308785061
 20
226.8765949215711
 30
0.0
 42
0.2237701453317369
  0
VERTEX
  5
91
  8
0
 10
210.854036710706
 20
226.42723160956371
 30
0.0
 42
0.0904136542735274
  0
VERTEX
  5
92
  8
0
 10
209.63123022401891
 20
224.24055595224999
 30
0.0
 42
0.0472389281878832
 70
     2
 50
251.11827876909311
  0
VERTEX
  5
93
  8
0
 10
208.9893623627313
 20
221.56133186601491
 30
0.0
 42
0.0351977384400185
 50
251.11827876909311
  0
VERTEX
  5
94
  8
0
 10
208.7296517979197
 20
217.8765949215711
 30
0.0
 42
0.0351977384400091
  0
SEQEND
  5
95
  8
0
  0
LINE
  5
96
  8
0
 10
197.71244377606189
 20
210.37659492156919
 30
0.0
 11
211.80783308785061
 21
208.87659492156939
 31
0.0
  0
LINE
  5
97
  8
0
 10
211.80783308785061
 20
208.87659492156939
 30
0.0
 11
234.00165883141801
 21
208.876594921573
 31
0.0
  0
LINE
  5
98
  8
0
 10
234.00165883141801
 20
226.87659492156851
 30
0.0
 11
211.80783308785061
 21
226.87659492157161
 31
0.0
  0
LINE
  5
99
  8
0
 10
211.80783308785061
 20
226.87659492157161
 30
0.0
 11
197.71244377606189
 21
225.37659492157439
 31
0.0
  0
LINE
  5
9A
  8
2
 10
154.71829196794999
 20
137.6421576105289
 30
0.0
 11
154.71829196794999
 21
135.6421576105289
 31
0.0
  0
LINE
  5
9B
  8
2
 10
161.71829196795011
 20
137.6421576105289
 30
0.0
 11
161.71829196795011
 21
135.6421576105289
 31
0.0
  0
ARC
  5
9C
  8
0
 10
187.5801780071684
 20
141.00481804811909
 30
0.0
 40
15.087706779823559
 50
180.44512137059911
 51
219.55487862940149
  0
LINE
  5
9F
  8
0
 10
208.72965179791959
 20
158.28019693062879
 30
0.0
 11
214.88601437778169
 21
141.36572975648249
 31
0.0
  0
CIRCLE
  5
A0
  8
0
 10
158.21829196794999
 20
53.547661870503582
 30
0.0
 40
17.99999999999994
  0
CIRCLE
  5
A1
  8
0
 10
158.21829196794999
 20
53.547661870503582
 30
0.0
 40
3.9999999999999711
  0
LINE
  5
A2
  8
1
 10
241.85920330410141
 20
53.547661870503582
 30
0.0
 11
135.21829196794999
 21
53.547661870503582
 31
0.0
  0
LINE
  5
A3
  8
1
 10
158.21829196794999
 20
76.547661870503532
 30
0.0
 11
158.21829196794999
 21
30.547661870503649
 31
0.0
  0
LINE
  5
A4
  8
0
 10
197.71244377606189
 20
58.547661870503582
 30
0.0
 11
175.50990843374061
 21
58.547661870503582
 31
0.0
  0
LINE
  5
A5
  8
0
 10
197.7124437760618
 20
48.547661870503582
 30
0.0
 11
175.50990843374061
 21
48.547661870503582
 31
0.0
  0
POLYLINE
  5
A6
  8
0
 66
     1
 10
0.0
 20
0.0
 30
0.0
  0
VERTEX
  5
A7
  8
0
 10
197.71244377606189
 20
48.547661870503582
 30
0.0
 42
0.2237701453317305
  0
VERTEX
  5
A8
  8
0
 10
198.2423306522534
 20
48.797308154952141
 30
0.0
 42
0.0904136542735142
  0
VERTEX
  5
A9
  8
0
 10
198.92166758930171
 20
50.012127964570858
 30
0.0
 42
0.0472389281878685
 70
     2
 50
71.118278769093337
  0
VERTEX
  5
AA
  8
0
 10
199.27826084557259
 20
51.500585790256757
 30
0.0
 42
0.0351977384400217
 50
71.118278769093337
  0
VERTEX
  5
AB
  8
0
 10
199.42254449269021
 20
53.547661870503582
 30
0.0
 42
0.0351977384400162
  0
VERTEX
  5
AC
  8
0
 10
199.27826084557259
 20
55.594737950749959
 30
0.0
 42
0.0472389281878848
  0
VERTEX
  5
AD
  8
0
 10
198.92166758930171
 20
57.083195776436312
 30
0.0
 42
0.0904136542735119
 70
     2
 50
108.88172123090661
  0
VERTEX
  5
AE
  8
0
 10
198.2423306522534
 20
58.298015586055037
 30
0.0
 42
0.2237701453317075
 50
108.88172123090661
  0
VERTEX
  5
AF
  8
0
 10
197.71244377606189
 20
58.547661870503582
 30
0.0
 42
0.2237701453317183
  0
SEQEND
  5
B0
  8
0
  0
POLYLINE
  5
B1
  8
0
 66
     1
 10
0.0
 20
0.0
 30
0.0
  0
VERTEX
  5
B2
  8
0
 10
197.71244377606189
 20
61.047661870503582
 30
0.0
 42
0.2237701453317343
  0
VERTEX
  5
B3
  8
0
 10
196.91761346177469
 20
60.673192443830729
 30
0.0
 42
0.0904136542735215
  0
VERTEX
  5
B4
  8
0
 10
195.89860805620211
 20
58.850962729402681
 30
0.0
 42
0.0057498608656606
 70
     2
 50
251.11827876909339
  0
VERTEX
  5
B5
  8
0
 10
195.79875379717791
 20
58.547661870503582
 30
0.0
 42
0.0447705691665149
 50
251.11827876909339
  0
SEQEND
  5
B6
  8
0
  0
POLYLINE
  5
B7
  8
0
 66
     1
 10
0.0
 20
0.0
 30
0.0
  0
VERTEX
  5
B8
  8
0
 10
195.7992930269634
 20
48.547661870503582
 30
0.0
 42
0.0065523209659387
  0
VERTEX
  5
B9
  8
0
 10
195.89860805620211
 20
48.244361011604497
 30
0.0
 42
0.0904136542735226
 70
     2
 50
288.88172123090652
  0
VERTEX
  5
BA
  8
0
 10
196.91761346177469
 20
46.422131297176399
 30
0.0
 42
0.2237701453317262
 50
288.88172123090652
  0
VERTEX
  5
BB
  8
0
 10
197.71244377606189
 20
46.047661870503582
 30
0.0
 42
0.2237701453317257
  0
VERTEX
  5
BC
  8
0
 10
198.507274090349
 20
46.422131297176392
 30
0.0
 42
0.0904136542735267
  0
VERTEX
  5
BD
  8
0
 10
199.52627949592161
 20
48.244361011604497
 30
0.0
 42
0.0472389281878729
 70
     2
 50
71.118278769093436
  0
VERTEX
  5
BE
  8
0
 10
200.06116938032801
 20
50.477047750133799
 30
0.0
 42
0.0351977384400086
 50
71.118278769093436
  0
VERTEX
  5
BF
  8
0
 10
200.27759485100441
 20
53.547661870503582
 30
0.0
 42
0.0351977384400109
  0
VERTEX
  5
C0
  8
0
 10
200.06116938032801
 20
56.618275990873592
 30
0.0
 42
0.0472389281878672
  0
VERTEX
  5
C1
  8
0
 10
199.52627949592161
 20
58.850962729402681
 30
0.0
 42
0.0904136542735346
 70
     2
 50
108.88172123090651
  0
VERTEX
  5
C2
  8
0
 10
198.507274090349
 20
60.673192443830771
 30
0.0
 42
0.223770145331733
 50
108.88172123090651
  0
VERTEX
  5
C3
  8
0
 10
197.71244377606189
 20
61.047661870503582
 30
0.0
 42
0.2237701453317343
  0
SEQEND
  5
C4
  8
0
  0
LINE
  5
C5
  8
0
 10
234.00165883141801
 20
62.547661870503589
 30
0.0
 11
211.80783308785061
 21
62.547661870503589
 31
0.0
  0
LINE
  5
C6
  8
0
 10
234.00165883141801
 20
44.547661870503589
 30
0.0
 11
211.80783308785061
 21
44.547661870503589
 31
0.0
  0
POLYLINE
  5
C7
  8
0
 66
     1
 10
0.0
 20
0.0
 30
0.0
  0
VERTEX
  5
C8
  8
0
 10
211.80783308785061
 20
44.547661870503603
 30
0.0
 42
0.2237701453317305
  0
VERTEX
  5
C9
  8
0
 10
212.76162946499531
 20
44.997025182511003
 30
0.0
 42
0.0904136542735273
  0
VERTEX
  5
CA
  8
0
 10
213.98443595168251
 20
47.18370083982466
 30
0.0
 42
0.0472389281878664
 70
     2
 50
71.118278769093081
  0
VERTEX
  5
CB
  8
0
 10
214.62630381297001
 20
49.86292492605935
 30
0.0
 42
0.0351977384400149
 50
71.118278769093081
  0
VERTEX
  5
CC
  8
0
 10
214.88601437778169
 20
53.547661870503582
 30
0.0
 42
0.0351977384400189
  0
VERTEX
  5
CD
  8
0
 10
214.62630381297001
 20
57.232398814947381
 30
0.0
 42
0.047238928187885
  0
VERTEX
  5
CE
  8
0
 10
213.98443595168251
 20
59.911622901182511
 30
0.0
 42
0.0904136542735252
 70
     2
 50
108.88172123090681
  0
VERTEX
  5
CF
  8
0
 10
212.76162946499531
 20
62.09829855849619
 30
0.0
 42
0.2237701453317241
 50
108.88172123090681
  0
VERTEX
  5
D0
  8
0
 10
211.80783308785061
 20
62.547661870503589
 30
0.0
 42
0.2237701453317173
  0
SEQEND
  5
D1
  8
0
  0
LINE
  5
D2
  8
0
 10
197.71244377606189
 20
61.047661870505991
 30
0.0
 11
211.80783308785061
 21
62.547661870504037
 31
0.0
  0
LINE
  5
D3
  8
0
 10
197.71244377606189
 20
46.047661870501123
 30
0.0
 11
211.80783308785061
 21
44.547661870504967
 31
0.0
  0
POLYLINE
  5
D4
  8
0
 66
     1
 10
0.0
 20
0.0
 30
0.0
  0
VERTEX
  5
D5
  8
0
 10
234.00165883141801
 20
44.547661870503589
 30
0.0
 42
0.2237701453317301
  0
VERTEX
  5
D6
  8
0
 10
234.95545520856271
 20
44.997025182510981
 30
0.0
 42
0.0904136542735295
  0
VERTEX
  5
D7
  8
0
 10
236.1782616952498
 20
47.18370083982466
 30
0.0
 42
0.0472389281878802
 70
     2
 50
71.118278769093081
  0
VERTEX
  5
D8
  8
0
 10
236.82012955653749
 20
49.862924926060032
 30
0.0
 42
0.0351977384400097
 50
71.118278769093081
  0
VERTEX
  5
D9
  8
0
 10
237.07984012134909
 20
53.547661870503582
 30
0.0
 42
0.0351977384400152
  0
VERTEX
  5
DA
  8
0
 10
236.82012955653741
 20
57.232398814947381
 30
0.0
 42
0.0472389281878799
  0
VERTEX
  5
DB
  8
0
 10
236.1782616952498
 20
59.911622901182511
 30
0.0
 42
0.0904136542735224
 70
     2
 50
108.88172123090681
  0
VERTEX
  5
DC
  8
0
 10
234.95545520856271
 20
62.098298558496232
 30
0.0
 42
0.2237701453317113
 50
108.88172123090681
  0
VERTEX
  5
DD
  8
0
 10
234.00165883141801
 20
62.547661870503589
 30
0.0
 42
0.2237701453317177
  0
SEQEND
  5
DE
  8
0
  0
LINE
  5
DF
  8
2
 10
61.718291967950108
 20
137.6421576105289
 30
0.0
 11
61.718291967950108
 21
135.6421576105289
 31
0.0
  0
LINE
  5
E0
  8
2
 10
54.718291967950051
 20
137.6421576105289
 30
0.0
 11
54.718291967950051
 21
135.6421576105289
 31
0.0
  0
ARC
  5
E1
  8
0
 10
44.918499506159712
 20
140.6421576105289
 30
0.0
 40
1.0
 50
90.0
 51
159.99999999999989
  0
LINE
  5
E2
  8
2
 10
61.71829196795008
 20
137.6421576105289
 30
0.0
 11
58.218291967950051
 21
139.66288355269259
 31
0.0
  0
LINE
  5
E3
  8
2
 10
54.718291967950051
 20
137.6421576105289
 30
0.0
 11
58.218291967950051
 21
139.66288355269259
 31
0.0
  0
LINE
  5
E4
  8
2
 10
54.718291967950051
 20
137.6421576105289
 30
0.0
 11
61.718291967950108
 21
137.6421576105289
 31
0.0
  0
LINE
  5
E5
  8
2
 10
54.218291967950051
 20
135.6421576105289
 30
0.0
 11
62.21829196795008
 21
135.6421576105289
 31
0.0
  0
LINE
  5
E6
  8
2
 10
62.218291967950051
 20
135.6421576105289
 30
0.0
 11
62.218291967950051
 21
123.6421576105289
 31
0.0
  0
LINE
  5
E7
  8
2
 10
54.218291967950051
 20
135.6421576105289
 30
0.0
 11
54.218291967950051
 21
123.6421576105289
 31
0.0
  0
LINE
  5
E8
  8
0
 10
43.978806885373842
 20
140.9841777538546
 30
0.0
 11
40.218291967950023
 21
130.65224793271051
 31
0.0
  0
LINE
  5
E9
  8
0
 10
44.918499506159712
 20
141.6421576105289
 30
0.0
 11
71.518084429740355
 21
141.6421576105289
 31
0.0
  0
LINE
  5
EA
  8
0
 10
76.218291967950051
 20
130.6522479327104
 30
0.0
 11
76.218291967950023
 21
123.6421576105289
 31
0.0
  0
LINE
  5
EB
  8
0
 10
40.218291967950051
 20
130.65224793271051
 30
0.0
 11
40.218291967950051
 21
123.6421576105289
 31
0.0
  0
LINE
  5
EC
  8
0
 10
40.218291967950051
 20
123.6421576105289
 30
0.0
 11
76.218291967950051
 21
123.6421576105289
 31
0.0
  0
LINE
  5
ED
  8
1
 10
58.218291967950023
 20
171.3580888857789
 30
0.0
 11
58.218291967950023
 21
118.6421576105288
 31
0.0
  0
LINE
  5
EE
  8
0
 10
72.457777050526261
 20
140.9841777538546
 30
0.0
 11
76.21829196795008
 21
130.65224793271051
 31
0.0
  0
ARC
  5
EF
  8
0
 10
71.518084429740384
 20
140.6421576105289
 30
0.0
 40
1.0
 50
20.000000000000099
 51
90.000000000000028
  0
LINE
  5
F0
  8
0
 10
53.218291967950023
 20
144.6926611936706
 30
0.0
 11
53.218291967950037
 21
141.6421576105289
 31
0.0
  0
LINE
  5
F1
  8
0
 10
63.218291967950023
 20
144.6926611936706
 30
0.0
 11
63.218291967950037
 21
141.6421576105289
 31
0.0
  0
POLYLINE
  5
F2
  8
0
 66
     1
 10
0.0
 20
0.0
 30
0.0
  0
VERTEX
  5
F3
  8
0
 10
63.218291967950002
 20
144.6926611936706
 30
0.0
 42
0.104167913129765
  0
VERTEX
  5
F4
  8
0
 10
62.842612931012781
 20
146.4763321427011
 30
0.0
 42
0.1006642326454013
  0
VERTEX
  5
F5
  8
0
 10
61.753825873882761
 20
148.01497631561401
 30
0.0
 42
0.0960755927009791
 70
     2
 50
136.7808211062856
  0
VERTEX
  5
F6
  8
0
 10
60.145988827869807
 20
149.0291876025222
 30
0.0
 42
0.0930649262564197
 50
136.7808211062856
  0
VERTEX
  5
F7
  8
0
 10
58.218291967950023
 20
149.39112429760019
 30
0.0
 42
0.0930649262564248
  0
VERTEX
  5
F8
  8
0
 10
56.29059510803021
 20
149.02918760252209
 30
0.0
 42
0.0960755927009807
  0
VERTEX
  5
F9
  8
0
 10
54.682758062017278
 20
148.01497631561401
 30
0.0
 42
0.1006642326454034
 70
     2
 50
223.2191788937142
  0
VERTEX
  5
FA
  8
0
 10
53.593971004887251
 20
146.4763321427011
 30
0.0
 42
0.1041679131297666
 50
223.2191788937142
  0
VERTEX
  5
FB
  8
0
 10
53.218291967950023
 20
144.6926611936706
 30
0.0
 42
0.1041679131297678
  0
SEQEND
  5
FC
  8
0
  0
POLYLINE
  5
FD
  8
0
 66
     1
 10
0.0
 20
0.0
 30
0.0
  0
VERTEX
  5
FE
  8
0
 10
50.718291967950037
 20
144.6926611936706
 30
0.0
 42
0.1041679131297648
  0
VERTEX
  5
FF
  8
0
 10
51.281810523355873
 20
142.0171547701249
 30
0.0
 42
0.0146427677729692
  0
VERTEX
  5
100
  8
0
 10
51.460398323289731
 20
141.6421576105289
 30
0.0
 42
0.0960755927009749
 70
     2
 50
316.78082110628583
  0
SEQEND
  5
101
  8
0
  0
POLYLINE
  5
102
  8
0
 66
     1
 10
0.0
 20
0.0
 30
0.0
  0
VERTEX
  5
103
  8
0
 10
64.976185612610351
 20
141.6421576105289
 30
0.0
 42
0.0146427677729676
 70
     2
 50
43.219178893714201
  0
VERTEX
  5
104
  8
0
 10
65.154773412544159
 20
142.01715477012479
 30
0.0
 42
0.1041679131297677
 50
43.219178893714201
  0
VERTEX
  5
105
  8
0
 10
65.718291967950023
 20
144.6926611936706
 30
0.0
 42
0.1041679131297721
  0
VERTEX
  5
106
  8
0
 10
65.154773412544159
 20
147.3681676172163
 30
0.0
 42
0.1006642326454074
  0
VERTEX
  5
107
  8
0
 10
63.521592826849123
 20
149.67613387658571
 30
0.0
 42
0.0960755927009755
 70
     2
 50
136.78082110628571
  0
VERTEX
  5
108
  8
0
 10
61.109837257829831
 20
151.1974508069479
 30
0.0
 42
0.0930649262564246
 50
136.78082110628571
  0
VERTEX
  5
109
  8
0
 10
58.218291967950023
 20
151.74035584956491
 30
0.0
 42
0.0930649262564261
  0
VERTEX
  5
10A
  8
0
 10
55.326746678070229
 20
151.1974508069479
 30
0.0
 42
0.0960755927009777
  0
VERTEX
  5
10B
  8
0
 10
52.914991109050931
 20
149.67613387658571
 30
0.0
 42
0.100664232645399
 70
     2
 50
223.2191788937142
  0
VERTEX
  5
10C
  8
0
 10
51.28181052335588
 20
147.36816761721639
 30
0.0
 42
0.1041679131297662
 50
223.2191788937142
  0
VERTEX
  5
10D
  8
0
 10
50.718291967950037
 20
144.6926611936706
 30
0.0
 42
0.1041679131297648
  0
SEQEND
  5
10E
  8
0
  0
POLYLINE
  5
10F
  8
0
 66
     1
 10
0.0
 20
0.0
 30
0.0
  0
VERTEX
  5
110
  8
0
 10
67.218291967950023
 20
157.90085529870521
 30
0.0
 42
0.1041679131297638
  0
VERTEX
  5
111
  8
0
 10
66.542069701462964
 20
161.11146300696029
 30
0.0
 42
0.1006642326453988
  0
VERTEX
  5
112
  8
0
 10
64.582252998628945
 20
163.88102251820351
 30
0.0
 42
0.0960755927009783
 70
     2
 50
136.78082110628461
  0
VERTEX
  5
113
  8
0
 10
61.688146315805682
 20
165.70660283463829
 30
0.0
 42
0.0930649262564225
 50
136.78082110628461
  0
VERTEX
  5
114
  8
0
 10
58.218291967950023
 20
166.3580888857787
 30
0.0
 42
0.093064926256429
  0
VERTEX
  5
115
  8
0
 10
54.748437620094251
 20
165.7066028346382
 30
0.0
 42
0.0960755927009785
  0
VERTEX
  5
116
  8
0
 10
51.854330937271101
 20
163.88102251820351
 30
0.0
 42
0.1006642326453996
 70
     2
 50
223.21917889371531
  0
VERTEX
  5
117
  8
0
 10
49.894514234437032
 20
161.11146300696021
 30
0.0
 42
0.1041679131297616
 50
223.21917889371531
  0
VERTEX
  5
118
  8
0
 10
49.218291967950023
 20
157.90085529870521
 30
0.0
 42
0.1041679131297564
  0
SEQEND
  5
119
  8
0
  0
LINE
  5
11A
  8
0
 10
49.218291967950023
 20
157.90085720605379
 30
0.0
 11
49.218291967950023
 21
149.8229652509043
 31
0.0
  0
LINE
  5
11B
  8
0
 10
67.218291967950023
 20
157.90085529870521
 30
0.0
 11
67.218291967950023
 21
149.8229652509043
 31
0.0
  0
LINE
  5
11C
  8
0
 10
40.218291967950051
 20
130.65224793271051
 30
0.0
 11
76.218291967950037
 21
130.65224793271059
 31
0.0
  0
LINE
  5
11D
  8
0
 10
140.21829196795011
 20
130.65224793271051
 30
0.0
 11
176.21829196794999
 21
130.6522479327104
 31
0.0
  0
LINE
  5
11E
  8
0
 10
300.21829196795011
 20
130.65224793271051
 30
0.0
 11
336.21829196795011
 21
130.6522479327104
 31
0.0
  0
LINE
  5
11F
  8
2
 10
321.71829196795011
 20
137.6421576105289
 30
0.0
 11
321.71829196795011
 21
135.6421576105289
 31
0.0
  0
LINE
  5
120
  8
2
 10
314.71829196794999
 20
137.6421576105289
 30
0.0
 11
314.71829196794999
 21
135.6421576105289
 31
0.0
  0
ARC
  5
121
  8
0
 10
304.91849950615972
 20
140.6421576105289
 30
0.0
 40
1.0
 50
90.0
 51
159.99999999999989
  0
LINE
  5
122
  8
2
 10
321.71829196795011
 20
137.6421576105289
 30
0.0
 11
318.21829196795011
 21
139.66288355269259
 31
0.0
  0
LINE
  5
123
  8
2
 10
314.71829196794999
 20
137.6421576105289
 30
0.0
 11
318.21829196795011
 21
139.66288355269259
 31
0.0
  0
LINE
  5
124
  8
2
 10
314.71829196794999
 20
137.6421576105289
 30
0.0
 11
321.71829196795011
 21
137.6421576105289
 31
0.0
  0
LINE
  5
125
  8
2
 10
314.21829196795011
 20
135.6421576105289
 30
0.0
 11
322.21829196795011
 21
135.6421576105289
 31
0.0
  0
LINE
  5
126
  8
2
 10
322.21829196795011
 20
135.6421576105289
 30
0.0
 11
322.21829196795011
 21
123.6421576105289
 31
0.0
  0
LINE
  5
127
  8
2
 10
314.21829196795011
 20
135.6421576105289
 30
0.0
 11
314.21829196795011
 21
123.6421576105289
 31
0.0
  0
LINE
  5
128
  8
0
 10
303.97880688537379
 20
140.9841777538546
 30
0.0
 11
300.21829196794999
 21
130.65224793271051
 31
0.0
  0
LINE
  5
129
  8
0
 10
304.91849950615972
 20
141.6421576105289
 30
0.0
 11
311.46039832328898
 21
141.6421576105289
 31
0.0
  0
LINE
  5
12A
  8
0
 10
336.21829196795011
 20
130.6522479327104
 30
0.0
 11
336.21829196794999
 21
123.6421576105289
 31
0.0
  0
LINE
  5
12B
  8
0
 10
300.21829196794999
 20
130.65224793271051
 30
0.0
 11
300.21829196794999
 21
123.6421576105289
 31
0.0
  0
LINE
  5
12C
  8
1
 10
318.21829196794999
 20
171.40808888577789
 30
0.0
 11
318.21829196794999
 21
118.6421576105288
 31
0.0
  0
LINE
  5
12D
  8
0
 10
300.21829196794999
 20
123.6421576105289
 30
0.0
 11
336.21829196795011
 21
123.6421576105289
 31
0.0
  0
LINE
  5
12E
  8
0
 10
332.45777705052609
 20
140.9841777538546
 30
0.0
 11
336.21829196794999
 21
130.65224793271051
 31
0.0
  0
ARC
  5
12F
  8
0
 10
331.51808442974033
 20
140.6421576105289
 30
0.0
 40
1.0
 50
20.000000000000082
 51
90.0
  0
LINE
  5
130
  8
0
 10
309.21829196794999
 20
157.90085529870521
 30
0.0
 11
309.21829196794999
 21
149.82296334355561
 31
0.0
  0
LINE
  5
131
  8
0
 10
327.21829196794999
 20
157.90085529870521
 30
0.0
 11
327.21829196794999
 21
149.82296334355561
 31
0.0
  0
POLYLINE
  5
132
  8
0
 66
     1
 10
0.0
 20
0.0
 30
0.0
 70
     1
  0
VERTEX
  5
133
  8
0
 10
309.21829196794999
 20
157.90085529870521
 30
0.0
 42
0.1041679131297659
  0
VERTEX
  5
134
  8
0
 10
309.89451423443711
 20
154.6902475904501
 30
0.0
 42
0.1006642326453943
  0
VERTEX
  5
135
  8
0
 10
311.85433093727107
 20
151.920688079207
 30
0.0
 42
0.096075592700961
 70
     2
 50
316.78082110628498
  0
VERTEX
  5
136
  8
0
 10
315.00997047270272
 20
149.9301348436131
 30
0.0
 42
0.1107981165819823
 50
316.78082110628498
  0
VERTEX
  5
137
  8
0
 10
318.21829196794999
 20
149.44362171163181
 30
0.0
 42
0.093064926256425
  0
VERTEX
  5
138
  8
0
 10
321.6881463158058
 20
150.09510776277219
 30
0.0
 42
0.0960755927009748
  0
VERTEX
  5
139
  8
0
 10
324.58225299862892
 20
151.920688079207
 30
0.0
 42
0.1006642326453942
 70
     2
 50
43.219178893715039
  0
VERTEX
  5
13A
  8
0
 10
326.54206970146288
 20
154.6902475904501
 30
0.0
 42
0.1041679131297659
 50
43.219178893715039
  0
VERTEX
  5
13B
  8
0
 10
327.21829196794999
 20
157.90085529870521
 30
0.0
 42
0.1041679131297592
  0
VERTEX
  5
13C
  8
0
 10
326.54206970146299
 20
161.11146300696029
 30
0.0
 42
0.1006642326453922
  0
VERTEX
  5
13D
  8
0
 10
324.58225299862892
 20
163.88102251820351
 30
0.0
 42
0.0960755927009864
 70
     2
 50
136.78082110628489
  0
VERTEX
  5
13E
  8
0
 10
321.68814631580568
 20
165.7066028346382
 30
0.0
 42
0.0930649262564345
 50
136.78082110628489
  0
VERTEX
  5
13F
  8
0
 10
318.21829196794999
 20
166.35808888577861
 30
0.0
 42
0.093064926256429
  0
VERTEX
  5
140
  8
0
 10
314.74843762009431
 20
165.7066028346382
 30
0.0
 42
0.0960755927009783
  0
VERTEX
  5
141
  8
0
 10
311.85433093727107
 20
163.88102251820351
 30
0.0
 42
0.1006642326453972
 70
     2
 50
223.219178893715
  0
VERTEX
  5
142
  8
0
 10
309.894514234437
 20
161.11146300696021
 30
0.0
 42
0.104167913129761
 50
223.219178893715
  0
SEQEND
  5
143
  8
0
  0
POLYLINE
  5
144
  8
0
 66
     1
 10
0.0
 20
0.0
 30
0.0
  0
VERTEX
  5
145
  8
0
 10
309.21829196794999
 20
149.8229633435557
 30
0.0
 42
0.104167913129761
  0
VERTEX
  5
146
  8
0
 10
309.894514234437
 20
146.6123556353007
 30
0.0
 42
0.1006642326453881
  0
VERTEX
  5
147
  8
0
 10
311.85433093727107
 20
143.8427961240576
 30
0.0
 42
0.09607559270097
 70
     2
 50
316.78082110628588
  0
VERTEX
  5
148
  8
0
 10
315.00997047270278
 20
141.85224288846379
 30
0.0
 42
0.1107981165819914
 50
316.78082110628588
  0
VERTEX
  5
149
  8
0
 10
318.21829196794999
 20
141.36572975648249
 30
0.0
 42
0.093064926256425
  0
VERTEX
  5
14A
  8
0
 10
321.6881463158058
 20
142.01721580762299
 30
0.0
 42
0.0960755927009769
  0
VERTEX
  5
14B
  8
0
 10
324.58225299862892
 20
143.8427961240576
 30
0.0
 42
0.1006642326453955
 70
     2
 50
43.219178893714073
  0
VERTEX
  5
14C
  8
0
 10
326.54206970146288
 20
146.6123556353007
 30
0.0
 42
0.1041679131297685
 50
43.219178893714073
  0
VERTEX
  5
14D
  8
0
 10
327.21829196794982
 20
149.8229633435557
 30
0.0
 42
0.1041679131297628
  0
SEQEND
  5
14E
  8
0
  0
LINE
  5
14F
  8
0
 10
324.9761856126101
 20
141.6421576105289
 30
0.0
 11
331.51808442974038
 21
141.6421576105289
 31
0.0
  0
LINE
  5
150
  8
0
 10
313.21829196794999
 20
139.43808499718719
 30
0.0
 11
313.21829196794999
 21
135.21944883725931
 31
0.0
  0
LINE
  5
151
  8
0
 10
323.21829196794999
 20
139.43928230217529
 30
0.0
 11
323.21829196794999
 21
135.21944883722441
 31
0.0
  0
POLYLINE
  5
152
  8
0
 66
     1
 10
0.0
 20
0.0
 30
0.0
  0
VERTEX
  5
153
  8
0
 10
313.16829196794998
 20
135.84451841282811
 30
0.0
 42
0.1103450657246201
  0
VERTEX
  5
154
  8
0
 10
313.54215322124111
 20
134.17109013712621
 30
0.0
 42
0.1026368401211587
  0
VERTEX
  5
155
  8
0
 10
314.64740272295791
 20
132.69944283470599
 30
0.0
 42
0.0933354799968273
 70
     2
 50
318.62787970158757
  0
VERTEX
  5
156
  8
0
 10
316.40872251521102
 20
131.6533333700782
 30
0.0
 42
0.1048522373148426
 50
318.62787970158757
  0
VERTEX
  5
157
  8
0
 10
318.21829196794999
 20
131.39670987555951
 30
0.0
 42
0.0876777126336722
  0
VERTEX
  5
158
  8
0
 10
320.17922616782522
 20
131.74323419063711
 30
0.0
 42
0.0933354799968241
  0
VERTEX
  5
159
  8
0
 10
321.78918121294208
 20
132.69944283470599
 30
0.0
 42
0.1026368401211961
 70
     2
 50
41.37212029841244
  0
VERTEX
  5
15A
  8
0
 10
322.89443071465888
 20
134.1710901371265
 30
0.0
 42
0.1103450657246347
 50
41.37212029841244
  0
VERTEX
  5
15B
  8
0
 10
323.26829196795001
 20
135.84451841282811
 30
0.0
 42
0.039931772898712
  0
VERTEX
  5
15C
  8
0
 10
323.21829196794999
 20
136.4695879884317
 30
0.0
 42
0.1026368401211586
  0
SEQEND
  5
15D
  8
0
  0
POLYLINE
  5
15E
  8
0
 66
     1
 10
0.0
 20
0.0
 30
0.0
  0
VERTEX
  5
15F
  8
0
 10
313.21829196794999
 20
136.4695879884317
 30
0.0
 42
0.0399317728987247
 50
221.37212029841251
  0
VERTEX
  5
160
  8
0
 10
313.16829196794998
 20
135.84451841282811
 30
0.0
 42
0.1103450657246201
  0
SEQEND
  5
161
  8
0
  0
LINE
  5
162
  8
0
 10
49.562574439148072
 20
147.50728745045581
 30
0.0
 11
51.005194027281739
 21
142.76293128275401
 31
0.0
  0
LINE
  5
163
  8
0
 10
66.874009496751967
 20
147.50728745045581
 30
0.0
 11
65.4313899086183
 21
142.76293128275401
 31
0.0
  0
POLYLINE
  5
164
  8
0
 66
     1
 10
0.0
 20
0.0
 30
0.0
  0
VERTEX
  5
165
  8
0
 10
66.874009496752194
 20
147.50728745045581
 30
0.0
 42
0.1794811895790315
  0
VERTEX
  5
166
  8
0
 10
66.542069701463006
 20
153.03357105181061
 30
0.0
 42
0.1006642326453995
  0
VERTEX
  5
167
  8
0
 10
64.582252998628945
 20
155.80313056305371
 30
0.0
 42
0.0960755927009743
 70
     2
 50
136.78082110628591
  0
VERTEX
  5
168
  8
0
 10
61.688146315805852
 20
157.62871087948841
 30
0.0
 42
0.0930649262564225
 50
136.78082110628591
  0
VERTEX
  5
169
  8
0
 10
58.218291967950023
 20
158.28019693062879
 30
0.0
 42
0.093064926256427
  0
VERTEX
  5
16A
  8
0
 10
54.748437620094187
 20
157.6287108794883
 30
0.0
 42
0.096075592700977
  0
VERTEX
  5
16B
  8
0
 10
51.854330937271101
 20
155.80313056305371
 30
0.0
 42
0.1006642326454013
 70
     2
 50
223.21917889371409
  0
VERTEX
  5
16C
  8
0
 10
49.894514234437068
 20
153.0335710518107
 30
0.0
 42
0.1794811895790306
 50
223.21917889371409
  0
VERTEX
  5
16D
  8
0
 10
49.562574439148072
 20
147.50728745045581
 30
0.0
 42
0.104167913129764
  0
SEQEND
  5
16E
  8
0
  0
LINE
  5
16F
  8
0
 10
309.56257443914808
 20
147.50728745045541
 30
0.0
 11
311.00519402728168
 21
142.76293128275381
 31
0.0
  0
LINE
  5
170
  8
0
 10
326.87400949675191
 20
147.50728745045541
 30
0.0
 11
325.43138990861831
 21
142.76293128275381
 31
0.0
  0
POLYLINE
  5
171
  8
0
 66
     1
 10
0.0
 20
0.0
 30
0.0
  0
VERTEX
  5
172
  8
0
 10
311.00519402728008
 20
142.76293128275381
 30
0.0
 42
0.030005783109135
  0
VERTEX
  5
173
  8
0
 10
311.28181052335577
 20
142.01715477012471
 30
0.0
 42
0.1006642326453913
  0
VERTEX
  5
174
  8
0
 10
312.9149911090509
 20
139.7091885107555
 30
0.0
 42
0.0960755927009757
 70
     2
 50
316.78082110628583
  0
VERTEX
  5
175
  8
0
 10
315.54469072191068
 20
138.0503941477607
 30
0.0
 42
0.1107981165819918
 50
316.78082110628583
  0
VERTEX
  5
176
  8
0
 10
318.21829196794999
 20
137.64496653777621
 30
0.0
 42
0.093064926256424
  0
VERTEX
  5
177
  8
0
 10
321.10983725782989
 20
138.18787158039331
 30
0.0
 42
0.096075592700973
  0
VERTEX
  5
178
  8
0
 10
323.52159282684909
 20
139.7091885107555
 30
0.0
 42
0.1006642326453973
 70
     2
 50
43.21917889371425
  0
VERTEX
  5
179
  8
0
 10
325.15477341254422
 20
142.01715477012479
 30
0.0
 42
0.0300057831091236
 50
43.21917889371425
  0
VERTEX
  5
17A
  8
0
 10
325.43138990861911
 20
142.76293128275381
 30
0.0
 42
0.104167913129774
  0
SEQEND
  5
17B
  8
0
  0
TEXT
  5
29F
  8
0
 62
     3
 10
0.0
 20
0.0
 30
0.0
 40
10.0
  1
WL80
  7
STANDARD1
  0
ENDSEC
  0
EOF
