  0
SECTION
  2
HEADER
  9
$ACADVER
  1
AC1009
  9
$INSBASE
 10
0.0
 20
0.0
 30
0.0
  9
$EXTMIN
 10
0.0
 20
-1.4802182810368341
 30
0.0
  9
$EXTMAX
 10
289.59040279645831
 20
213.49804073902021
 30
0.0
  9
$LIMMIN
 10
0.0
 20
0.0
  9
$LIMMAX
 10
385.0
 20
270.0
  9
$ORTHOMODE
 70
     1
  9
$REGENMODE
 70
     1
  9
$FILLMODE
 70
     1
  9
$QTEXTMODE
 70
     0
  9
$MIRRTEXT
 70
     0
  9
$DRAGMODE
 70
     2
  9
$LTSCALE
 40
10.0
  9
$OSMODE
 70
    55
  9
$ATTMODE
 70
     1
  9
$TEXTSIZE
 40
4.000000000000048
  9
$TRACEWID
 40
0.05
  9
$TEXTSTYLE
  7
STANDARD
  9
$CLAYER
  8
0
  9
$CELTYPE
  6
BYLAYER
  9
$CECOLOR
 62
   256
  9
$DIMSCALE
 40
1.0
  9
$DIMASZ
 40
3.0
  9
$DIMEXO
 40
2.0
  9
$DIMDLI
 40
0.38
  9
$DIMRND
 40
0.0
  9
$DIMDLE
 40
0.0
  9
$DIMEXE
 40
2.0
  9
$DIMTP
 40
0.0
  9
$DIMTM
 40
0.0
  9
$DIMTXT
 40
3.0
  9
$DIMCEN
 40
0.0
  9
$DIMTSZ
 40
0.0
  9
$DIMTOL
 70
     0
  9
$DIMLIM
 70
     0
  9
$DIMTIH
 70
     0
  9
$DIMTOH
 70
     0
  9
$DIMSE1
 70
     0
  9
$DIMSE2
 70
     0
  9
$DIMTAD
 70
     1
  9
$DIMZIN
 70
     0
  9
$DIMBLK
  1

  9
$DIMASO
 70
     1
  9
$DIMSHO
 70
     0
  9
$DIMPOST
  1

  9
$DIMAPOST
  1

  9
$DIMALT
 70
     0
  9
$DIMALTD
 70
     2
  9
$DIMALTF
 40
25.399999999999999
  9
$DIMLFAC
 40
1.0
  9
$DIMTOFL
 70
     1
  9
$DIMTVP
 40
1.6000000000000001
  9
$DIMTIX
 70
     1
  9
$DIMSOXD
 70
     0
  9
$DIMSAH
 70
     0
  9
$DIMBLK1
  1

  9
$DIMBLK2
  1

  9
$DIMSTYLE
  2
STANDARD
  9
$DIMCLRD
 70
     0
  9
$DIMCLRE
 70
     0
  9
$DIMCLRT
 70
     0
  9
$DIMTFAC
 40
1.0
  9
$DIMGAP
 40
1.0
  9
$LUNITS
 70
     2
  9
$LUPREC
 70
     4
  9
$SKETCHINC
 40
0.1
  9
$FILLETRAD
 40
0.0
  9
$AUNITS
 70
     0
  9
$AUPREC
 70
     4
  9
$MENU
  1
E:\r13\win\SUPPORT\ACAD
  9
$ELEVATION
 40
0.0
  9
$PELEVATION
 40
0.0
  9
$THICKNESS
 40
0.0
  9
$LIMCHECK
 70
     0
  9
$BLIPMODE
 70
     0
  9
$CHAMFERA
 40
0.0
  9
$CHAMFERB
 40
0.0
  9
$SKPOLY
 70
     0
  9
$TDCREATE
 40
2450280.598206134
  9
$TDUPDATE
 40
2456598.3912822111
  9
$TDINDWG
 40
0.0305552199
  9
$TDUSRTIMER
 40
0.0305552199
  9
$USRTIMER
 70
     1
  9
$ANGBASE
 50
0.0
  9
$ANGDIR
 70
     0
  9
$PDMODE
 70
     0
  9
$PDSIZE
 40
0.0
  9
$PLINEWID
 40
0.0
  9
$COORDS
 70
     1
  9
$SPLFRAME
 70
     0
  9
$SPLINETYPE
 70
     6
  9
$SPLINESEGS
 70
     8
  9
$ATTDIA
 70
     0
  9
$ATTREQ
 70
     1
  9
$HANDLING
 70
     1
  9
$HANDSEED
  5
604
  9
$SURFTAB1
 70
     6
  9
$SURFTAB2
 70
     6
  9
$SURFTYPE
 70
     6
  9
$SURFU
 70
     6
  9
$SURFV
 70
     6
  9
$UCSNAME
  2

  9
$UCSORG
 10
0.0
 20
0.0
 30
0.0
  9
$UCSXDIR
 10
1.0
 20
0.0
 30
0.0
  9
$UCSYDIR
 10
0.0
 20
1.0
 30
0.0
  9
$PUCSNAME
  2

  9
$PUCSORG
 10
0.0
 20
0.0
 30
0.0
  9
$PUCSXDIR
 10
1.0
 20
0.0
 30
0.0
  9
$PUCSYDIR
 10
0.0
 20
1.0
 30
0.0
  9
$USERI1
 70
     3
  9
$USERI2
 70
     1
  9
$USERI3
 70
     1
  9
$USERI4
 70
     0
  9
$USERI5
 70
     0
  9
$USERR1
 40
1.0
  9
$USERR2
 40
3.0
  9
$USERR3
 40
3.0
  9
$USERR4
 40
3.0
  9
$USERR5
 40
10.0
  9
$WORLDVIEW
 70
     1
  9
$SHADEDGE
 70
     3
  9
$SHADEDIF
 70
    70
  9
$TILEMODE
 70
     1
  9
$MAXACTVP
 70
    16
  9
$PLIMCHECK
 70
     0
  9
$PEXTMIN
 10
1.0000000000000000E+020
 20
1.0000000000000000E+020
 30
1.0000000000000000E+020
  9
$PEXTMAX
 10
-1.0000000000000000E+020
 20
-1.0000000000000000E+020
 30
-1.0000000000000000E+020
  9
$PLIMMIN
 10
0.0
 20
0.0
  9
$PLIMMAX
 10
12.0
 20
9.0
  9
$UNITMODE
 70
     0
  9
$VISRETAIN
 70
     0
  9
$PLINEGEN
 70
     0
  9
$PSLTSCALE
 70
     0
  0
ENDSEC
  0
SECTION
  2
TABLES
  0
TABLE
  2
VPORT
 70
     1
  0
VPORT
  2
*ACTIVE
 70
     0
 10
0.0
 20
0.0
 11
1.0
 21
1.0
 12
192.49412581440311
 22
197.44726035192559
 13
0.0
 23
0.0
 14
5.0
 24
5.0
 15
10.0
 25
10.0
 16
0.0
 26
0.0
 36
1.0
 17
0.0
 27
0.0
 37
0.0
 40
401.38042228973131
 41
1.7807262569832401
 42
50.0
 43
0.0
 44
0.0
 50
0.0
 51
0.0
 71
     0
 72
   500
 73
     1
 74
     0
 75
     0
 76
     0
 77
     0
 78
     2
  0
ENDTAB
  0
TABLE
  2
LTYPE
 70
     3
  0
LTYPE
  2
CONTINUOUS
 70
     0
  3
Solid Line
 72
    65
 73
     0
 40
0.0
  0
LTYPE
  2
CENTER
 70
     0
  3
____ _ ____ _ ____ _ ____ _ ____ _ ____ _ ____
 72
    65
 73
     4
 40
2.0
 49
1.25
 49
-0.25
 49
0.25
 49
-0.25
  0
LTYPE
  2
PHANTOM2
 70
     0
  3
___ _ _ ___ _ _ ___ _ _ ___ _ _
 72
    65
 73
     6
 40
1.25
 49
0.625
 49
-0.125
 49
0.125
 49
-0.125
 49
0.125
 49
-0.125
  0
ENDTAB
  0
TABLE
  2
LAYER
 70
     2
  0
LAYER
  2
0
 70
     0
 62
     7
  6
CONTINUOUS
  0
LAYER
  2
1
 70
     0
 62
     1
  6
CENTER
  0
ENDTAB
  0
TABLE
  2
STYLE
 70
     2
  0
STYLE
  2
STANDARD
 70
     0
 40
0.0
 41
1.0
 50
0.0
 71
     0
 42
4.000000000000048
  3
SIMPLEX
  4
BIGFONT
  0
STYLE
  2
STANDARD1
 70
     0
 40
0.0
 41
1.0
 50
0.0
 71
     0
 42
3.0
  3
txt
  4

  0
ENDTAB
  0
TABLE
  2
VIEW
 70
     0
  0
ENDTAB
  0
TABLE
  2
UCS
 70
     0
  0
ENDTAB
  0
TABLE
  2
APPID
 70
     3
  0
APPID
  2
ACAD
 70
     0
  0
APPID
  2
ACAD_MLEADERVER
 70
     0
  0
APPID
  2
ACAD_NAV_VCDISPLAY
 70
     0
  0
ENDTAB
  0
TABLE
  2
DIMSTYLE
 70
     1
  0
DIMSTYLE
  2
STANDARD
 70
     0
  3

  4

  5

  6

  7

 40
1.0
 41
0.18
 42
0.0625
 43
0.38
 44
0.18
 45
0.0
 46
0.0
 47
0.0
 48
0.0
140
0.18
141
0.09
142
0.0
143
25.399999999999999
144
1.0
145
0.0
146
1.0
147
0.09
 71
     0
 72
     0
 73
     1
 74
     1
 75
     0
 76
     0
 77
     0
 78
     0
170
     0
171
     2
172
     0
173
     0
174
     0
175
     0
176
     0
177
     0
178
     0
  0
ENDTAB
  0
ENDSEC
  0
SECTION
  2
BLOCKS
  0
BLOCK
  8
0
  2
$MODEL_SPACE
 70
     0
 10
0.0
 20
0.0
 30
0.0
  3
$MODEL_SPACE
  1

  0
ENDBLK
  5
494
  8
0
  0
BLOCK
 67
     1
  8
0
  2
$PAPER_SPACE
 70
     0
 10
0.0
 20
0.0
 30
0.0
  3
$PAPER_SPACE
  1

  0
ENDBLK
  5
492
 67
     1
  8
0
  0
BLOCK
  8
0
  2
STDGX5
 70
     0
 10
0.0
 20
0.0
 30
0.0
  3
STDGX5
  1

  0
ENDBLK
  5
415
  8
0
  0
ENDSEC
  0
SECTION
  2
ENTITIES
  0
LINE
  5
29A
  8
0
 10
183.53390922768421
 20
145.96562448703591
 30
0.0
 11
183.53390922768421
 21
132.965624487036
 31
0.0
  0
LINE
  5
29B
  8
1
 10
144.53390922768401
 20
139.465624487036
 30
0.0
 11
210.5339092276844
 21
139.465624487036
 31
0.0
  0
LINE
  5
29C
  8
0
 10
151.3339092276843
 20
142.465624487036
 30
0.0
 11
155.53390922768409
 21
142.465624487036
 31
0.0
  0
LINE
  5
29D
  8
0
 10
184.03390922768421
 20
146.465624487036
 30
0.0
 11
192.53390922768421
 21
146.465624487036
 31
0.0
  0
LINE
  5
29E
  8
0
 10
184.03390922768421
 20
132.465624487036
 30
0.0
 11
192.53390922768421
 21
132.465624487036
 31
0.0
  0
LINE
  5
29F
  8
0
 10
151.3339092276843
 20
136.465624487036
 30
0.0
 11
155.53390922768409
 21
136.465624487036
 31
0.0
  0
LINE
  5
2A0
  8
0
 10
155.53390922768409
 20
145.465624487036
 30
0.0
 11
155.53390922768409
 21
133.465624487036
 31
0.0
  0
LINE
  5
2A1
  8
0
 10
205.5339092276844
 20
150.46562448703619
 30
0.0
 11
205.5339092276844
 21
144.06562448703059
 31
0.0
  0
LINE
  5
2A2
  8
0
 10
201.0339092276844
 20
150.965624487036
 30
0.0
 11
201.03390922768449
 21
127.9656244870361
 31
0.0
  0
LINE
  5
2A3
  8
0
 10
192.53390922768421
 20
146.465624487036
 30
0.0
 11
192.53390922768421
 21
132.465624487036
 31
0.0
  0
LINE
  5
2A4
  8
0
 10
199.53390922768421
 20
151.965624487036
 30
0.0
 11
199.53390922768421
 21
126.965624487036
 31
0.0
  0
LINE
  5
2A5
  8
0
 10
192.53390922768421
 20
146.465624487036
 30
0.0
 11
199.53390922768421
 21
151.965624487036
 31
0.0
  0
LINE
  5
2A6
  8
0
 10
192.53390922768421
 20
132.465624487036
 30
0.0
 11
199.53390922768421
 21
126.965624487036
 31
0.0
  0
LINE
  5
2A7
  8
0
 10
205.0339092276844
 20
127.9656244870358
 30
0.0
 11
201.0339092276844
 21
127.9656244870359
 31
0.0
  0
LINE
  5
2A8
  8
0
 10
205.0339092276844
 20
150.96562448703619
 30
0.0
 11
201.0339092276844
 21
150.96562448703619
 31
0.0
  0
LINE
  5
2A9
  8
0
 10
184.03390922768421
 20
146.465624487036
 30
0.0
 11
184.03390922768421
 21
132.465624487036
 31
0.0
  0
LINE
  5
2AA
  8
0
 10
184.03390922768421
 20
132.465624487036
 30
0.0
 11
183.53390922768421
 21
132.965624487036
 31
0.0
  0
LINE
  5
2AB
  8
0
 10
184.03390922768421
 20
146.465624487036
 30
0.0
 11
183.53390922768421
 21
145.96562448703591
 31
0.0
  0
ARC
  5
2AC
  8
0
 10
205.0339092276844
 20
150.46562448703619
 30
0.0
 40
0.5
 50
0.0
 51
90.000000000000298
  0
ARC
  5
2AD
  8
0
 10
205.0339092276844
 20
128.4656244870358
 30
0.0
 40
0.5
 50
269.99999999999972
 51
0.0
  0
ARC
  5
2AE
  8
0
 10
199.53390922768421
 20
128.59062448703671
 30
0.0
 40
1.6250000000006251
 50
269.99999999985567
 51
337.38013505208647
  0
ARC
  5
2AF
  8
0
 10
199.53390922768421
 20
150.3406244870354
 30
0.0
 40
1.6250000000006251
 50
22.619864947913459
 51
90.000000000144311
  0
ARC
  5
2B0
  8
0
 10
205.53390922767841
 20
139.46562448703619
 30
0.0
 40
0.5999999999997954
 50
89.999999999424574
 51
270.00000000057543
  0
ARC
  5
2B1
  8
0
 10
205.53390922767841
 20
135.46562448703949
 30
0.0
 40
0.5999999999997954
 50
89.999999999424574
 51
270.00000000057543
  0
ARC
  5
2B2
  8
0
 10
205.5339092276844
 20
143.46562448703611
 30
0.0
 40
0.5999999999997954
 50
89.999999999424574
 51
270.00000000057543
  0
LINE
  5
2B3
  8
0
 10
205.5339092276844
 20
142.86562448704171
 30
0.0
 11
205.53390922768449
 21
140.06562448703971
 31
0.0
  0
LINE
  5
2B4
  8
0
 10
205.53390922768449
 20
138.8656244870327
 30
0.0
 11
205.5339092276844
 21
136.0656244870309
 31
0.0
  0
LINE
  5
2B5
  8
0
 10
205.5339092276844
 20
134.86562448704811
 30
0.0
 11
205.5339092276844
 21
128.4656244870358
 31
0.0
  0
CIRCLE
  5
2CA
  8
0
 10
272.0904027964587
 20
139.465624487036
 30
0.0
 40
12.499999999999631
  0
LINE
  5
2CB
  8
1
 10
272.0904027964587
 20
121.96562448703639
 30
0.0
 11
272.0904027964587
 21
156.9656244870356
 31
0.0
  0
LINE
  5
2CC
  8
1
 10
289.59040279645831
 20
139.465624487036
 30
0.0
 11
254.5904027964591
 21
139.465624487036
 31
0.0
  0
CIRCLE
  5
2CD
  8
0
 10
272.0904027964587
 20
139.465624487036
 30
0.0
 40
11.500000000000229
  0
LINE
  5
2CE
  8
0
 10
261.5504786980606
 20
144.06562448703659
 30
0.0
 11
282.63032689485698
 21
144.06562448703659
 31
0.0
  0
LINE
  5
2CF
  8
0
 10
261.10450274229783
 20
142.86562448703569
 30
0.0
 11
283.0763028506193
 21
142.86562448703569
 31
0.0
  0
LINE
  5
2D0
  8
0
 10
260.60606563665658
 20
140.06562448703369
 30
0.0
 11
283.5747399562606
 21
140.06562448703369
 31
0.0
  0
LINE
  5
2D1
  8
0
 10
260.60606563665669
 20
138.86562448703879
 30
0.0
 11
283.57473995626071
 21
138.8656244870387
 31
0.0
  0
LINE
  5
2D2
  8
0
 10
261.10450274229788
 20
136.06562448703701
 30
0.0
 11
283.07630285061941
 21
136.06562448703701
 31
0.0
  0
LINE
  5
2D3
  8
0
 10
261.55047869805742
 20
134.865624487042
 30
0.0
 11
282.63032689485999
 21
134.865624487042
 31
0.0
  0
LINE
  5
2F4
  8
0
 10
151.3339092276843
 20
136.465624487036
 30
0.0
 11
151.3339092276843
 21
142.465624487036
 31
0.0
  0
LINE
  5
2F5
  8
0
 10
151.3339092276843
 20
136.465624487036
 30
0.0
 11
149.95283462248671
 21
137.26298828211779
 31
0.0
  0
LINE
  5
2F6
  8
0
 10
151.3339092276843
 20
142.465624487036
 30
0.0
 11
149.95283462248699
 21
141.6682606919544
 31
0.0
  0
ARC
  5
2F7
  8
0
 10
155.53390922768429
 20
139.465624487036
 30
0.0
 40
6.0
 50
158.46275075361859
 51
201.53724924637871
  0
LINE
  5
2F8
  8
0
 10
149.95283462248599
 20
137.26298828211819
 30
0.0
 11
149.95283462248599
 21
141.6682606919538
 31
0.0
  0
CIRCLE
  5
306
  8
0
 10
90.910826406298213
 20
139.465624487036
 30
0.0
 40
12.499999999999631
  0
LINE
  5
307
  8
1
 10
108.4108264062978
 20
139.465624487036
 30
0.0
 11
73.410826406298582
 21
139.465624487036
 31
0.0
  0
LINE
  5
308
  8
1
 10
90.910826406298213
 20
156.9656244870356
 30
0.0
 11
90.910826406298213
 21
121.96562448703629
 31
0.0
  0
CIRCLE
  5
309
  8
0
 10
90.910826406298213
 20
139.465624487036
 30
0.0
 40
7.0000000000000284
  0
CIRCLE
  5
30A
  8
0
 10
90.910826406298213
 20
139.465624487036
 30
0.0
 40
3.0
  0
CIRCLE
  5
30B
  8
0
 10
90.910826406298213
 20
139.465624487036
 30
0.0
 40
2.2026362049170838
  0
LINE
  5
30C
  8
0
 10
156.53390922768409
 20
146.465624487036
 30
0.0
 11
182.53390922768409
 21
146.465624487036
 31
0.0
  0
LINE
  5
30D
  8
0
 10
156.53390922768409
 20
132.465624487036
 30
0.0
 11
182.53390922768421
 21
132.465624487036
 31
0.0
  0
LINE
  5
30E
  8
0
 10
156.53390922768409
 20
146.465624487036
 30
0.0
 11
155.53390922768409
 21
145.465624487036
 31
0.0
  0
LINE
  5
30F
  8
0
 10
155.53390922768409
 20
133.465624487036
 30
0.0
 11
156.53390922768409
 21
132.465624487036
 31
0.0
  0
LINE
  5
310
  8
0
 10
182.53390922768421
 20
146.465624487036
 30
0.0
 11
183.53390922768421
 21
145.465624487036
 31
0.0
  0
LINE
  5
311
  8
0
 10
183.53390922768421
 20
133.465624487036
 30
0.0
 11
182.53390922768421
 21
132.465624487036
 31
0.0
  0
LINE
  5
312
  8
0
 10
156.53390922768409
 20
146.465624487036
 30
0.0
 11
156.53390922768401
 21
132.465624487036
 31
0.0
  0
LINE
  5
313
  8
0
 10
182.53390922768421
 20
132.465624487036
 30
0.0
 11
182.53390922768421
 21
137.715624487036
 31
0.0
  0
LINE
  5
31C
  8
0
 10
177.03390922768421
 20
141.215624487036
 30
0.0
 11
177.03390922768421
 21
137.715624487036
 31
0.0
  0
LINE
  5
31D
  8
0
 10
177.03390922768421
 20
141.215624487036
 30
0.0
 11
183.53390922768409
 21
141.215624487036
 31
0.0
  0
LINE
  5
31E
  8
0
 10
177.03390922768421
 20
137.715624487036
 30
0.0
 11
183.53390922768409
 21
137.715624487036
 31
0.0
  0
LINE
  5
31F
  8
0
 10
182.53390922768421
 20
141.215624487036
 30
0.0
 11
182.53390922768421
 21
146.465624487036
 31
0.0
  0
LINE
  5
320
  8
0
 10
184.03390922768421
 20
84.933208235051865
 30
0.0
 11
192.53390922768421
 21
84.933208235051865
 31
0.0
  0
LINE
  5
321
  8
0
 10
184.03390922768421
 20
70.933208235051836
 30
0.0
 11
192.53390922768421
 21
70.933208235051836
 31
0.0
  0
LINE
  5
322
  8
1
 10
144.53390922768401
 20
77.933208235051836
 30
0.0
 11
210.5339092276844
 21
77.933208235051836
 31
0.0
  0
LINE
  5
323
  8
0
 10
183.53390922768421
 20
84.433208235051779
 30
0.0
 11
183.53390922768421
 21
71.433208235051836
 31
0.0
  0
LINE
  5
324
  8
0
 10
184.03390922768421
 20
84.933208235051865
 30
0.0
 11
184.03390922768421
 21
70.933208235051836
 31
0.0
  0
LINE
  5
325
  8
0
 10
182.53390922768421
 20
70.933208235051836
 30
0.0
 11
182.53390922768421
 21
84.933208235051822
 31
0.0
  0
LINE
  5
326
  8
0
 10
155.53390922768409
 20
83.933208235051836
 30
0.0
 11
155.53390922768409
 21
71.933208235051865
 31
0.0
  0
LINE
  5
327
  8
0
 10
156.53390922768409
 20
84.933208235051836
 30
0.0
 11
156.53390922768401
 21
70.933208235051865
 31
0.0
  0
LINE
  5
328
  8
0
 10
156.53390922768409
 20
70.933208235051865
 30
0.0
 11
182.53390922768421
 21
70.933208235051836
 31
0.0
  0
LINE
  5
329
  8
0
 10
155.53390922768409
 20
71.933208235051865
 30
0.0
 11
156.53390922768409
 21
70.933208235051865
 31
0.0
  0
LINE
  5
32A
  8
0
 10
184.03390922768421
 20
70.933208235051836
 30
0.0
 11
183.53390922768421
 21
71.433208235051836
 31
0.0
  0
LINE
  5
32B
  8
0
 10
183.53390922768421
 20
71.933208235051836
 30
0.0
 11
182.53390922768421
 21
70.933208235051836
 31
0.0
  0
LINE
  5
32C
  8
0
 10
156.53390922768409
 20
84.933208235051836
 30
0.0
 11
182.53390922768421
 21
84.933208235051822
 31
0.0
  0
LINE
  5
32D
  8
0
 10
156.53390922768409
 20
84.933208235051836
 30
0.0
 11
155.53390922768409
 21
83.933208235051836
 31
0.0
  0
LINE
  5
32E
  8
0
 10
151.3339092276843
 20
80.933208235051865
 30
0.0
 11
155.53390922768409
 21
80.933208235051865
 31
0.0
  0
LINE
  5
32F
  8
0
 10
151.3339092276843
 20
74.933208235051836
 30
0.0
 11
155.53390922768409
 21
74.933208235051836
 31
0.0
  0
LINE
  5
330
  8
0
 10
151.3339092276843
 20
74.933208235051836
 30
0.0
 11
151.3339092276843
 21
80.933208235051893
 31
0.0
  0
ARC
  5
331
  8
0
 10
155.53390922768429
 20
77.933208235051836
 30
0.0
 40
6.0
 50
158.46275075361859
 51
201.53724924637871
  0
LINE
  5
332
  8
0
 10
149.95283462248599
 20
75.730572030134013
 30
0.0
 11
149.95283462248599
 21
80.135844439969702
 31
0.0
  0
LINE
  5
333
  8
0
 10
151.3339092276843
 20
74.933208235051836
 30
0.0
 11
149.95283462248671
 21
75.730572030133658
 31
0.0
  0
LINE
  5
334
  8
0
 10
151.3339092276843
 20
80.933208235051865
 30
0.0
 11
149.95283462248699
 21
80.135844439970228
 31
0.0
  0
LINE
  5
335
  8
0
 10
182.53390922768421
 20
84.933208235051836
 30
0.0
 11
183.53390922768421
 21
83.933208235051836
 31
0.0
  0
LINE
  5
33A
  8
0
 10
184.03390922768421
 20
84.933208235051865
 30
0.0
 11
183.53390922768421
 21
84.433208235051794
 31
0.0
  0
LINE
  5
33B
  8
0
 10
201.0339092276844
 20
89.433208235051865
 30
0.0
 11
201.03390922768449
 21
66.433208235051907
 31
0.0
  0
LINE
  5
33C
  8
0
 10
192.53390922768421
 20
84.933208235051865
 30
0.0
 11
192.53390922768421
 21
70.933208235051836
 31
0.0
  0
LINE
  5
33D
  8
0
 10
199.53390922768421
 20
90.433208235051865
 30
0.0
 11
199.53390922768421
 21
65.43320823505185
 31
0.0
  0
ARC
  5
33E
  8
0
 10
205.53390922767841
 20
73.933208235055361
 30
0.0
 40
0.5999999999997954
 50
89.999999999424574
 51
270.00000000057543
  0
LINE
  5
33F
  8
0
 10
205.0339092276844
 20
66.433208235051666
 30
0.0
 11
201.0339092276844
 21
66.433208235051737
 31
0.0
  0
LINE
  5
340
  8
0
 10
192.53390922768421
 20
70.933208235051836
 30
0.0
 11
199.53390922768421
 21
65.43320823505185
 31
0.0
  0
ARC
  5
341
  8
0
 10
199.53390922768421
 20
67.058208235052518
 30
0.0
 40
1.6250000000006251
 50
269.99999999985567
 51
337.38013505208647
  0
LINE
  5
342
  8
0
 10
205.5339092276844
 20
73.333208235063921
 30
0.0
 11
205.5339092276844
 21
66.933208235051666
 31
0.0
  0
ARC
  5
343
  8
0
 10
205.0339092276844
 20
66.933208235051666
 30
0.0
 40
0.5
 50
269.99999999999972
 51
0.0
  0
LINE
  5
344
  8
0
 10
205.0339092276844
 20
89.433208235052064
 30
0.0
 11
201.0339092276844
 21
89.433208235052035
 31
0.0
  0
LINE
  5
345
  8
0
 10
192.53390922768421
 20
84.933208235051865
 30
0.0
 11
199.53390922768421
 21
90.433208235051865
 31
0.0
  0
ARC
  5
346
  8
0
 10
199.53390922768421
 20
88.808208235051225
 30
0.0
 40
1.6250000000006251
 50
22.619864947913459
 51
90.000000000144311
  0
LINE
  5
347
  8
0
 10
205.5339092276844
 20
88.933208235052064
 30
0.0
 11
205.5339092276844
 21
82.533208235046459
 31
0.0
  0
LINE
  5
348
  8
0
 10
205.5339092276844
 20
81.333208235057597
 30
0.0
 11
205.53390922768449
 21
78.533208235055554
 31
0.0
  0
LINE
  5
349
  8
0
 10
205.53390922768449
 20
77.333208235048517
 30
0.0
 11
205.5339092276844
 21
74.533208235046743
 31
0.0
  0
ARC
  5
34A
  8
0
 10
205.53390922767841
 20
77.933208235052064
 30
0.0
 40
0.5999999999997954
 50
89.999999999424574
 51
270.00000000057543
  0
ARC
  5
34B
  8
0
 10
205.5339092276844
 20
81.933208235052007
 30
0.0
 40
0.5999999999997954
 50
89.999999999424574
 51
270.00000000057543
  0
ARC
  5
34C
  8
0
 10
205.0339092276844
 20
88.933208235052064
 30
0.0
 40
0.5
 50
0.0
 51
90.000000000000298
  0
LINE
  5
34D
  8
0
 10
184.03390922768421
 20
207.9980407390201
 30
0.0
 11
192.53390922768421
 21
207.9980407390201
 31
0.0
  0
LINE
  5
34E
  8
0
 10
184.03390922768421
 20
193.9980407390201
 30
0.0
 11
192.53390922768421
 21
193.9980407390201
 31
0.0
  0
LINE
  5
34F
  8
1
 10
144.53390922768401
 20
200.99804073902021
 30
0.0
 11
210.5339092276844
 21
200.99804073902021
 31
0.0
  0
LINE
  5
350
  8
0
 10
156.53390922768409
 20
193.9980407390201
 30
0.0
 11
182.53390922768421
 21
193.99804073902021
 31
0.0
  0
LINE
  5
351
  8
0
 10
156.53390922768409
 20
207.9980407390201
 30
0.0
 11
182.53390922768421
 21
207.9980407390201
 31
0.0
  0
LINE
  5
352
  8
0
 10
155.53390922768409
 20
206.9980407390201
 30
0.0
 11
156.53390922768409
 21
207.9980407390201
 31
0.0
  0
LINE
  5
353
  8
0
 10
156.53390922768409
 20
193.9980407390201
 30
0.0
 11
156.53390922768401
 21
207.9980407390201
 31
0.0
  0
LINE
  5
354
  8
0
 10
155.53390922768409
 20
194.9980407390201
 30
0.0
 11
155.53390922768409
 21
206.9980407390201
 31
0.0
  0
LINE
  5
355
  8
0
 10
151.3339092276843
 20
203.9980407390201
 30
0.0
 11
155.53390922768409
 21
203.9980407390201
 31
0.0
  0
LINE
  5
356
  8
0
 10
151.3339092276843
 20
197.9980407390201
 30
0.0
 11
155.53390922768409
 21
197.9980407390201
 31
0.0
  0
LINE
  5
357
  8
0
 10
151.3339092276843
 20
203.9980407390201
 30
0.0
 11
151.3339092276843
 21
197.9980407390201
 31
0.0
  0
LINE
  5
358
  8
0
 10
149.95283462248599
 20
203.20067694393799
 30
0.0
 11
149.95283462248599
 21
198.79540453410229
 31
0.0
  0
ARC
  5
359
  8
0
 10
155.53390922768429
 20
200.99804073902021
 30
0.0
 40
6.0
 50
158.46275075362141
 51
201.53724924638129
  0
LINE
  5
35A
  8
0
 10
151.3339092276843
 20
203.9980407390201
 30
0.0
 11
149.95283462248671
 21
203.2006769439383
 31
0.0
  0
LINE
  5
35B
  8
0
 10
151.3339092276843
 20
197.9980407390201
 30
0.0
 11
149.95283462248699
 21
198.79540453410169
 31
0.0
  0
LINE
  5
35C
  8
0
 10
156.53390922768409
 20
193.9980407390201
 30
0.0
 11
155.53390922768409
 21
194.9980407390201
 31
0.0
  0
LINE
  5
35D
  8
0
 10
182.53390922768421
 20
207.9980407390201
 30
0.0
 11
182.53390922768421
 21
193.9980407390201
 31
0.0
  0
LINE
  5
35E
  8
0
 10
183.53390922768421
 20
206.99804073902021
 30
0.0
 11
182.53390922768421
 21
207.9980407390201
 31
0.0
  0
LINE
  5
35F
  8
0
 10
184.03390922768421
 20
193.9980407390201
 30
0.0
 11
184.03390922768421
 21
207.9980407390201
 31
0.0
  0
LINE
  5
360
  8
0
 10
183.53390922768421
 20
194.49804073902021
 30
0.0
 11
183.53390922768421
 21
207.49804073902021
 31
0.0
  0
LINE
  5
361
  8
0
 10
184.03390922768421
 20
207.9980407390201
 30
0.0
 11
183.53390922768421
 21
207.49804073902021
 31
0.0
  0
LINE
  5
362
  8
0
 10
184.03390922768421
 20
193.9980407390201
 30
0.0
 11
183.53390922768421
 21
194.49804073902021
 31
0.0
  0
LINE
  5
363
  8
0
 10
182.53390922768421
 20
193.9980407390201
 30
0.0
 11
183.53390922768421
 21
194.9980407390201
 31
0.0
  0
LINE
  5
364
  8
0
 10
205.5339092276844
 20
205.5980407390081
 30
0.0
 11
205.5339092276844
 21
211.9980407390203
 31
0.0
  0
LINE
  5
365
  8
0
 10
199.53390922768421
 20
188.4980407390201
 30
0.0
 11
199.53390922768421
 21
213.49804073902021
 31
0.0
  0
LINE
  5
366
  8
0
 10
192.53390922768421
 20
193.9980407390201
 30
0.0
 11
192.53390922768421
 21
207.9980407390201
 31
0.0
  0
LINE
  5
367
  8
0
 10
201.0339092276844
 20
189.4980407390201
 30
0.0
 11
201.03390922768449
 21
212.4980407390201
 31
0.0
  0
LINE
  5
368
  8
0
 10
205.0339092276844
 20
212.4980407390203
 30
0.0
 11
201.0339092276844
 21
212.4980407390203
 31
0.0
  0
LINE
  5
369
  8
0
 10
192.53390922768421
 20
207.9980407390201
 30
0.0
 11
199.53390922768421
 21
213.49804073902021
 31
0.0
  0
ARC
  5
36A
  8
0
 10
199.53390922768421
 20
211.8730407390195
 30
0.0
 40
1.6250000000006251
 50
22.619864947913101
 51
90.000000000144325
  0
ARC
  5
36B
  8
0
 10
205.0339092276844
 20
211.9980407390203
 30
0.0
 40
0.5
 50
0.0
 51
90.000000000000298
  0
LINE
  5
36C
  8
0
 10
205.0339092276844
 20
189.4980407390199
 30
0.0
 11
201.0339092276844
 21
189.4980407390199
 31
0.0
  0
LINE
  5
36D
  8
0
 10
192.53390922768421
 20
193.9980407390201
 30
0.0
 11
199.53390922768421
 21
188.4980407390201
 31
0.0
  0
ARC
  5
36E
  8
0
 10
199.53390922768421
 20
190.12304073902069
 30
0.0
 40
1.6250000000006251
 50
269.99999999985567
 51
337.38013505208693
  0
ARC
  5
36F
  8
0
 10
205.5339092276844
 20
196.99804073902001
 30
0.0
 40
0.5999999999997954
 50
89.999999999424602
 51
270.00000000057543
  0
LINE
  5
370
  8
0
 10
205.53390922768449
 20
201.5980407390235
 30
0.0
 11
205.5339092276844
 21
204.39804073902519
 31
0.0
  0
ARC
  5
371
  8
0
 10
205.53390922767841
 20
204.9980407390166
 30
0.0
 40
0.5999999999997954
 50
89.999999999424602
 51
270.00000000057543
  0
ARC
  5
372
  8
0
 10
205.53390922767841
 20
200.9980407390199
 30
0.0
 40
0.5999999999997954
 50
89.999999999424602
 51
270.00000000057543
  0
LINE
  5
373
  8
0
 10
205.5339092276844
 20
197.59804073901441
 30
0.0
 11
205.53390922768449
 21
200.39804073901649
 31
0.0
  0
LINE
  5
374
  8
0
 10
205.5339092276844
 20
189.9980407390199
 30
0.0
 11
205.5339092276844
 21
196.3980407390255
 31
0.0
  0
ARC
  5
375
  8
0
 10
205.0339092276844
 20
189.9980407390199
 30
0.0
 40
0.5
 50
269.99999999999972
 51
0.0
  0
INSERT
  5
43F
  8
0
  2
STDGX5
 10
0.0
 20
0.0
 30
0.0
 41
0.25
 42
0.25
 43
0.25
  0
INSERT
  5
440
  8
0
  2
STDGX5
 10
0.0
 20
0.0
 30
0.0
 41
0.25
 42
0.25
 43
0.25
  0
INSERT
  5
441
  8
0
  2
STDGX5
 10
68.75
 20
0.0
 30
0.0
 41
0.25
 42
0.25
 43
0.25
  0
INSERT
  5
442
  8
0
  2
STDGX5
 10
68.75
 20
0.0
 30
0.0
 41
0.25
 42
0.25
 43
0.25
  0
INSERT
  5
443
  8
0
  2
STDGX5
 10
0.0
 20
0.0
 30
0.0
 41
0.5
 42
0.5
 43
0.5
  0
INSERT
  5
444
  8
0
  2
STDGX5
 10
0.0
 20
0.0
 30
0.0
 41
0.5
 42
0.5
 43
0.5
  0
INSERT
  5
445
  8
0
  2
STDGX5
 10
137.5
 20
0.0
 30
0.0
 41
0.5
 42
0.5
 43
0.5
  0
INSERT
  5
446
  8
0
  2
STDGX5
 10
137.5
 20
0.0
 30
0.0
 41
0.5
 42
0.5
 43
0.5
  0
INSERT
  5
448
  8
0
  2
STDGX5
 10
-35.0
 20
-100.0
 30
0.0
 41
0.3333333333333333
 42
0.3333333333333333
 43
0.3333333333333333
  0
INSERT
  5
449
  8
0
  2
STDGX5
 10
-35.0
 20
-100.0
 30
0.0
 41
0.3333333333333333
 42
0.3333333333333333
 43
0.3333333333333333
  0
INSERT
  5
44A
  8
0
  2
STDGX5
 10
56.666666666666643
 20
-100.0
 30
0.0
 41
0.3333333333333333
 42
0.3333333333333333
 43
0.3333333333333333
  0
INSERT
  5
44B
  8
0
  2
STDGX5
 10
56.666666666666643
 20
-100.0
 30
0.0
 41
0.3333333333333333
 42
0.3333333333333333
 43
0.3333333333333333
  0
INSERT
  5
44D
  8
0
  2
STDGX5
 10
-35.0
 20
-100.0
 30
0.0
 41
0.3333333333333333
 42
0.3333333333333333
 43
0.3333333333333333
  0
INSERT
  5
44E
  8
0
  2
STDGX5
 10
-35.0
 20
-100.0
 30
0.0
 41
0.3333333333333333
 42
0.3333333333333333
 43
0.3333333333333333
  0
INSERT
  5
44F
  8
0
  2
STDGX5
 10
56.666666666666657
 20
-100.0
 30
0.0
 41
0.3333333333333333
 42
0.3333333333333333
 43
0.3333333333333333
  0
INSERT
  5
450
  8
0
  2
STDGX5
 10
56.666666666666657
 20
-100.0
 30
0.0
 41
0.3333333333333333
 42
0.3333333333333333
 43
0.3333333333333333
  0
INSERT
  5
451
  8
0
  2
STDGX5
 10
0.0
 20
0.0
 30
0.0
  0
INSERT
  5
452
  8
0
  2
STDGX5
 10
0.0
 20
0.0
 30
0.0
  0
INSERT
  5
453
  8
0
  2
STDGX5
 10
275.0
 20
0.0
 30
0.0
  0
INSERT
  5
454
  8
0
  2
STDGX5
 10
275.0
 20
0.0
 30
0.0
  0
TEXT
  5
574
  8
0
 62
     3
 10
0.0
 20
0.0
 30
0.0
 40
5.0
  1
WDX12L-SUS
  7
STANDARD1
  0
ENDSEC
  0
EOF
