  0
SECTION
  2
HEADER
  9
$ACADVER
  1
AC1009
  9
$INSBASE
 10
0.0
 20
0.0
 30
0.0
  9
$EXTMIN
 10
0.0
 20
-2.960436562073669
 30
0.0
  9
$EXTMAX
 10
239.99999999999989
 20
393.0
 30
0.0
  9
$LIMMIN
 10
0.0
 20
0.0
  9
$LIMMAX
 10
375.0
 20
270.0
  9
$ORTHOMODE
 70
     1
  9
$REGENMODE
 70
     1
  9
$FILLMODE
 70
     1
  9
$QTEXTMODE
 70
     0
  9
$MIRRTEXT
 70
     0
  9
$DRAGMODE
 70
     2
  9
$LTSCALE
 40
10.0
  9
$OSMODE
 70
    37
  9
$ATTMODE
 70
     1
  9
$TEXTSIZE
 40
4.000000000000048
  9
$TRACEWID
 40
0.05
  9
$TEXTSTYLE
  7
STANDARD
  9
$CLAYER
  8
0
  9
$CELTYPE
  6
BYLAYER
  9
$CECOLOR
 62
   256
  9
$DIMSCALE
 40
1.0
  9
$DIMASZ
 40
3.0
  9
$DIMEXO
 40
2.0
  9
$DIMDLI
 40
0.38
  9
$DIMRND
 40
0.0
  9
$DIMDLE
 40
0.0
  9
$DIMEXE
 40
2.0
  9
$DIMTP
 40
0.0
  9
$DIMTM
 40
0.0
  9
$DIMTXT
 40
3.2000000000000002
  9
$DIMCEN
 40
0.0
  9
$DIMTSZ
 40
0.0
  9
$DIMTOL
 70
     0
  9
$DIMLIM
 70
     0
  9
$DIMTIH
 70
     0
  9
$DIMTOH
 70
     0
  9
$DIMSE1
 70
     0
  9
$DIMSE2
 70
     0
  9
$DIMTAD
 70
     1
  9
$DIMZIN
 70
     0
  9
$DIMBLK
  1

  9
$DIMASO
 70
     0
  9
$DIMSHO
 70
     0
  9
$DIMPOST
  1

  9
$DIMAPOST
  1

  9
$DIMALT
 70
     0
  9
$DIMALTD
 70
     2
  9
$DIMALTF
 40
25.399999999999999
  9
$DIMLFAC
 40
1.0
  9
$DIMTOFL
 70
     0
  9
$DIMTVP
 40
1.6000000000000001
  9
$DIMTIX
 70
     1
  9
$DIMSOXD
 70
     0
  9
$DIMSAH
 70
     0
  9
$DIMBLK1
  1

  9
$DIMBLK2
  1

  9
$DIMSTYLE
  2
STANDARD
  9
$DIMCLRD
 70
     4
  9
$DIMCLRE
 70
     4
  9
$DIMCLRT
 70
     4
  9
$DIMTFAC
 40
1.0
  9
$DIMGAP
 40
0.09
  9
$LUNITS
 70
     2
  9
$LUPREC
 70
     1
  9
$SKETCHINC
 40
0.1
  9
$FILLETRAD
 40
0.0
  9
$AUNITS
 70
     0
  9
$AUPREC
 70
     0
  9
$MENU
  1
E:\r13\win\SUPPORT\ACAD
  9
$ELEVATION
 40
0.0
  9
$PELEVATION
 40
0.0
  9
$THICKNESS
 40
0.0
  9
$LIMCHECK
 70
     0
  9
$BLIPMODE
 70
     0
  9
$CHAMFERA
 40
1.1999999999999991
  9
$CHAMFERB
 40
1.1999999999999991
  9
$SKPOLY
 70
     0
  9
$TDCREATE
 40
2450095.671215394
  9
$TDUPDATE
 40
2457968.425670845
  9
$TDINDWG
 40
0.0322107176
  9
$TDUSRTIMER
 40
0.0322107176
  9
$USRTIMER
 70
     1
  9
$ANGBASE
 50
0.0
  9
$ANGDIR
 70
     0
  9
$PDMODE
 70
     0
  9
$PDSIZE
 40
0.0
  9
$PLINEWID
 40
0.0
  9
$COORDS
 70
     1
  9
$SPLFRAME
 70
     0
  9
$SPLINETYPE
 70
     6
  9
$SPLINESEGS
 70
     8
  9
$ATTDIA
 70
     0
  9
$ATTREQ
 70
     1
  9
$HANDLING
 70
     1
  9
$HANDSEED
  5
FA1
  9
$SURFTAB1
 70
     6
  9
$SURFTAB2
 70
     6
  9
$SURFTYPE
 70
     6
  9
$SURFU
 70
     6
  9
$SURFV
 70
     6
  9
$UCSNAME
  2

  9
$UCSORG
 10
0.0
 20
0.0
 30
0.0
  9
$UCSXDIR
 10
1.0
 20
0.0
 30
0.0
  9
$UCSYDIR
 10
0.0
 20
1.0
 30
0.0
  9
$PUCSNAME
  2

  9
$PUCSORG
 10
0.0
 20
0.0
 30
0.0
  9
$PUCSXDIR
 10
1.0
 20
0.0
 30
0.0
  9
$PUCSYDIR
 10
0.0
 20
1.0
 30
0.0
  9
$USERI1
 70
     0
  9
$USERI2
 70
     1
  9
$USERI3
 70
     0
  9
$USERI4
 70
     0
  9
$USERI5
 70
     0
  9
$USERR1
 40
0.0
  9
$USERR2
 40
0.0
  9
$USERR3
 40
0.0
  9
$USERR4
 40
0.0
  9
$USERR5
 40
0.0
  9
$WORLDVIEW
 70
     1
  9
$SHADEDGE
 70
     3
  9
$SHADEDIF
 70
    70
  9
$TILEMODE
 70
     1
  9
$MAXACTVP
 70
    16
  9
$PLIMCHECK
 70
     0
  9
$PEXTMIN
 10
1.0000000000000000E+020
 20
1.0000000000000000E+020
 30
1.0000000000000000E+020
  9
$PEXTMAX
 10
-1.0000000000000000E+020
 20
-1.0000000000000000E+020
 30
-1.0000000000000000E+020
  9
$PLIMMIN
 10
0.0
 20
0.0
  9
$PLIMMAX
 10
12.0
 20
9.0
  9
$UNITMODE
 70
     0
  9
$VISRETAIN
 70
     0
  9
$PLINEGEN
 70
     0
  9
$PSLTSCALE
 70
     0
  0
ENDSEC
  0
SECTION
  2
TABLES
  0
TABLE
  2
VPORT
 70
     1
  0
VPORT
  2
*ACTIVE
 70
     0
 10
0.0
 20
0.0
 11
1.0
 21
1.0
 12
454.05982905982899
 22
250.0
 13
0.0
 23
0.0
 14
10.0
 24
10.0
 15
10.0
 25
10.0
 16
0.0
 26
0.0
 36
1.0
 17
0.0
 27
0.0
 37
0.0
 40
500.0
 41
1.816239316239316
 42
50.0
 43
0.0
 44
0.0
 50
0.0
 51
0.0
 71
     0
 72
   500
 73
     1
 74
     0
 75
     0
 76
     0
 77
     0
 78
     2
  0
ENDTAB
  0
TABLE
  2
LTYPE
 70
     3
  0
LTYPE
  2
CONTINUOUS
 70
     0
  3
Solid Line
 72
    65
 73
     0
 40
0.0
  0
LTYPE
  2
CENTER
 70
     0
  3
____ _ ____ _ ____ _ ____ _ ____ _ ____ _ ____
 72
    65
 73
     4
 40
2.0
 49
1.25
 49
-0.25
 49
0.25
 49
-0.25
  0
LTYPE
  2
PHANTOM2
 70
     0
  3
___ _ _ ___ _ _ ___ _ _ ___ _ _
 72
    65
 73
     6
 40
1.25
 49
0.625
 49
-0.125
 49
0.125
 49
-0.125
 49
0.125
 49
-0.125
  0
ENDTAB
  0
TABLE
  2
LAYER
 70
     3
  0
LAYER
  2
0
 70
     0
 62
     7
  6
CONTINUOUS
  0
LAYER
  2
1
 70
     0
 62
     1
  6
CENTER
  0
LAYER
  2
DEFPOINTS
 70
     0
 62
     7
  6
CONTINUOUS
  0
ENDTAB
  0
TABLE
  2
STYLE
 70
     2
  0
STYLE
  2
STANDARD
 70
     0
 40
0.0
 41
1.0
 50
0.0
 71
     0
 42
4.000000000000048
  3
SIMPLEX
  4
BIGFONT
  0
STYLE
  2
STANDARD1
 70
     0
 40
0.0
 41
1.0
 50
0.0
 71
     0
 42
3.0
  3
txt
  4

  0
ENDTAB
  0
TABLE
  2
VIEW
 70
     1
  0
VIEW
  2
ALL
 70
     0
 40
270.0
 10
220.59941989218049
 20
135.0
 41
441.19883978436093
 11
0.0
 21
0.0
 31
1.0
 12
0.0
 22
0.0
 32
0.0
 42
50.0
 43
0.0
 44
0.0
 50
0.0
 71
     0
  0
ENDTAB
  0
TABLE
  2
UCS
 70
     0
  0
ENDTAB
  0
TABLE
  2
APPID
 70
    29
  0
APPID
  2
ACAD
 70
     0
  0
APPID
  2
DCO15
 70
     0
  0
APPID
  2
GENIUS_GENOREF_13
 70
     0
  0
APPID
  2
GENIUS_GENOENT_13
 70
     0
  0
APPID
  2
GENIUS_GENBH_13
 70
     0
  0
APPID
  2
GENIUS_GENOBJ_13
 70
     0
  0
APPID
  2
GENIUS_GENODEF_13
 70
     0
  0
APPID
  2
GENIUS_GENOLIS_13
 70
     0
  0
APPID
  2
GENIUS_GENOBJ-NBEHI-BHF_13
 70
     0
  0
APPID
  2
GENIUS_GENOBJ-NBEHI-BHB_13
 70
     0
  0
APPID
  2
GENIUS_GENOBJ-F-PART_13
 70
     0
  0
APPID
  2
GENIUS_GEFSTDP_13
 70
     0
  0
APPID
  2
GENIUS_GENOBJ-N-RSSYM_13
 70
     0
  0
APPID
  2
GENIUS_GENSYMENT_13
 70
     0
  0
APPID
  2
GENIUS_GENOBJ-N-TIT_13
 70
     0
  0
APPID
  2
GENIUS_GENTITLE_13
 70
     0
  0
APPID
  2
GENIUS_GENZVEED_13
 70
     0
  0
APPID
  2
GENIUS_GENOBJ-N-LEADER_13
 70
     0
  0
APPID
  2
GENIUS_GENOBJ-N-FIL_13
 70
     0
  0
APPID
  2
GENIUS_GENOBJ-N-SEC_13
 70
     0
  0
APPID
  2
GENIUS_GENOBJ-N-CRS_13
 70
     0
  0
APPID
  2
GENIUS_GENOBJ-N-ZOO_13
 70
     0
  0
APPID
  2
GENIUS_GENZOO_13
 70
     0
  0
APPID
  2
GENIUS_GENOBJ-F-TOL_13
 70
     0
  0
APPID
  2
GENIUS_GENFIL_13
 70
     0
  0
APPID
  2
GENIUS_GENOBJ-N-CHA_13
 70
     0
  0
APPID
  2
ACAD_MLEADERVER
 70
     0
  0
APPID
  2
ACAD_EXEMPT_FROM_CAD_STANDARDS
 70
     0
  0
APPID
  2
ACAD_NAV_VCDISPLAY
 70
     0
  0
ENDTAB
  0
TABLE
  2
DIMSTYLE
 70
     1
  0
DIMSTYLE
  2
STANDARD
 70
     0
  3

  4

  5

  6

  7

 40
1.0
 41
0.18
 42
0.0625
 43
0.38
 44
0.18
 45
0.0
 46
0.0
 47
0.0
 48
0.0
140
0.18
141
0.09
142
0.0
143
25.399999999999999
144
1.0
145
0.0
146
1.0
147
0.09
 71
     0
 72
     0
 73
     1
 74
     1
 75
     0
 76
     0
 77
     0
 78
     0
170
     0
171
     2
172
     0
173
     0
174
     0
175
     0
176
     0
177
     0
178
     0
  0
ENDTAB
  0
ENDSEC
  0
SECTION
  2
BLOCKS
  0
BLOCK
  8
0
  2
$MODEL_SPACE
 70
     0
 10
0.0
 20
0.0
 30
0.0
  3
$MODEL_SPACE
  1

  0
ENDBLK
  5
10E
  8
0
  0
BLOCK
 67
     1
  8
0
  2
$PAPER_SPACE
 70
     0
 10
0.0
 20
0.0
 30
0.0
  3
$PAPER_SPACE
  1

  0
ENDBLK
  5
10C
 67
     1
  8
0
  0
ENDSEC
  0
SECTION
  2
ENTITIES
  0
TEXT
  5
A57
  8
0
 62
     3
 10
0.0
 20
0.0
 30
0.0
 40
10.0
  1
WCU4040-3M
  7
STANDARD1
  0
LINE
  5
C14
  8
0
 10
74.699999999467593
 20
201.5
 30
0.0
 11
74.300000000550014
 21
201.5
 31
0.0
  0
ARC
  5
C15
  8
0
 10
74.699999998899955
 20
201.80000000000001
 30
0.0
 40
0.3000000000000114
 50
270.00000010840228
 51
29.99999994759305
  0
LINE
  5
C16
  8
0
 10
73.920577140882699
 20
203.74999999846261
 30
0.0
 11
74.959807620146023
 21
201.94999999974709
 31
0.0
  0
ARC
  5
C17
  8
0
 10
73.487564435500005
 20
203.49999999549999
 30
0.0
 40
0.5000000045042016
 50
30.000000094007479
 51
89.999999742165187
  0
LINE
  5
C18
  8
0
 10
66.512435572261609
 20
204.0
 30
0.0
 11
73.487564437749995
 21
204.0
 31
0.0
  0
ARC
  5
C19
  8
0
 10
66.512435574499989
 20
203.49999999549999
 30
0.0
 40
0.5000000045084027
 50
90.000000256499462
 51
149.9999999052076
  0
LINE
  5
C1A
  8
0
 10
65.040192389837046
 20
201.9499999997484
 30
0.0
 11
66.079422869116968
 21
203.7499999984706
 31
0.0
  0
ARC
  5
C1B
  8
0
 10
65.300000011099939
 20
201.80000000000001
 30
0.0
 40
0.3000000000000114
 50
150.000000053788
 51
269.99999989495882
  0
LINE
  5
C1C
  8
0
 10
65.700000009467473
 20
201.5
 30
0.0
 11
65.300000010549923
 21
201.5
 31
0.0
  0
ARC
  5
C1D
  8
0
 10
65.700000008899963
 20
201.19999999999999
 30
0.0
 40
0.2999999999999971
 50
329.99999987395188
 51
89.999999891597724
  0
LINE
  5
C1E
  8
0
 10
65.497927410093155
 20
200.25000000017809
 30
0.0
 11
65.959807629692079
 21
201.0499999994361
 31
0.0
  0
ARC
  5
C1F
  8
0
 10
65.064914705500016
 20
200.50000000450001
 30
0.0
 40
0.5000000045000093
 50
270.00000025782828
 51
329.99999972584709
  0
LINE
  5
C20
  8
0
 10
51.000000002050001
 20
200.0
 30
0.0
 11
65.064914707750006
 21
200.0
 31
0.0
  0
ARC
  5
C21
  8
0
 10
51.000000004099952
 20
201.0000000041
 30
0.0
 40
1.0000000041000019
 50
180.00000011605101
 51
269.99999988254359
  0
LINE
  5
C22
  8
0
 10
50.0
 20
236.69999999255
 30
0.0
 11
50.0
 21
201.0000000020745
 31
0.0
  0
ARC
  5
C23
  8
0
 10
50.300000014899979
 20
236.69999998509999
 30
0.0
 40
0.3000000148999931
 50
90.000001420205095
 51
179.99999857715761
  0
LINE
  5
C24
  8
0
 10
50.30000000746378
 20
237.0
 30
0.0
 11
51.199999992549969
 21
237.0
 31
0.0
  0
ARC
  5
C25
  8
0
 10
51.199999985099957
 20
236.69999998509999
 30
0.0
 40
0.3000000149000358
 50
0.0000014201985786
 51
89.999998577150293
  0
LINE
  5
C26
  8
0
 10
51.5
 20
233.30000000745
 30
0.0
 11
51.5
 21
236.69999999253611
 31
0.0
  0
ARC
  5
C27
  8
0
 10
51.800000014899979
 20
233.30000001490001
 30
0.0
 40
0.3000000149000074
 50
180.0000014228456
 51
269.99999857979492
  0
LINE
  5
C28
  8
0
 10
55.199999992549976
 20
233.0
 30
0.0
 11
51.80000000746378
 21
233.0
 31
0.0
  0
ARC
  5
C29
  8
0
 10
55.199999985099957
 20
233.30000001490001
 30
0.0
 40
0.3000000149000074
 50
270.00000142284972
 51
359.99999857979981
  0
LINE
  5
C2A
  8
0
 10
55.499999999999943
 20
235.65000000000001
 30
0.0
 11
55.499999999999943
 21
233.30000000746381
 31
0.0
  0
LINE
  5
C2B
  8
0
 10
55.499999999999943
 20
235.65000000000001
 30
0.0
 11
54.430806920549969
 21
235.65000000000001
 31
0.0
  0
ARC
  5
C2C
  8
0
 10
54.430806921099979
 20
235.94999999859999
 30
0.0
 40
0.2999999986000006
 50
144.9999998593747
 51
269.9999998949524
  0
LINE
  5
C2D
  8
0
 10
55.410424500263332
 20
237.87207293037611
 30
0.0
 11
54.18506130942643
 21
236.12207292927471
 31
0.0
  0
ARC
  5
C2E
  8
0
 10
55.65617011379998
 20
237.7000000001
 30
0.0
 40
0.2999999998999954
 50
90.000000367253207
 51
145.00000012582129
  0
LINE
  5
C2F
  8
0
 10
55.656170111877088
 20
238.0
 30
0.0
 11
56.199999982549961
 21
238.0
 31
0.0
  0
ARC
  5
C30
  8
0
 10
56.199999975099963
 20
237.69999998509999
 30
0.0
 40
0.3000000148999931
 50
0.0000014201985786
 51
89.999998577150293
  0
LINE
  5
C31
  8
0
 10
56.499999989999942
 20
233.30000000745
 30
0.0
 11
56.499999989999942
 21
237.69999999253619
 31
0.0
  0
ARC
  5
C32
  8
0
 10
56.800000004900028
 20
233.30000001490001
 30
0.0
 40
0.3000000149000358
 50
180.0000014228456
 51
269.99999857979492
  0
LINE
  5
C33
  8
0
 10
59.199999982549969
 20
233.0
 30
0.0
 11
56.799999997463829
 21
233.0
 31
0.0
  0
ARC
  5
C34
  8
0
 10
59.199999975099963
 20
233.30000001490001
 30
0.0
 40
0.3000000149000074
 50
270.00000142284972
 51
0.0
  0
LINE
  5
C35
  8
0
 10
59.499999989999928
 20
233.30000001490001
 30
0.0
 11
59.499999989999928
 21
233.94999999255
 31
0.0
  0
ARC
  5
C36
  8
0
 10
59.800000004900028
 20
233.94999998509999
 30
0.0
 40
0.3000000149000358
 50
90.000001420205095
 51
179.9999985771552
  0
LINE
  5
C37
  8
0
 10
59.799999997463821
 20
234.25
 30
0.0
 11
60.199999982549969
 21
234.25
 31
0.0
  0
ARC
  5
C38
  8
0
 10
60.199999975099949
 20
233.94999998509999
 30
0.0
 40
0.3000000148999931
 50
0.0000014201985786
 51
89.999998577156845
  0
LINE
  5
C39
  8
0
 10
60.499999989999928
 20
230.55000000745
 30
0.0
 11
60.499999989999928
 21
233.94999999253619
 31
0.0
  0
ARC
  5
C3A
  8
0
 10
60.199999975099949
 20
230.55000001490001
 30
0.0
 40
0.3000000148999931
 50
270.0000014201986
 51
359.99999857715602
  0
LINE
  5
C3B
  8
0
 10
60.199999982536092
 20
230.25
 30
0.0
 11
59.799999997450008
 21
230.25
 31
0.0
  0
ARC
  5
C3C
  8
0
 10
59.800000004900028
 20
230.55000001490001
 30
0.0
 40
0.3000000149000358
 50
180.00000142020181
 51
269.99999857715039
  0
LINE
  5
C3D
  8
0
 10
59.499999989999928
 20
230.55000000746381
 30
0.0
 11
59.499999989999928
 21
231.19999998509999
 31
0.0
  0
ARC
  5
C3E
  8
0
 10
59.199999975099963
 20
231.19999998509999
 30
0.0
 40
0.3000000148999931
 50
0.0
 51
89.999998579801414
  0
LINE
  5
C3F
  8
0
 10
56.299999997449952
 20
231.5
 30
0.0
 11
59.199999982536099
 21
231.5
 31
0.0
  0
ARC
  5
C40
  8
0
 10
56.300000004900028
 20
231.19999998509999
 30
0.0
 40
0.3000000149000074
 50
90.000001422849664
 51
179.9999985798014
  0
LINE
  5
C41
  8
0
 10
55.999999989999992
 20
231.19999999253619
 30
0.0
 11
55.999999989999942
 21
229.80000000745
 31
0.0
  0
ARC
  5
C42
  8
0
 10
55.699999975099949
 20
229.80000001490001
 30
0.0
 40
0.3000000148999931
 50
270.0000014201986
 51
359.99999857715602
  0
LINE
  5
C43
  8
0
 10
55.699999982536099
 20
229.5
 30
0.0
 11
55.299999997449959
 21
229.5
 31
0.0
  0
ARC
  5
C44
  8
0
 10
55.300000004899971
 20
229.80000001490001
 30
0.0
 40
0.3000000149000074
 50
180.00000142020181
 51
269.99999857715039
  0
LINE
  5
C45
  8
0
 10
54.999999989999992
 20
229.80000000746389
 30
0.0
 11
54.999999989999992
 21
231.19999998509999
 31
0.0
  0
ARC
  5
C46
  8
0
 10
54.699999975099949
 20
231.19999998509999
 30
0.0
 40
0.3000000149000073
 50
0.0
 51
89.999998579801414
  0
LINE
  5
C47
  8
0
 10
52.299999997449959
 20
231.5
 30
0.0
 11
54.699999982536099
 21
231.5
 31
0.0
  0
ARC
  5
C48
  8
0
 10
52.300000004899971
 20
231.19999998509999
 30
0.0
 40
0.3000000149000074
 50
90.000001422849664
 51
179.9999985798014
  0
LINE
  5
C49
  8
0
 10
51.999999989999928
 20
228.80000000745
 30
0.0
 11
51.999999989999928
 21
231.19999999253619
 31
0.0
  0
ARC
  5
C4A
  8
0
 10
52.300000004899971
 20
228.80000001490001
 30
0.0
 40
0.3000000149000074
 50
180.00000142284799
 51
269.9999985798014
  0
LINE
  5
C4B
  8
0
 10
52.299999997463821
 20
228.5
 30
0.0
 11
53.699999982549961
 21
228.5
 31
0.0
  0
ARC
  5
C4C
  8
0
 10
53.699999975099963
 20
228.19999998509999
 30
0.0
 40
0.3000000149000074
 50
0.0
 51
89.999998577150293
  0
LINE
  5
C4D
  8
0
 10
53.999999989999942
 20
228.19999998509999
 30
0.0
 11
53.999999989999942
 21
227.80000001490001
 31
0.0
  0
ARC
  5
C4E
  8
0
 10
53.699999975099963
 20
227.80000001490001
 30
0.0
 40
0.3000000148999931
 50
270.0000014201986
 51
0.0
  0
LINE
  5
C4F
  8
0
 10
53.699999982536099
 20
227.5
 30
0.0
 11
52.299999997449959
 21
227.5
 31
0.0
  0
ARC
  5
C50
  8
0
 10
52.300000004899971
 20
227.19999998509999
 30
0.0
 40
0.3000000149000074
 50
90.000001422849664
 51
179.9999985798014
  0
LINE
  5
C51
  8
0
 10
51.999999989999928
 20
206.30000000745
 30
0.0
 11
51.999999989999928
 21
227.19999999253619
 31
0.0
  0
ARC
  5
C52
  8
0
 10
52.300000004899971
 20
206.30000001490001
 30
0.0
 40
0.3000000149000074
 50
180.0000014228456
 51
269.9999985798014
  0
LINE
  5
C53
  8
0
 10
52.299999997463821
 20
206.0
 30
0.0
 11
53.699999982549961
 21
206.0
 31
0.0
  0
ARC
  5
C54
  8
0
 10
53.699999975099963
 20
205.69999998509999
 30
0.0
 40
0.3000000148999931
 50
0.0
 51
89.999998577150293
  0
LINE
  5
C55
  8
0
 10
53.999999989999942
 20
205.69999998509999
 30
0.0
 11
53.999999989999942
 21
205.30000001490001
 31
0.0
  0
ARC
  5
C56
  8
0
 10
53.699999975099963
 20
205.30000001490001
 30
0.0
 40
0.3000000149000074
 50
270.0000014201986
 51
0.0
  0
LINE
  5
C57
  8
0
 10
53.699999982536099
 20
205.0
 30
0.0
 11
52.299999997449959
 21
205.0
 31
0.0
  0
ARC
  5
C58
  8
0
 10
52.300000004899971
 20
204.69999998509999
 30
0.0
 40
0.3000000149000074
 50
90.000001422849664
 51
179.99999857979901
  0
LINE
  5
C59
  8
0
 10
51.999999989999928
 20
202.30000000745
 30
0.0
 11
51.999999989999928
 21
204.69999999253619
 31
0.0
  0
ARC
  5
C5A
  8
0
 10
52.300000004899971
 20
202.30000001490001
 30
0.0
 40
0.3000000149000074
 50
180.0000014228456
 51
269.9999985798014
  0
LINE
  5
C5B
  8
0
 10
54.699999982549969
 20
202.0
 30
0.0
 11
52.299999997463821
 21
202.0
 31
0.0
  0
ARC
  5
C5C
  8
0
 10
54.699999975099949
 20
202.30000001490001
 30
0.0
 40
0.3000000149000074
 50
270.00000142284972
 51
0.0
  0
LINE
  5
C5D
  8
0
 10
54.999999989999992
 20
202.30000001490001
 30
0.0
 11
54.999999989999992
 21
203.69999999255
 31
0.0
  0
ARC
  5
C5E
  8
0
 10
55.300000004899971
 20
203.69999998509999
 30
0.0
 40
0.3000000148999931
 50
90.000001420198572
 51
179.9999985771552
  0
LINE
  5
C5F
  8
0
 10
55.299999997463829
 20
204.0
 30
0.0
 11
55.699999982549969
 21
204.0
 31
0.0
  0
ARC
  5
C60
  8
0
 10
55.699999975099949
 20
203.69999998509999
 30
0.0
 40
0.3000000149000074
 50
0.0000014202010213
 51
89.999998577150293
  0
LINE
  5
C61
  8
0
 10
55.999999989999942
 20
203.69999999253619
 30
0.0
 11
55.999999989999942
 21
202.30000000745
 31
0.0
  0
ARC
  5
C62
  8
0
 10
56.300000004900028
 20
202.30000001490001
 30
0.0
 40
0.3000000149000358
 50
180.00000142284799
 51
269.99999857979492
  0
LINE
  5
C63
  8
0
 10
62.179274045500001
 20
202.0
 30
0.0
 11
56.299999997463829
 21
202.0
 31
0.0
  0
ARC
  5
C64
  8
0
 10
62.179274040999992
 20
203.00000000899999
 30
0.0
 40
1.0000000090084049
 50
270.00000025782828
 51
329.99999981342881
  0
LINE
  5
C65
  8
0
 10
63.940192369903627
 20
204.0499999998332
 30
0.0
 11
63.045299450957771
 21
202.5000000016758
 31
0.0
  0
ARC
  5
C66
  8
0
 10
63.680384748899939
 20
204.19999999999999
 30
0.0
 40
0.2999999999999971
 50
329.99999995984228
 51
89.999999891597724
  0
LINE
  5
C67
  8
0
 10
63.680384749467571
 20
204.5
 30
0.0
 11
63.26961523054996
 21
204.5
 31
0.0
  0
ARC
  5
C68
  8
0
 10
63.904700534500023
 20
205.49999999549999
 30
0.0
 40
0.5000000045042073
 50
90.000000256499462
 51
149.99999972657659
  0
LINE
  5
C69
  8
0
 10
76.095299447750051
 20
206.0
 30
0.0
 11
63.904700532261643
 21
206.0
 31
0.0
  0
ARC
  5
C6A
  8
0
 10
76.095299445499961
 20
205.49999999549999
 30
0.0
 40
0.5000000045042343
 50
30.00000027294109
 51
89.999999742165187
  0
LINE
  5
C6B
  8
0
 10
76.528312150102053
 20
205.74999999981489
 30
0.0
 11
76.990192369677573
 21
204.95000000055839
 31
0.0
  0
ARC
  5
C6C
  8
0
 10
76.730384748900008
 20
204.80000000000001
 30
0.0
 40
0.2999999999999971
 50
270.00000010840228
 51
30.000000126530391
  0
LINE
  5
C6D
  8
0
 10
76.730384749467532
 20
204.5
 30
0.0
 11
76.319615230550028
 21
204.5
 31
0.0
  0
ARC
  5
C6E
  8
0
 10
76.319615231100045
 20
204.19999999999999
 30
0.0
 40
0.2999999999999971
 50
90.000000105047661
 51
210.00000099482361
  0
LINE
  5
C6F
  8
0
 10
76.954700549036772
 20
202.5000000016683
 30
0.0
 11
76.059807627595603
 21
204.05000000416459
 31
0.0
  0
ARC
  5
C70
  8
0
 10
77.820725958999958
 20
203.00000000899999
 30
0.0
 40
1.0000000090168151
 50
210.00000018678881
 51
269.99999974350061
  0
LINE
  5
C71
  8
0
 10
83.700000002549984
 20
202.0
 30
0.0
 11
77.820725954523184
 21
202.0
 31
0.0
  0
ARC
  5
C72
  8
0
 10
83.699999995099986
 20
202.30000001490001
 30
0.0
 40
0.3000000149000074
 50
270.00000142284972
 51
0.0
  0
LINE
  5
C73
  8
0
 10
84.000000009999951
 20
202.30000001490001
 30
0.0
 11
84.000000009999951
 21
203.69999999255
 31
0.0
  0
ARC
  5
C74
  8
0
 10
84.30000002489993
 20
203.69999998509999
 30
0.0
 40
0.3000000149000074
 50
90.000001420205095
 51
179.9999985771552
  0
LINE
  5
C75
  8
0
 10
84.300000017463773
 20
204.0
 30
0.0
 11
84.700000002549984
 21
204.0
 31
0.0
  0
ARC
  5
C76
  8
0
 10
84.699999995099972
 20
203.69999998509999
 30
0.0
 40
0.3000000149000074
 50
0.0000014202010213
 51
89.999998577150293
  0
LINE
  5
C77
  8
0
 10
85.000000009999937
 20
203.69999999253619
 30
0.0
 11
85.000000009999937
 21
202.30000000745
 31
0.0
  0
ARC
  5
C78
  8
0
 10
85.30000002489993
 20
202.30000001490001
 30
0.0
 40
0.3000000149000358
 50
180.00000142284799
 51
269.99999857979492
  0
LINE
  5
C79
  8
0
 10
87.700000002549984
 20
202.0
 30
0.0
 11
85.300000017463773
 21
202.0
 31
0.0
  0
ARC
  5
C7A
  8
0
 10
87.699999995099958
 20
202.30000001490001
 30
0.0
 40
0.3000000149000358
 50
270.00000142284972
 51
359.99999857979981
  0
LINE
  5
C7B
  8
0
 10
88.000000009999951
 20
204.69999999255
 30
0.0
 11
88.000000009999951
 21
202.30000000746381
 31
0.0
  0
ARC
  5
C7C
  8
0
 10
87.699999995099958
 20
204.69999998509999
 30
0.0
 40
0.3000000149000358
 50
0.0000014228448001
 51
89.999998579794905
  0
LINE
  5
C7D
  8
0
 10
87.700000002536115
 20
205.0
 30
0.0
 11
86.300000017450031
 21
205.0
 31
0.0
  0
ARC
  5
C7E
  8
0
 10
86.300000024899916
 20
205.30000001490001
 30
0.0
 40
0.3000000149000074
 50
180.0000014201994
 51
269.99999857715039
  0
LINE
  5
C7F
  8
0
 10
86.000000009999965
 20
205.30000000746389
 30
0.0
 11
86.000000009999965
 21
205.69999999255
 31
0.0
  0
ARC
  5
C80
  8
0
 10
86.300000024899916
 20
205.69999998509999
 30
0.0
 40
0.3000000148999931
 50
90.000001420205095
 51
179.9999985771552
  0
LINE
  5
C81
  8
0
 10
86.300000017463788
 20
206.0
 30
0.0
 11
87.700000002549984
 21
206.0
 31
0.0
  0
ARC
  5
C82
  8
0
 10
87.699999995099958
 20
206.30000001490001
 30
0.0
 40
0.3000000149000358
 50
270.00000142284972
 51
359.99999857980231
  0
LINE
  5
C83
  8
0
 10
88.000000009999951
 20
227.19999999255
 30
0.0
 11
88.000000009999951
 21
206.30000000746389
 31
0.0
  0
ARC
  5
C84
  8
0
 10
87.699999995099958
 20
227.19999998509999
 30
0.0
 40
0.3000000149000358
 50
0.0000014228448001
 51
89.999998579794905
  0
LINE
  5
C85
  8
0
 10
87.700000002536115
 20
227.5
 30
0.0
 11
86.300000017450031
 21
227.5
 31
0.0
  0
ARC
  5
C86
  8
0
 10
86.300000024899916
 20
227.80000001490001
 30
0.0
 40
0.3000000148999931
 50
180.0000014201994
 51
269.99999857715039
  0
LINE
  5
C87
  8
0
 10
86.000000009999965
 20
227.80000000746381
 30
0.0
 11
86.000000009999965
 21
228.19999999255
 31
0.0
  0
ARC
  5
C88
  8
0
 10
86.300000024899916
 20
228.19999998509999
 30
0.0
 40
0.3000000149000074
 50
90.000001420205095
 51
179.9999985771552
  0
LINE
  5
C89
  8
0
 10
86.300000017463788
 20
228.5
 30
0.0
 11
87.700000002549984
 21
228.5
 31
0.0
  0
ARC
  5
C8A
  8
0
 10
87.699999995099958
 20
228.80000001490001
 30
0.0
 40
0.3000000149000358
 50
270.00000142284972
 51
359.99999857979981
  0
LINE
  5
C8B
  8
0
 10
88.000000009999951
 20
231.19999999255
 30
0.0
 11
88.000000009999951
 21
228.80000000746381
 31
0.0
  0
ARC
  5
C8C
  8
0
 10
87.699999995099958
 20
231.19999998509999
 30
0.0
 40
0.3000000149000358
 50
0.0000014228448001
 51
89.999998579794905
  0
LINE
  5
C8D
  8
0
 10
85.300000017450031
 20
231.5
 30
0.0
 11
87.700000002536115
 21
231.5
 31
0.0
  0
ARC
  5
C8E
  8
0
 10
85.30000002489993
 20
231.19999998509999
 30
0.0
 40
0.3000000149000074
 50
90.000001422849664
 51
179.9999985798014
  0
LINE
  5
C8F
  8
0
 10
85.000000009999937
 20
231.19999999253619
 30
0.0
 11
85.000000009999937
 21
229.80000000745
 31
0.0
  0
ARC
  5
C90
  8
0
 10
84.699999995099972
 20
229.80000001490001
 30
0.0
 40
0.3000000149000074
 50
270.00000142020508
 51
359.99999857715602
  0
LINE
  5
C91
  8
0
 10
84.700000002536115
 20
229.5
 30
0.0
 11
84.300000017450031
 21
229.5
 31
0.0
  0
ARC
  5
C92
  8
0
 10
84.30000002489993
 20
229.80000001490001
 30
0.0
 40
0.3000000149000074
 50
180.00000142020181
 51
269.99999857715039
  0
LINE
  5
C93
  8
0
 10
84.000000009999951
 20
229.80000000746389
 30
0.0
 11
84.000000009999951
 21
231.19999998509999
 31
0.0
  0
ARC
  5
C94
  8
0
 10
83.699999995099986
 20
231.19999998509999
 30
0.0
 40
0.3000000149000073
 50
0.0
 51
89.999998579794905
  0
LINE
  5
C95
  8
0
 10
80.800000017450046
 20
231.5
 30
0.0
 11
83.700000002536115
 21
231.5
 31
0.0
  0
ARC
  5
C96
  8
0
 10
80.800000024899944
 20
231.19999998509999
 30
0.0
 40
0.3000000149000074
 50
90.000001422849664
 51
179.9999985798014
  0
LINE
  5
C97
  8
0
 10
80.500000009999951
 20
231.19999999253619
 30
0.0
 11
80.500000009999951
 21
230.55000000745
 31
0.0
  0
ARC
  5
C98
  8
0
 10
80.199999995099958
 20
230.55000001490001
 30
0.0
 40
0.3000000149000074
 50
270.00000142020508
 51
359.99999857715602
  0
LINE
  5
C99
  8
0
 10
80.200000002536115
 20
230.25
 30
0.0
 11
79.800000017450031
 21
230.25
 31
0.0
  0
ARC
  5
C9A
  8
0
 10
79.80000002489993
 20
230.55000001490001
 30
0.0
 40
0.3000000149000074
 50
180.00000142020181
 51
269.99999857715682
  0
LINE
  5
C9B
  8
0
 10
79.500000009999951
 20
233.94999999255
 30
0.0
 11
79.500000009999951
 21
230.55000000746381
 31
0.0
  0
ARC
  5
C9C
  8
0
 10
79.80000002489993
 20
233.94999998509999
 30
0.0
 40
0.3000000149000074
 50
90.000001420205095
 51
179.9999985771552
  0
LINE
  5
C9D
  8
0
 10
79.800000017463788
 20
234.25
 30
0.0
 11
80.200000002549984
 21
234.25
 31
0.0
  0
ARC
  5
C9E
  8
0
 10
80.199999995099958
 20
233.94999998509999
 30
0.0
 40
0.3000000149000074
 50
0.0000014201985786
 51
89.999998577150293
  0
LINE
  5
C9F
  8
0
 10
80.500000009999951
 20
233.94999999253619
 30
0.0
 11
80.500000009999951
 21
233.30000000745
 31
0.0
  0
ARC
  5
CA0
  8
0
 10
80.800000024899944
 20
233.30000001490001
 30
0.0
 40
0.3000000149000074
 50
180.0000014228456
 51
269.99999857979492
  0
LINE
  5
CA1
  8
0
 10
83.200000002549984
 20
233.0
 30
0.0
 11
80.800000017463788
 21
233.0
 31
0.0
  0
ARC
  5
CA2
  8
0
 10
83.199999995099972
 20
233.30000001490001
 30
0.0
 40
0.3000000149000074
 50
270.00000142284972
 51
359.99999857979981
  0
LINE
  5
CA3
  8
0
 10
83.500000009999965
 20
237.69999999255
 30
0.0
 11
83.500000009999965
 21
233.30000000746381
 31
0.0
  0
ARC
  5
CA4
  8
0
 10
83.800000024899916
 20
237.69999998509999
 30
0.0
 40
0.3000000149000074
 50
90.000001420205095
 51
179.99999857715761
  0
LINE
  5
CA5
  8
0
 10
83.800000017463788
 20
238.0
 30
0.0
 11
84.343829888099947
 21
238.0
 31
0.0
  0
ARC
  5
CA6
  8
0
 10
84.343829886200012
 20
237.7000000001
 30
0.0
 40
0.2999999999000096
 50
34.999999866092701
 51
89.999999637124034
  0
LINE
  5
CA7
  8
0
 10
85.814938690539805
 20
236.12207292922909
 30
0.0
 11
84.589575499783962
 21
237.87207293035749
 31
0.0
  0
ARC
  5
CA8
  8
0
 10
85.569193078900014
 20
235.94999999859999
 30
0.0
 40
0.2999999986000148
 50
270.00000010914482
 51
35.00000013720561
  0
LINE
  5
CA9
  8
0
 10
85.569193079471518
 20
235.65000000000001
 30
0.0
 11
84.500000000000057
 21
235.65000000000001
 31
0.0
  0
LINE
  5
CAA
  8
0
 10
84.500000000000057
 20
233.30000000745
 30
0.0
 11
84.500000000000057
 21
235.65000000000001
 31
0.0
  0
ARC
  5
CAB
  8
0
 10
84.800000014900036
 20
233.30000001490001
 30
0.0
 40
0.3000000149000074
 50
180.0000014228456
 51
269.99999857979492
  0
LINE
  5
CAC
  8
0
 10
88.199999992549976
 20
233.0
 30
0.0
 11
84.800000007463765
 21
233.0
 31
0.0
  0
ARC
  5
CAD
  8
0
 10
88.199999985099964
 20
233.30000001490001
 30
0.0
 40
0.3000000149000074
 50
270.00000142284972
 51
359.99999857979981
  0
LINE
  5
CAE
  8
0
 10
88.499999999999943
 20
236.69999999255
 30
0.0
 11
88.499999999999943
 21
233.30000000746381
 31
0.0
  0
ARC
  5
CAF
  8
0
 10
88.800000014900036
 20
236.69999998509999
 30
0.0
 40
0.3000000149000074
 50
90.000001420198572
 51
179.99999857715761
  0
LINE
  5
CB0
  8
0
 10
89.699999992549976
 20
237.0
 30
0.0
 11
88.800000007463765
 21
237.0
 31
0.0
  0
ARC
  5
CB1
  8
0
 10
89.699999985099964
 20
236.69999998509999
 30
0.0
 40
0.3000000149000074
 50
0.0000014201985786
 51
89.999998577150293
  0
LINE
  5
CB2
  8
0
 10
89.999999999999943
 20
236.69999999253611
 30
0.0
 11
89.999999999999943
 21
201.00000000205
 31
0.0
  0
ARC
  5
CB3
  8
0
 10
88.999999995899941
 20
201.0000000041
 30
0.0
 40
1.0000000041000019
 50
270.00000011604942
 51
359.99999988254439
  0
LINE
  5
CB4
  8
0
 10
74.935085302261598
 20
200.0
 30
0.0
 11
88.999999997925499
 21
200.0
 31
0.0
  0
ARC
  5
CB5
  8
0
 10
74.935085304499964
 20
200.50000000450001
 30
0.0
 40
0.5000000045042266
 50
210.00000027437329
 51
269.99999974349402
  0
LINE
  5
CB6
  8
0
 10
74.040192380307246
 20
201.0499999994372
 30
0.0
 11
74.502072599904125
 21
200.25000000017431
 31
0.0
  0
ARC
  5
CB7
  8
0
 10
74.300000001100045
 20
201.19999999999999
 30
0.0
 40
0.2999999999999971
 50
90.000000105047661
 51
210.00000012579119
  0
LINE
  5
CB8
  8
0
 10
63.009807610317978
 20
204.9500000005508
 30
0.0
 11
63.47168782990007
 21
205.7499999998185
 31
0.0
  0
ARC
  5
CB9
  8
0
 10
63.269615231099969
 20
204.80000000000001
 30
0.0
 40
0.2999999999999971
 50
149.99999987515571
 51
269.9999998949524
  0
LINE
  5
CBA
  8
0
 10
54.130806922499971
 20
388.0
 30
0.0
 11
54.130806922499971
 21
288.0
 31
0.0
  0
LINE
  5
CBB
  8
0
 10
85.869193077500029
 20
288.0
 30
0.0
 11
85.869193077500029
 21
388.0
 31
0.0
  0
LINE
  5
CBC
  8
0
 10
77.030384748899962
 20
288.0
 30
0.0
 11
77.030384748899962
 21
388.0
 31
0.0
  0
LINE
  5
CBD
  8
0
 10
62.969615231099958
 20
388.0
 30
0.0
 11
62.969615231099958
 21
288.0
 31
0.0
  0
LINE
  5
CC5
  8
0
 10
56.499999989999942
 20
388.0
 30
0.0
 11
56.499999989999942
 21
288.0
 31
0.0
  0
LINE
  5
CD0
  8
0
 10
83.500000009999965
 20
288.0
 30
0.0
 11
83.500000009999965
 21
388.0
 31
0.0
  0
LINE
  5
CD9
  8
0
 10
88.499999999999943
 20
288.0
 30
0.0
 11
88.499999999999943
 21
388.0
 31
0.0
  0
LINE
  5
CDF
  8
0
 10
51.5
 20
388.0
 30
0.0
 11
51.5
 21
288.0
 31
0.0
  0
LINE
  5
CE3
  8
0
 10
89.999999999999943
 20
388.0
 30
0.0
 11
89.999999999999943
 21
288.0
 31
0.0
  0
LINE
  5
CE4
  8
0
 10
49.999999999999943
 20
288.0
 30
0.0
 11
89.999999999999943
 21
288.0
 31
0.0
  0
LINE
  5
CE5
  8
0
 10
89.999999999999943
 20
388.0
 30
0.0
 11
49.999999999999943
 21
388.0
 31
0.0
  0
LINE
  5
CE9
  8
0
 10
50.0
 20
288.0
 30
0.0
 11
50.0
 21
388.0
 31
0.0
  0
LINE
  5
CF0
  8
0
 10
80.500000009999951
 20
388.0
 30
0.0
 11
80.500000009999951
 21
288.0
 31
0.0
  0
LINE
  5
CF4
  8
0
 10
60.499999989999928
 20
388.0
 30
0.0
 11
60.499999989999928
 21
288.0
 31
0.0
  0
LINE
  5
CFE
  8
0
 10
59.499999989999928
 20
288.0
 30
0.0
 11
59.499999989999928
 21
388.0
 31
0.0
  0
LINE
  5
D01
  8
0
 10
79.500000009999951
 20
288.0
 30
0.0
 11
79.500000009999951
 21
388.0
 31
0.0
  0
LINE
  5
D40
  8
0
 10
139.99999999999989
 20
200.0
 30
0.0
 11
239.99999999999989
 21
200.0
 31
0.0
  0
LINE
  5
D41
  8
0
 10
139.99999999999989
 20
238.0
 30
0.0
 11
139.99999999999989
 21
200.0
 31
0.0
  0
LINE
  5
D42
  8
0
 10
239.99999999999989
 20
200.0
 30
0.0
 11
239.99999999999989
 21
238.0
 31
0.0
  0
LINE
  5
D44
  8
0
 10
239.99999999999989
 20
237.0
 30
0.0
 11
139.99999999999989
 21
237.0
 31
0.0
  0
LINE
  5
D49
  8
0
 10
239.99999999999989
 20
238.0
 30
0.0
 11
139.99999999999989
 21
238.0
 31
0.0
  0
LINE
  5
D4C
  8
0
 10
66.000000008899903
 20
50.0
 30
0.0
 11
66.000000008899903
 21
150.0
 31
0.0
  0
LINE
  5
D4D
  8
0
 10
74.000000001099977
 20
150.0
 30
0.0
 11
74.000000001099977
 21
50.0
 31
0.0
  0
LINE
  5
D4E
  8
0
 10
50.0
 20
50.0
 30
0.0
 11
50.0
 21
150.0
 31
0.0
  0
LINE
  5
D4F
  8
0
 10
89.999999999999943
 20
150.0
 30
0.0
 11
50.0
 21
150.0
 31
0.0
  0
LINE
  5
D51
  8
0
 10
50.0
 20
50.0
 30
0.0
 11
89.999999999999943
 21
50.0
 31
0.0
  0
LINE
  5
D5A
  8
0
 10
89.999999999999943
 20
150.0
 30
0.0
 11
89.999999999999943
 21
50.0
 31
0.0
  0
LINE
  5
E48
  8
1
 10
69.999999999999943
 20
45.0
 30
0.0
 11
69.999999999999943
 21
155.0
 31
0.0
  0
LINE
  5
E52
  8
1
 10
69.999999999999943
 20
195.0
 30
0.0
 11
69.999999999999943
 21
243.0
 31
0.0
  0
LINE
  5
E53
  8
1
 10
69.999999999999943
 20
283.0
 30
0.0
 11
69.999999999999943
 21
393.0
 31
0.0
  0
ENDSEC
  0
EOF
