  0
SECTION
  2
HEADER
  9
$ACADVER
  1
AC1009
  9
$INSBASE
 10
0.0
 20
0.0
 30
0.0
  9
$EXTMIN
 10
0.0
 20
-2.960436562073669
 30
0.0
  9
$EXTMAX
 10
280.0
 20
211.49999999999989
 30
0.0
  9
$LIMMIN
 10
0.0
 20
0.0
  9
$LIMMAX
 10
375.0
 20
270.0
  9
$ORTHOMODE
 70
     1
  9
$REGENMODE
 70
     1
  9
$FILLMODE
 70
     1
  9
$QTEXTMODE
 70
     0
  9
$MIRRTEXT
 70
     0
  9
$DRAGMODE
 70
     2
  9
$LTSCALE
 40
10.0
  9
$OSMODE
 70
    37
  9
$ATTMODE
 70
     1
  9
$TEXTSIZE
 40
4.000000000000048
  9
$TRACEWID
 40
0.05
  9
$TEXTSTYLE
  7
STANDARD
  9
$CLAYER
  8
0
  9
$CELTYPE
  6
BYLAYER
  9
$CECOLOR
 62
   256
  9
$DIMSCALE
 40
1.0
  9
$DIMASZ
 40
3.0
  9
$DIMEXO
 40
2.0
  9
$DIMDLI
 40
0.38
  9
$DIMRND
 40
0.0
  9
$DIMDLE
 40
0.0
  9
$DIMEXE
 40
2.0
  9
$DIMTP
 40
0.0
  9
$DIMTM
 40
0.0
  9
$DIMTXT
 40
3.2000000000000002
  9
$DIMCEN
 40
0.0
  9
$DIMTSZ
 40
0.0
  9
$DIMTOL
 70
     0
  9
$DIMLIM
 70
     0
  9
$DIMTIH
 70
     0
  9
$DIMTOH
 70
     0
  9
$DIMSE1
 70
     0
  9
$DIMSE2
 70
     0
  9
$DIMTAD
 70
     1
  9
$DIMZIN
 70
     0
  9
$DIMBLK
  1

  9
$DIMASO
 70
     0
  9
$DIMSHO
 70
     0
  9
$DIMPOST
  1

  9
$DIMAPOST
  1

  9
$DIMALT
 70
     0
  9
$DIMALTD
 70
     2
  9
$DIMALTF
 40
25.399999999999999
  9
$DIMLFAC
 40
1.0
  9
$DIMTOFL
 70
     0
  9
$DIMTVP
 40
1.6000000000000001
  9
$DIMTIX
 70
     1
  9
$DIMSOXD
 70
     0
  9
$DIMSAH
 70
     0
  9
$DIMBLK1
  1

  9
$DIMBLK2
  1

  9
$DIMSTYLE
  2
STANDARD
  9
$DIMCLRD
 70
     4
  9
$DIMCLRE
 70
     4
  9
$DIMCLRT
 70
     4
  9
$DIMTFAC
 40
1.0
  9
$DIMGAP
 40
0.09
  9
$LUNITS
 70
     2
  9
$LUPREC
 70
     1
  9
$SKETCHINC
 40
0.1
  9
$FILLETRAD
 40
0.0
  9
$AUNITS
 70
     0
  9
$AUPREC
 70
     0
  9
$MENU
  1
E:\r13\win\SUPPORT\ACAD
  9
$ELEVATION
 40
0.0
  9
$PELEVATION
 40
0.0
  9
$THICKNESS
 40
0.0
  9
$LIMCHECK
 70
     0
  9
$BLIPMODE
 70
     0
  9
$CHAMFERA
 40
1.1999999999999991
  9
$CHAMFERB
 40
1.1999999999999991
  9
$SKPOLY
 70
     0
  9
$TDCREATE
 40
2450095.671215394
  9
$TDUPDATE
 40
2457968.4256653818
  9
$TDINDWG
 40
0.0475582986
  9
$TDUSRTIMER
 40
0.0475582986
  9
$USRTIMER
 70
     1
  9
$ANGBASE
 50
0.0
  9
$ANGDIR
 70
     0
  9
$PDMODE
 70
     0
  9
$PDSIZE
 40
0.0
  9
$PLINEWID
 40
0.0
  9
$COORDS
 70
     1
  9
$SPLFRAME
 70
     0
  9
$SPLINETYPE
 70
     6
  9
$SPLINESEGS
 70
     8
  9
$ATTDIA
 70
     0
  9
$ATTREQ
 70
     1
  9
$HANDLING
 70
     1
  9
$HANDSEED
  5
13AF
  9
$SURFTAB1
 70
     6
  9
$SURFTAB2
 70
     6
  9
$SURFTYPE
 70
     6
  9
$SURFU
 70
     6
  9
$SURFV
 70
     6
  9
$UCSNAME
  2

  9
$UCSORG
 10
0.0
 20
0.0
 30
0.0
  9
$UCSXDIR
 10
1.0
 20
0.0
 30
0.0
  9
$UCSYDIR
 10
0.0
 20
1.0
 30
0.0
  9
$PUCSNAME
  2

  9
$PUCSORG
 10
0.0
 20
0.0
 30
0.0
  9
$PUCSXDIR
 10
1.0
 20
0.0
 30
0.0
  9
$PUCSYDIR
 10
0.0
 20
1.0
 30
0.0
  9
$USERI1
 70
     0
  9
$USERI2
 70
     1
  9
$USERI3
 70
     0
  9
$USERI4
 70
     0
  9
$USERI5
 70
     0
  9
$USERR1
 40
0.0
  9
$USERR2
 40
0.0
  9
$USERR3
 40
0.0
  9
$USERR4
 40
0.0
  9
$USERR5
 40
0.0
  9
$WORLDVIEW
 70
     1
  9
$SHADEDGE
 70
     3
  9
$SHADEDIF
 70
    70
  9
$TILEMODE
 70
     1
  9
$MAXACTVP
 70
    16
  9
$PLIMCHECK
 70
     0
  9
$PEXTMIN
 10
1.0000000000000000E+020
 20
1.0000000000000000E+020
 30
1.0000000000000000E+020
  9
$PEXTMAX
 10
-1.0000000000000000E+020
 20
-1.0000000000000000E+020
 30
-1.0000000000000000E+020
  9
$PLIMMIN
 10
0.0
 20
0.0
  9
$PLIMMAX
 10
12.0
 20
9.0
  9
$UNITMODE
 70
     0
  9
$VISRETAIN
 70
     0
  9
$PLINEGEN
 70
     0
  9
$PSLTSCALE
 70
     0
  0
ENDSEC
  0
SECTION
  2
TABLES
  0
TABLE
  2
VPORT
 70
     1
  0
VPORT
  2
*ACTIVE
 70
     0
 10
0.0
 20
0.0
 11
1.0
 21
1.0
 12
363.24786324786322
 22
200.0
 13
0.0
 23
0.0
 14
10.0
 24
10.0
 15
10.0
 25
10.0
 16
0.0
 26
0.0
 36
1.0
 17
0.0
 27
0.0
 37
0.0
 40
400.0
 41
1.816239316239316
 42
50.0
 43
0.0
 44
0.0
 50
0.0
 51
0.0
 71
     0
 72
   500
 73
     1
 74
     0
 75
     0
 76
     0
 77
     0
 78
     2
  0
ENDTAB
  0
TABLE
  2
LTYPE
 70
     3
  0
LTYPE
  2
CONTINUOUS
 70
     0
  3
Solid Line
 72
    65
 73
     0
 40
0.0
  0
LTYPE
  2
CENTER
 70
     0
  3
____ _ ____ _ ____ _ ____ _ ____ _ ____ _ ____
 72
    65
 73
     4
 40
2.0
 49
1.25
 49
-0.25
 49
0.25
 49
-0.25
  0
LTYPE
  2
PHANTOM2
 70
     0
  3
___ _ _ ___ _ _ ___ _ _ ___ _ _
 72
    65
 73
     6
 40
1.25
 49
0.625
 49
-0.125
 49
0.125
 49
-0.125
 49
0.125
 49
-0.125
  0
ENDTAB
  0
TABLE
  2
LAYER
 70
     3
  0
LAYER
  2
0
 70
     0
 62
     7
  6
CONTINUOUS
  0
LAYER
  2
1
 70
     0
 62
     1
  6
CENTER
  0
LAYER
  2
DEFPOINTS
 70
     0
 62
     7
  6
CONTINUOUS
  0
ENDTAB
  0
TABLE
  2
STYLE
 70
     2
  0
STYLE
  2
STANDARD
 70
     0
 40
0.0
 41
1.0
 50
0.0
 71
     0
 42
4.000000000000048
  3
SIMPLEX
  4
BIGFONT
  0
STYLE
  2
STANDARD1
 70
     0
 40
0.0
 41
1.0
 50
0.0
 71
     0
 42
3.0
  3
txt
  4

  0
ENDTAB
  0
TABLE
  2
VIEW
 70
     1
  0
VIEW
  2
ALL
 70
     0
 40
270.0
 10
220.59941989218049
 20
135.0
 41
441.19883978436093
 11
0.0
 21
0.0
 31
1.0
 12
0.0
 22
0.0
 32
0.0
 42
50.0
 43
0.0
 44
0.0
 50
0.0
 71
     0
  0
ENDTAB
  0
TABLE
  2
UCS
 70
     0
  0
ENDTAB
  0
TABLE
  2
APPID
 70
    29
  0
APPID
  2
ACAD
 70
     0
  0
APPID
  2
DCO15
 70
     0
  0
APPID
  2
GENIUS_GENOREF_13
 70
     0
  0
APPID
  2
GENIUS_GENOENT_13
 70
     0
  0
APPID
  2
GENIUS_GENBH_13
 70
     0
  0
APPID
  2
GENIUS_GENOBJ_13
 70
     0
  0
APPID
  2
GENIUS_GENODEF_13
 70
     0
  0
APPID
  2
GENIUS_GENOLIS_13
 70
     0
  0
APPID
  2
GENIUS_GENOBJ-NBEHI-BHF_13
 70
     0
  0
APPID
  2
GENIUS_GENOBJ-NBEHI-BHB_13
 70
     0
  0
APPID
  2
GENIUS_GENOBJ-F-PART_13
 70
     0
  0
APPID
  2
GENIUS_GEFSTDP_13
 70
     0
  0
APPID
  2
GENIUS_GENOBJ-N-RSSYM_13
 70
     0
  0
APPID
  2
GENIUS_GENSYMENT_13
 70
     0
  0
APPID
  2
GENIUS_GENOBJ-N-TIT_13
 70
     0
  0
APPID
  2
GENIUS_GENTITLE_13
 70
     0
  0
APPID
  2
GENIUS_GENZVEED_13
 70
     0
  0
APPID
  2
GENIUS_GENOBJ-N-LEADER_13
 70
     0
  0
APPID
  2
GENIUS_GENOBJ-N-FIL_13
 70
     0
  0
APPID
  2
GENIUS_GENOBJ-N-SEC_13
 70
     0
  0
APPID
  2
GENIUS_GENOBJ-N-CRS_13
 70
     0
  0
APPID
  2
GENIUS_GENOBJ-N-ZOO_13
 70
     0
  0
APPID
  2
GENIUS_GENZOO_13
 70
     0
  0
APPID
  2
GENIUS_GENOBJ-F-TOL_13
 70
     0
  0
APPID
  2
GENIUS_GENFIL_13
 70
     0
  0
APPID
  2
GENIUS_GENOBJ-N-CHA_13
 70
     0
  0
APPID
  2
ACAD_MLEADERVER
 70
     0
  0
APPID
  2
ACAD_EXEMPT_FROM_CAD_STANDARDS
 70
     0
  0
APPID
  2
ACAD_NAV_VCDISPLAY
 70
     0
  0
ENDTAB
  0
TABLE
  2
DIMSTYLE
 70
     1
  0
DIMSTYLE
  2
STANDARD
 70
     0
  3

  4

  5

  6

  7

 40
1.0
 41
0.18
 42
0.0625
 43
0.38
 44
0.18
 45
0.0
 46
0.0
 47
0.0
 48
0.0
140
0.18
141
0.09
142
0.0
143
25.399999999999999
144
1.0
145
0.0
146
1.0
147
0.09
 71
     0
 72
     0
 73
     1
 74
     1
 75
     0
 76
     0
 77
     0
 78
     0
170
     0
171
     2
172
     0
173
     0
174
     0
175
     0
176
     0
177
     0
178
     0
  0
ENDTAB
  0
ENDSEC
  0
SECTION
  2
BLOCKS
  0
BLOCK
  8
0
  2
$MODEL_SPACE
 70
     0
 10
0.0
 20
0.0
 30
0.0
  3
$MODEL_SPACE
  1

  0
ENDBLK
  5
10E
  8
0
  0
BLOCK
 67
     1
  8
0
  2
$PAPER_SPACE
 70
     0
 10
0.0
 20
0.0
 30
0.0
  3
$PAPER_SPACE
  1

  0
ENDBLK
  5
10C
 67
     1
  8
0
  0
ENDSEC
  0
SECTION
  2
ENTITIES
  0
TEXT
  5
A57
  8
0
 62
     3
 10
0.0
 20
0.0
 30
0.0
 40
10.0
  1
WCL80
  7
STANDARD1
  0
LINE
  5
11DD
  8
0
 10
53.0
 20
204.49999999999989
 30
0.0
 11
50.299999999999947
 21
204.49999999999989
 31
0.0
  0
ARC
  5
11DE
  8
0
 10
50.299999999999947
 20
204.7999999999999
 30
0.0
 40
0.2999999999999971
 50
179.9999999999967
 51
270.0
  0
LINE
  5
11DF
  8
0
 10
50.0
 20
204.7999999999999
 30
0.0
 11
50.0
 21
205.49999999999989
 31
0.0
  0
ARC
  5
11E0
  8
0
 10
129.0
 20
205.49999999999989
 30
0.0
 40
1.0
 50
0.0
 51
90.0
  0
LINE
  5
11E1
  8
0
 10
130.0
 20
205.49999999999989
 30
0.0
 11
130.0
 21
204.7999999999999
 31
0.0
  0
ARC
  5
11E2
  8
0
 10
129.69999999999999
 20
204.7999999999999
 30
0.0
 40
0.2999999999999971
 50
270.0
 51
0.0
  0
LINE
  5
11E3
  8
0
 10
129.69999999999999
 20
204.49999999999989
 30
0.0
 11
127.0
 21
204.49999999999989
 31
0.0
  0
LINE
  5
11E4
  8
0
 10
127.0
 20
204.49999999999989
 30
0.0
 11
127.0
 21
201.0000000020745
 31
0.0
  0
ARC
  5
11E5
  8
0
 10
125.9999999959
 20
201.00000000409989
 30
0.0
 40
1.0000000041000019
 50
270.00000011745641
 51
359.99999988395138
  0
LINE
  5
11E6
  8
0
 10
125.99999999795
 20
199.99999999999989
 30
0.0
 11
125.7515540618768
 21
199.99999999999989
 31
0.0
  0
ARC
  5
11E7
  8
0
 10
125.7515540637999
 20
200.2999999999
 30
0.0
 40
0.2999999998999811
 50
214.99999985077039
 51
269.99999963269471
  0
LINE
  5
11E8
  8
0
 10
125.505808450193
 20
200.12792706972431
 30
0.0
 11
124.6305490293562
 21
201.37792707082571
 31
0.0
  0
ARC
  5
11E9
  8
0
 10
124.8762946411
 20
201.55000000139989
 30
0.0
 40
0.2999999986000006
 50
90.000000105047661
 51
215.00000011722301
  0
LINE
  5
11EA
  8
0
 10
124.87629464055
 20
201.84999999999991
 30
0.0
 11
126.0
 21
201.84999999999991
 31
0.0
  0
LINE
  5
11EB
  8
0
 10
126.0
 20
201.84999999999991
 30
0.0
 11
126.0
 21
204.19999999253611
 31
0.0
  0
ARC
  5
11EC
  8
0
 10
125.69999998510001
 20
204.19999998509991
 30
0.0
 40
0.3000000149000074
 50
0.0000014201985786
 51
89.999998577150293
  0
LINE
  5
11ED
  8
0
 10
125.69999999255
 20
204.49999999999989
 30
0.0
 11
54.30000000744996
 21
204.49999999999989
 31
0.0
  0
ARC
  5
11EE
  8
0
 10
54.300000014899979
 20
204.19999998509991
 30
0.0
 40
0.3000000149000074
 50
90.000001422843155
 51
179.9999985798014
  0
LINE
  5
11EF
  8
0
 10
54.0
 20
204.19999999253611
 30
0.0
 11
54.0
 21
201.84999999999991
 31
0.0
  0
LINE
  5
11F0
  8
0
 10
54.0
 20
201.84999999999991
 30
0.0
 11
55.123705359450007
 21
201.84999999999991
 31
0.0
  0
ARC
  5
11F1
  8
0
 10
55.12370535889999
 20
201.55000000139989
 30
0.0
 40
0.2999999986000006
 50
324.99999988277949
 51
89.999999894958847
  0
LINE
  5
11F2
  8
0
 10
55.369450970643811
 20
201.37792707082571
 30
0.0
 11
54.494191549829957
 21
200.12792706970811
 31
0.0
  0
ARC
  5
11F3
  8
0
 10
54.248445936200028
 20
200.2999999999
 30
0.0
 40
0.2999999998999811
 50
270.00000036730529
 51
325.00000014923512
  0
LINE
  5
11F4
  8
0
 10
54.248445938123211
 20
199.99999999999989
 30
0.0
 11
54.000000002050001
 21
199.99999999999989
 31
0.0
  0
ARC
  5
11F5
  8
0
 10
54.000000004100002
 20
201.00000000409989
 30
0.0
 40
1.0000000041000019
 50
180.00000011605019
 51
269.99999988254359
  0
LINE
  5
11F6
  8
0
 10
53.0
 20
201.0000000020745
 30
0.0
 11
53.0
 21
204.49999999999989
 31
0.0
  0
ARC
  5
11F7
  8
0
 10
51.0
 20
205.49999999999989
 30
0.0
 40
1.0
 50
90.0
 51
180.0
  0
LINE
  5
11F8
  8
0
 10
51.0
 20
206.49999999999989
 30
0.0
 11
129.0
 21
206.49999999999989
 31
0.0
  0
LINE
  5
11F9
  8
0
 10
124.5762946425
 20
149.99999999999989
 30
0.0
 11
124.5762946425
 21
49.999999999999979
 31
0.0
  0
LINE
  5
11FA
  8
0
 10
55.423705357500012
 20
49.999999999999979
 30
0.0
 11
55.423705357500012
 21
149.99999999999989
 31
0.0
  0
LINE
  5
1203
  8
0
 10
127.0
 20
149.99999999999989
 30
0.0
 11
127.0
 21
49.999999999999979
 31
0.0
  0
LINE
  5
1209
  8
0
 10
53.0
 20
49.999999999999979
 30
0.0
 11
53.0
 21
149.99999999999989
 31
0.0
  0
LINE
  5
121D
  8
0
 10
50.0
 20
49.999999999999979
 30
0.0
 11
50.0
 21
149.99999999999989
 31
0.0
  0
LINE
  5
1224
  8
0
 10
130.0
 20
149.99999999999989
 30
0.0
 11
130.0
 21
49.999999999999979
 31
0.0
  0
LINE
  5
1225
  8
0
 10
50.0
 20
50.0
 30
0.0
 11
130.0
 21
49.999999999999979
 31
0.0
  0
LINE
  5
1226
  8
0
 10
130.0
 20
149.99999999999989
 30
0.0
 11
50.0
 21
150.0
 31
0.0
  0
LINE
  5
1229
  8
0
 10
280.0
 20
204.49999999999989
 30
0.0
 11
180.0
 21
204.49999999999989
 31
0.0
  0
LINE
  5
122E
  8
0
 10
180.0
 20
206.49999999999989
 30
0.0
 11
280.0
 21
206.49999999999989
 31
0.0
  0
LINE
  5
122F
  8
0
 10
180.0
 20
206.49999999999989
 30
0.0
 11
180.0
 21
199.99999999999989
 31
0.0
  0
LINE
  5
1230
  8
0
 10
280.0
 20
199.99999999999989
 30
0.0
 11
280.0
 21
206.49999999999989
 31
0.0
  0
LINE
  5
1232
  8
0
 10
180.0
 20
199.99999999999989
 30
0.0
 11
280.0
 21
199.99999999999989
 31
0.0
  0
LINE
  5
1246
  8
1
 10
90.0
 20
45.0
 30
0.0
 11
90.0
 21
154.99999999999989
 31
0.0
  0
LINE
  5
124B
  8
1
 10
90.0
 20
195.0
 30
0.0
 11
90.0
 21
211.49999999999989
 31
0.0
  0
ENDSEC
  0
EOF
