  0
SECTION
  2
HEADER
  9
$ACADVER
  1
AC1009
  9
$INSBASE
 10
0.0
 20
0.0
 30
0.0
  9
$EXTMIN
 10
0.0
 20
-2.960436562073669
 30
0.0
  9
$EXTMAX
 10
178.0
 20
276.0
 30
0.0
  9
$LIMMIN
 10
0.0
 20
0.0
  9
$LIMMAX
 10
400.0
 20
277.0
  9
$ORTHOMODE
 70
     1
  9
$REGENMODE
 70
     1
  9
$FILLMODE
 70
     1
  9
$QTEXTMODE
 70
     0
  9
$MIRRTEXT
 70
     1
  9
$DRAGMODE
 70
     2
  9
$LTSCALE
 40
5.0
  9
$OSMODE
 70
    37
  9
$ATTMODE
 70
     1
  9
$TEXTSIZE
 40
2.5
  9
$TRACEWID
 40
1.0
  9
$TEXTSTYLE
  7
STANDARD
  9
$CLAYER
  8
0
  9
$CELTYPE
  6
BYLAYER
  9
$CECOLOR
 62
   256
  9
$DIMSCALE
 40
1.0
  9
$DIMASZ
 40
3.0
  9
$DIMEXO
 40
1.0
  9
$DIMDLI
 40
6.0
  9
$DIMRND
 40
0.0
  9
$DIMDLE
 40
0.0
  9
$DIMEXE
 40
1.0
  9
$DIMTP
 40
495.0
  9
$DIMTM
 40
0.0
  9
$DIMTXT
 40
3.0
  9
$DIMCEN
 40
0.0
  9
$DIMTSZ
 40
0.0
  9
$DIMTOL
 70
     0
  9
$DIMLIM
 70
     0
  9
$DIMTIH
 70
     0
  9
$DIMTOH
 70
     0
  9
$DIMSE1
 70
     0
  9
$DIMSE2
 70
     0
  9
$DIMTAD
 70
     3
  9
$DIMZIN
 70
     8
  9
$DIMBLK
  1

  9
$DIMASO
 70
     0
  9
$DIMSHO
 70
     1
  9
$DIMPOST
  1

  9
$DIMAPOST
  1

  9
$DIMALT
 70
     0
  9
$DIMALTD
 70
     2
  9
$DIMALTF
 40
25.3999999999999986
  9
$DIMLFAC
 40
1.0
  9
$DIMTOFL
 70
     1
  9
$DIMTVP
 40
0.0
  9
$DIMTIX
 70
     1
  9
$DIMSOXD
 70
     0
  9
$DIMSAH
 70
     1
  9
$DIMBLK1
  1
ARROW1
  9
$DIMBLK2
  1
ARROW1
  9
$DIMSTYLE
  2
ITM
  9
$DIMCLRD
 70
     4
  9
$DIMCLRE
 70
     4
  9
$DIMCLRT
 70
     4
  9
$DIMTFAC
 40
1.0
  9
$DIMGAP
 40
1.0
  9
$LUNITS
 70
     2
  9
$LUPREC
 70
     1
  9
$SKETCHINC
 40
1.0
  9
$FILLETRAD
 40
0.0
  9
$AUNITS
 70
     0
  9
$AUPREC
 70
     0
  9
$MENU
  1
.
  9
$ELEVATION
 40
0.0
  9
$PELEVATION
 40
0.0
  9
$THICKNESS
 40
0.0
  9
$LIMCHECK
 70
     0
  9
$BLIPMODE
 70
     0
  9
$CHAMFERA
 40
10.0
  9
$CHAMFERB
 40
10.0
  9
$SKPOLY
 70
     0
  9
$TDCREATE
 40
2451415.6127083338797092
  9
$TDUPDATE
 40
2460886.718738425988704
  9
$TDINDWG
 40
0.4483465394
  9
$TDUSRTIMER
 40
0.4483465394
  9
$USRTIMER
 70
     1
  9
$ANGBASE
 50
0.0
  9
$ANGDIR
 70
     0
  9
$PDMODE
 70
     0
  9
$PDSIZE
 40
0.0
  9
$PLINEWID
 40
0.0
  9
$COORDS
 70
     1
  9
$SPLFRAME
 70
     0
  9
$SPLINETYPE
 70
     6
  9
$SPLINESEGS
 70
     8
  9
$ATTDIA
 70
     1
  9
$ATTREQ
 70
     1
  9
$HANDLING
 70
     1
  9
$HANDSEED
  5
2E9A
  9
$SURFTAB1
 70
     6
  9
$SURFTAB2
 70
     6
  9
$SURFTYPE
 70
     6
  9
$SURFU
 70
     6
  9
$SURFV
 70
     6
  9
$UCSNAME
  2

  9
$UCSORG
 10
0.0
 20
0.0
 30
0.0
  9
$UCSXDIR
 10
1.0
 20
0.0
 30
0.0
  9
$UCSYDIR
 10
0.0
 20
1.0
 30
0.0
  9
$PUCSNAME
  2

  9
$PUCSORG
 10
0.0
 20
0.0
 30
0.0
  9
$PUCSXDIR
 10
1.0
 20
0.0
 30
0.0
  9
$PUCSYDIR
 10
0.0
 20
1.0
 30
0.0
  9
$USERI1
 70
     3
  9
$USERI2
 70
     1
  9
$USERI3
 70
     1
  9
$USERI4
 70
     0
  9
$USERI5
 70
     0
  9
$USERR1
 40
1.0
  9
$USERR2
 40
3.0
  9
$USERR3
 40
3.0
  9
$USERR4
 40
3.0
  9
$USERR5
 40
10.0
  9
$WORLDVIEW
 70
     1
  9
$SHADEDGE
 70
     3
  9
$SHADEDIF
 70
    70
  9
$TILEMODE
 70
     1
  9
$MAXACTVP
 70
    16
  9
$PLIMCHECK
 70
     0
  9
$PEXTMIN
 10
1.0000000000000000E+20
 20
1.0000000000000000E+20
 30
1.0000000000000000E+20
  9
$PEXTMAX
 10
-1.0000000000000000E+20
 20
-1.0000000000000000E+20
 30
-1.0000000000000000E+20
  9
$PLIMMIN
 10
0.0
 20
0.0
  9
$PLIMMAX
 10
420.0
 20
297.0
  9
$UNITMODE
 70
     0
  9
$VISRETAIN
 70
     0
  9
$PLINEGEN
 70
     0
  9
$PSLTSCALE
 70
     1
  0
ENDSEC
  0
SECTION
  2
TABLES
  0
TABLE
  2
VPORT
 70
     1
  0
VPORT
  2
*ACTIVE
 70
     0
 10
0.0
 20
0.0
 11
1.0
 21
1.0
 12
370.0000000000001137
 22
158.1031787389264878
 13
0.0
 23
0.0
 14
10.0
 24
10.0
 15
10.0
 25
10.0
 16
0.0
 26
0.0
 36
1.0
 17
0.0
 27
0.0
 37
0.0
 40
316.2063574778530892
 41
2.340243902439024
 42
50.0
 43
0.0
 44
0.0
 50
0.0
 51
0.0
 71
     0
 72
   100
 73
     1
 74
     1
 75
     0
 76
     0
 77
     0
 78
     0
  0
ENDTAB
  0
TABLE
  2
LTYPE
 70
     3
  0
LTYPE
  2
CONTINUOUS
 70
     0
  3
Solid line
 72
    65
 73
     0
 40
0.0
  0
LTYPE
  2
CENTER
 70
     0
  3
____ _ ____ _ ____ _ ____ _ ____ _ ____ _ ____ 
 72
    65
 73
     4
 40
2.0
 49
1.25
 49
-0.25
 49
0.25
 49
-0.25
  0
LTYPE
  2
PHANTOM2
 70
     0
  3
___ _ _ ___ _ _ ___ _ _ ___ _ _
 72
    65
 73
     6
 40
1.25
 49
0.625
 49
-0.125
 49
0.125
 49
-0.125
 49
0.125
 49
-0.125
  0
ENDTAB
  0
TABLE
  2
LAYER
 70
     5
  0
LAYER
  2
0
 70
     0
 62
     7
  6
CONTINUOUS
  0
LAYER
  2
WAKU
 70
     0
 62
     5
  6
CONTINUOUS
  0
LAYER
  2
1
 70
     0
 62
     1
  6
CENTER
  0
LAYER
  2
3
 70
     0
 62
     3
  6
CONTINUOUS
  0
LAYER
  2
DEFPOINTS
 70
     0
 62
     7
  6
CONTINUOUS
  0
ENDTAB
  0
TABLE
  2
STYLE
 70
     3
  0
STYLE
  2
STANDARD
 70
     0
 40
0.0
 41
1.0
 50
0.0
 71
     0
 42
2.5
  3
ROMANS
  4
EXTFONT
  0
STYLE
  2
K
 70
     0
 40
0.0
 41
1.0
 50
0.0
 71
     0
 42
3.0
  3
ROMANS
  4
bigfont
  0
STYLE
  2
STANDARD1
 70
     0
 40
0.0
 41
1.0
 50
0.0
 71
     0
 42
3.0
  3
txt
  4

  0
ENDTAB
  0
TABLE
  2
VIEW
 70
     0
  0
ENDTAB
  0
TABLE
  2
UCS
 70
     0
  0
ENDTAB
  0
TABLE
  2
APPID
 70
    45
  0
APPID
  2
ACAD
 70
     0
  0
APPID
  2
ACAD_NAV_VCDISPLAY
 70
     0
  0
APPID
  2
DCO15
 70
     0
  0
APPID
  2
GENIUS_GENOREF_13
 70
     0
  0
APPID
  2
GENIUS_GENOENT_13
 70
     0
  0
APPID
  2
GENIUS_GENBH_13
 70
     0
  0
APPID
  2
GENIUS_GENOBJ_13
 70
     0
  0
APPID
  2
GENIUS_GENODEF_13
 70
     0
  0
APPID
  2
GENIUS_GENOLIS_13
 70
     0
  0
APPID
  2
GENIUS_GENOBJ-NBEHI-BHF_13
 70
     0
  0
APPID
  2
GENIUS_GENOBJ-NBEHI-BHB_13
 70
     0
  0
APPID
  2
GENIUS_GENOBJ-F-PART_13
 70
     0
  0
APPID
  2
GENIUS_GEFSTDP_13
 70
     0
  0
APPID
  2
GENIUS_GENOBJ-N-RSSYM_13
 70
     0
  0
APPID
  2
GENIUS_GENSYMENT_13
 70
     0
  0
APPID
  2
GENIUS_GENOBJ-N-TIT_13
 70
     0
  0
APPID
  2
GENIUS_GENTITLE_13
 70
     0
  0
APPID
  2
GENIUS_GENZVEED_13
 70
     0
  0
APPID
  2
GENIUS_GENOBJ-N-LEADER_13
 70
     0
  0
APPID
  2
GENIUS_GENOBJ-N-FIL_13
 70
     0
  0
APPID
  2
GENIUS_GENOBJ-N-SEC_13
 70
     0
  0
APPID
  2
GENIUS_GENOBJ-N-CRS_13
 70
     0
  0
APPID
  2
GENIUS_GENOBJ-N-ZOO_13
 70
     0
  0
APPID
  2
GENIUS_GENZOO_13
 70
     0
  0
APPID
  2
GENIUS_GENOBJ-F-TOL_13
 70
     0
  0
APPID
  2
GENIUS_GENFIL_13
 70
     0
  0
APPID
  2
GENIUS_GENOBJ-N-CHA_13
 70
     0
  0
APPID
  2
_CALL_MAC$
 70
     0
  0
APPID
  2
ASM_BASE
 70
     0
  0
APPID
  2
ASM_EXPLO_VER_2_00
 70
     0
  0
APPID
  2
ASM_CADM_VER_12_00
 70
     0
  0
APPID
  2
ASM_BASEFORO
 70
     0
  0
APPID
  2
ASM_BASETRAVI
 70
     0
  0
APPID
  2
ASM_BASETRAVI1
 70
     0
  0
APPID
  2
ASM_GRUPPI
 70
     0
  0
APPID
  2
ASM_CADM_ALBERO
 70
     0
  0
APPID
  2
ASM_GOLE
 70
     0
  0
APPID
  2
ACAD_EXEMPT_FROM_CAD_STANDARDS
 70
     0
  0
APPID
  2
ACAD_DSTYLE_DIMJAG
 70
     0
  0
APPID
  2
ACAD_DSTYLE_DIMTALN
 70
     0
  0
APPID
  2
GRADIENTCOLOR1ACI
 70
     0
  0
APPID
  2
GRADIENTCOLOR2ACI
 70
     0
  0
APPID
  2
ACAD_MLEADERVER
 70
     0
  0
APPID
  2
ACAD_TC
 70
     0
  0
APPID
  2
ACAD_DSTYLE_DIMRADIAL_EXTENSION
 70
     0
  0
ENDTAB
  0
TABLE
  2
DIMSTYLE
 70
     2
  0
DIMSTYLE
  2
STANDARD
 70
     0
  3

  4

  5

  6

  7

 40
1.0
 41
0.18
 42
0.0625
 43
0.38
 44
0.18
 45
0.0
 46
0.0
 47
0.0
 48
0.0
140
0.18
141
0.09
142
0.0
143
25.3999999999999986
144
1.0
145
0.0
146
1.0
147
0.09
 71
     0
 72
     0
 73
     1
 74
     1
 75
     0
 76
     0
 77
     0
 78
     0
170
     0
171
     2
172
     0
173
     0
174
     0
175
     0
176
     0
177
     0
178
     0
  0
DIMSTYLE
  2
ITM
 70
     0
  3

  4

  5
ARROWANG
  6
ARROWANG
  7
ARROWANG
 40
1.0
 41
1.5
 42
1.0
 43
6.0
 44
1.0
 45
0.0
 46
0.0
 47
495.0
 48
0.0
140
3.0
141
0.0
142
0.0
143
25.3999999999999986
144
1.0
145
0.0
146
1.0
147
0.5
 71
     0
 72
     0
 73
     0
 74
     0
 75
     0
 76
     0
 77
     3
 78
     8
170
     0
171
     2
172
     1
173
     1
174
     1
175
     0
176
     0
177
     0
178
     0
  0
ENDTAB
  0
ENDSEC
  0
SECTION
  2
BLOCKS
  0
BLOCK
  8
0
  2
$MODEL_SPACE
 70
     0
 10
0.0
 20
0.0
 30
0.0
  3
$MODEL_SPACE
  1

  0
ENDBLK
  5
1C
  8
0
  0
BLOCK
 67
     1
  8
0
  2
$PAPER_SPACE
 70
     0
 10
0.0
 20
0.0
 30
0.0
  3
$PAPER_SPACE
  1

  0
ENDBLK
  5
19
 67
     1
  8
0
  0
BLOCK
  8
0
  2
ARROWANG
 70
     0
 10
0.0
 20
0.0
 30
0.0
  3
ARROWANG
  1

  0
LINE
  5
C9
  8
0
 10
0.0
 20
0.0
 30
0.0
 11
-1.4999999999999429
 21
0.4019237886467409
 31
0.0
  0
LINE
  5
CA
  8
0
 10
0.0
 20
0.0
 30
0.0
 11
-1.5
 21
-0.4019237886467124
 31
0.0
  0
ENDBLK
  5
CB
  8
0
  0
BLOCK
  8
0
  2
ARROW1
 70
     0
 10
0.0
 20
0.0
 30
0.0
  3
ARROW1
  1

  0
SOLID
  5
EE
  8
WAKU
  6
CONTINUOUS
 62
     4
 10
-1.0
 20
0.1666666666666714
 30
0.0
 11
-1.0
 21
-0.1666666666666714
 31
0.0
 12
0.0
 22
0.0
 32
0.0
 13
0.0
 23
0.0
 33
0.0
  0
ENDBLK
  5
F0
  8
0
  0
ENDSEC
  0
SECTION
  2
ENTITIES
  0
TEXT
  5
1BB9
  8
0
 62
     3
 10
0.0
 20
0.0
 30
0.0
 40
10.0
  1
VVL56-S-G1/4
  7
STANDARD1
  0
CIRCLE
  5
2C2A
  8
0
 10
60.0
 20
60.0
 30
0.0
 40
16.0
  0
CIRCLE
  5
2C2B
  8
0
 10
60.0
 20
60.0
 30
0.0
 40
28.0000000000000213
  0
CIRCLE
  5
2C2C
  8
0
 10
60.0
 20
60.0
 30
0.0
 40
25.6866852590207202
  0
CIRCLE
  5
2C2E
  8
0
 10
60.0
 20
60.0
 30
0.0
 40
10.5
  0
CIRCLE
  5
2C2F
  8
0
 10
60.0
 20
60.0
 30
0.0
 40
6.5000000000000142
  0
CIRCLE
  5
2C30
  8
0
 10
60.0
 20
60.0
 30
0.0
 40
5.5000000000000142
  0
CIRCLE
  5
2C31
  8
0
 10
60.0
 20
60.0
 30
0.0
 40
2.0000000000000142
  0
LINE
  5
2C99
  8
1
 10
60.0
 20
26.9999999999999893
 30
0.0
 11
60.0
 21
93.0000000000000142
 31
0.0
  0
LINE
  5
2C9A
  8
1
 10
27.0
 20
60.0
 30
0.0
 11
93.0
 21
60.0
 31
0.0
  0
LINE
  5
2D1D
  8
0
 10
88.0000000000000568
 20
119.9999999999999005
 30
0.0
 11
78.5633147409793082
 21
125.4482727745533026
 31
0.0
  0
LINE
  5
2D1E
  8
0
 10
41.4366852590206918
 20
125.4482727745533026
 30
0.0
 11
32.0
 21
119.9999999999999005
 31
0.0
  0
ARC
  5
2D1F
  8
0
 10
84.1547634765186103
 20
130.0271108059135088
 30
0.0
 40
1.0000000000000271
 50
295.0000000000051159
 51
50.0000000000022595
  0
ARC
  5
2D20
  8
0
 10
35.8452365234814181
 20
130.0271108059135088
 30
0.0
 40
1.000000000000022
 50
129.9999999999976978
 51
244.9999999999984936
  0
LINE
  5
2D21
  8
0
 10
84.7975510862051465
 20
130.7931552490325942
 30
0.0
 11
70.6072123903135207
 21
142.7002632150359034
 31
0.0
  0
LINE
  5
2D22
  8
0
 10
49.3927876096865077
 20
142.7002632150359034
 30
0.0
 11
35.2024489137949104
 21
130.7931552490325942
 31
0.0
  0
LINE
  5
2D23
  8
0
 10
35.4226182617406877
 20
129.1208030188770124
 30
0.0
 11
41.3979943898910889
 21
126.3344393699639028
 31
0.0
  0
LINE
  5
2D24
  8
0
 10
78.602005610108904
 20
126.3344393699639028
 30
0.0
 11
84.5773817382593478
 21
129.1208030188770124
 31
0.0
  0
ARC
  5
2D25
  8
0
 10
78.8133147409793082
 20
125.8812854764455977
 30
0.0
 40
0.5000000000000246
 50
115.0000000000032969
 51
240.0000000000019043
  0
ARC
  5
2D26
  8
0
 10
41.1866852590207202
 20
125.8812854764455977
 30
0.0
 40
0.5000000000000246
 50
299.9999999999981242
 51
64.9999999999967173
  0
ARC
  5
2D27
  8
0
 10
71.25
 20
143.4663076581549888
 30
0.0
 40
1.0
 50
180.0
 51
230.0000000000023022
  0
ARC
  5
2D28
  8
0
 10
48.7500000000000284
 20
143.4663076581549888
 30
0.0
 40
1.0
 50
309.9999999999976126
 51
0.0
  0
LINE
  5
2D29
  8
0
 10
70.25
 20
143.4663076581549888
 30
0.0
 11
70.25
 21
161.0
 31
0.0
  0
LINE
  5
2D2A
  8
0
 10
49.7500000000000284
 20
161.0
 30
0.0
 11
49.7500000000000284
 21
143.4663076581549888
 31
0.0
  0
LINE
  5
2D2B
  8
0
 10
66.5785000000000196
 20
171.8559999999999093
 30
0.0
 11
66.5785000000000196
 21
182.1440000000000055
 31
0.0
  0
LINE
  5
2D2C
  8
0
 10
53.4215000000000302
 20
182.1440000000000055
 30
0.0
 11
53.4215000000000302
 21
171.8559999999999093
 31
0.0
  0
LINE
  5
2D2D
  8
0
 10
66.5785000000000196
 20
182.1440000000000055
 30
0.0
 11
65.722500000000025
 21
183.0
 31
0.0
  0
LINE
  5
2D2E
  8
0
 10
54.2775000000000318
 20
183.0
 30
0.0
 11
53.4215000000000302
 21
182.1440000000000055
 31
0.0
  0
LINE
  5
2D2F
  8
0
 10
53.4215000000000302
 20
171.8559999999999093
 30
0.0
 11
54.2775000000000318
 21
170.9999999999998863
 31
0.0
  0
LINE
  5
2D30
  8
0
 10
65.722500000000025
 20
170.9999999999998863
 30
0.0
 11
66.5785000000000196
 21
171.8559999999999093
 31
0.0
  0
LINE
  5
2D31
  8
0
 10
65.722500000000025
 20
169.0
 30
0.0
 11
65.722500000000025
 21
170.9999999999998863
 31
0.0
  0
LINE
  5
2D32
  8
0
 10
54.2775000000000318
 20
170.9999999999998863
 30
0.0
 11
54.2775000000000318
 21
169.0
 31
0.0
  0
LINE
  5
2D33
  8
0
 10
69.8293785675811591
 20
168.6437940863812912
 30
0.0
 11
68.5000000000000284
 21
169.0
 31
0.0
  0
LINE
  5
2D34
  8
0
 10
50.1706214324188409
 20
161.3562059136185951
 30
0.0
 11
51.5
 21
161.0
 31
0.0
  0
LINE
  5
2D35
  8
0
 10
68.5000000000000284
 20
161.0
 30
0.0
 11
69.8293785675811876
 21
161.3562059136185951
 31
0.0
  0
LINE
  5
2D36
  8
0
 10
51.5
 20
169.0
 30
0.0
 11
50.1706214324188622
 21
168.6437940863812912
 31
0.0
  0
LINE
  5
2D37
  8
0
 10
88.0
 20
120.0
 30
0.0
 11
32.0000000000000284
 21
120.0
 31
0.0
  0
LINE
  5
2D38
  8
0
 10
70.2499999999999432
 20
161.0
 30
0.0
 11
49.75
 21
161.0
 31
0.0
  0
POLYLINE
  5
2D39
  8
0
 66
     1
 10
0.0
 20
0.0
 30
0.0
 70
   128
  0
VERTEX
  5
2E4A
  8
0
 10
64.9074772881118349
 20
168.6476589832172976
 30
0.0
  0
VERTEX
  5
2E4B
  8
0
 10
62.3656533898598866
 20
168.911914745804296
 30
0.0
  0
VERTEX
  5
2E4C
  8
0
 10
60.0
 20
169.0
 30
0.0
  0
SEQEND
  5
2E4D
  8
0
  0
POLYLINE
  5
2D3A
  8
0
 66
     1
 10
0.0
 20
0.0
 30
0.0
 70
   128
  0
VERTEX
  5
2E4E
  8
0
 10
67.3612159321677382
 20
169.0
 30
0.0
  0
VERTEX
  5
2E4F
  8
0
 10
66.1783892372372975
 20
168.911914745804296
 30
0.0
  0
VERTEX
  5
2E50
  8
0
 10
64.9074772881118349
 20
168.6476589832174113
 30
0.0
  0
SEQEND
  5
2E51
  8
0
  0
POLYLINE
  5
2D3B
  8
0
 66
     1
 10
0.0
 20
0.0
 30
0.0
 70
   128
  0
VERTEX
  5
2E52
  8
0
 10
55.0925227118881935
 20
168.6476589832174113
 30
0.0
  0
VERTEX
  5
2E53
  8
0
 10
53.8216107627627309
 20
168.911914745804296
 30
0.0
  0
VERTEX
  5
2E54
  8
0
 10
52.6387840678322618
 20
169.0
 30
0.0
  0
SEQEND
  5
2E55
  8
0
  0
POLYLINE
  5
2D3C
  8
0
 66
     1
 10
0.0
 20
0.0
 30
0.0
 70
   128
  0
VERTEX
  5
2E56
  8
0
 10
60.0
 20
169.0
 30
0.0
  0
VERTEX
  5
2E57
  8
0
 10
57.6343466101396018
 20
168.911914745804296
 30
0.0
  0
VERTEX
  5
2E58
  8
0
 10
55.0925227118881935
 20
168.6476589832172976
 30
0.0
  0
SEQEND
  5
2E59
  8
0
  0
LINE
  5
2D3D
  8
0
 10
68.5000000000000568
 20
169.0
 30
0.0
 11
51.5
 21
169.0
 31
0.0
  0
LINE
  5
2D3E
  8
0
 10
55.0925227118881935
 20
168.6476589832172976
 30
0.0
 11
55.0925227118881935
 21
161.3523410167827024
 31
0.0
  0
LINE
  5
2D3F
  8
0
 10
64.9074772881118349
 20
168.6476589832172976
 30
0.0
 11
64.9074772881118349
 21
161.3523410167827024
 31
0.0
  0
POLYLINE
  5
2D40
  8
0
 66
     1
 10
0.0
 20
0.0
 30
0.0
 70
   128
  0
VERTEX
  5
2E5A
  8
0
 10
60.0
 20
161.0
 30
0.0
  0
VERTEX
  5
2E5B
  8
0
 10
62.3656533898604621
 20
161.088085254195704
 30
0.0
  0
VERTEX
  5
2E5C
  8
0
 10
64.9074772881118633
 20
161.3523410167827024
 30
0.0
  0
SEQEND
  5
2E5D
  8
0
  0
POLYLINE
  5
2D41
  8
0
 66
     1
 10
0.0
 20
0.0
 30
0.0
 70
   128
  0
VERTEX
  5
2E5E
  8
0
 10
55.0925227118881935
 20
161.3523410167827024
 30
0.0
  0
VERTEX
  5
2E5F
  8
0
 10
57.6343466101401418
 20
161.088085254195704
 30
0.0
  0
VERTEX
  5
2E60
  8
0
 10
60.0
 20
161.0
 30
0.0
  0
SEQEND
  5
2E61
  8
0
  0
LINE
  5
2D42
  8
0
 10
50.1850454237763799
 20
168.6476589832172976
 30
0.0
 11
50.1850454237763799
 21
161.3523410167827024
 31
0.0
  0
POLYLINE
  5
2D43
  8
0
 66
     1
 10
0.0
 20
0.0
 30
0.0
 70
   128
  0
VERTEX
  5
2E62
  8
0
 10
52.6387840678322618
 20
169.0
 30
0.0
  0
VERTEX
  5
2E63
  8
0
 10
51.4559573729018496
 20
168.911914745804296
 30
0.0
  0
VERTEX
  5
2E64
  8
0
 10
50.1850454237763799
 20
168.6476589832174113
 30
0.0
  0
SEQEND
  5
2E65
  8
0
  0
POLYLINE
  5
2D44
  8
0
 66
     1
 10
0.0
 20
0.0
 30
0.0
 70
   128
  0
VERTEX
  5
2E66
  8
0
 10
52.6387840678322618
 20
161.0
 30
0.0
  0
VERTEX
  5
2E67
  8
0
 10
53.8216107627627309
 20
161.0880852541955903
 30
0.0
  0
VERTEX
  5
2E68
  8
0
 10
55.0925227118881935
 20
161.3523410167825887
 30
0.0
  0
SEQEND
  5
2E69
  8
0
  0
POLYLINE
  5
2D45
  8
0
 66
     1
 10
0.0
 20
0.0
 30
0.0
 70
   128
  0
VERTEX
  5
2E6A
  8
0
 10
50.1850454237763799
 20
161.3523410167825887
 30
0.0
  0
VERTEX
  5
2E6B
  8
0
 10
51.4559573729018496
 20
161.0880852541955903
 30
0.0
  0
VERTEX
  5
2E6C
  8
0
 10
52.6387840678322618
 20
161.0
 30
0.0
  0
SEQEND
  5
2E6D
  8
0
  0
POLYLINE
  5
2D46
  8
0
 66
     1
 10
0.0
 20
0.0
 30
0.0
 70
   128
  0
VERTEX
  5
2E6E
  8
0
 10
69.8149545762236698
 20
168.6476589832174113
 30
0.0
  0
VERTEX
  5
2E6F
  8
0
 10
68.5440426270981789
 20
168.911914745804296
 30
0.0
  0
VERTEX
  5
2E70
  8
0
 10
67.3612159321677382
 20
169.0
 30
0.0
  0
SEQEND
  5
2E71
  8
0
  0
LINE
  5
2D47
  8
0
 10
69.8149545762236698
 20
168.6476589832172976
 30
0.0
 11
69.8149545762236698
 21
161.3523410167827024
 31
0.0
  0
POLYLINE
  5
2D48
  8
0
 66
     1
 10
0.0
 20
0.0
 30
0.0
 70
   128
  0
VERTEX
  5
2E72
  8
0
 10
67.3612159321677382
 20
161.0
 30
0.0
  0
VERTEX
  5
2E73
  8
0
 10
68.5440426270981789
 20
161.0880852541955903
 30
0.0
  0
VERTEX
  5
2E74
  8
0
 10
69.8149545762236698
 20
161.3523410167825887
 30
0.0
  0
SEQEND
  5
2E75
  8
0
  0
POLYLINE
  5
2D49
  8
0
 66
     1
 10
0.0
 20
0.0
 30
0.0
 70
   128
  0
VERTEX
  5
2E76
  8
0
 10
64.9074772881118349
 20
161.3523410167825887
 30
0.0
  0
VERTEX
  5
2E77
  8
0
 10
66.1783892372372975
 20
161.0880852541955903
 30
0.0
  0
VERTEX
  5
2E78
  8
0
 10
67.3612159321677382
 20
161.0
 30
0.0
  0
SEQEND
  5
2E79
  8
0
  0
LINE
  5
2D4A
  8
0
 10
66.5785000000000196
 20
182.1440000000000055
 30
0.0
 11
53.4215000000000302
 21
182.1440000000000055
 31
0.0
  0
LINE
  5
2D4B
  8
0
 10
66.5785000000000196
 20
171.8559999999999093
 30
0.0
 11
53.4215000000000302
 21
171.8559999999999093
 31
0.0
  0
LINE
  5
2D4C
  8
0
 10
65.7225000000000819
 20
183.0
 30
0.0
 11
54.2775000000000318
 21
183.0
 31
0.0
  0
LINE
  5
2D4D
  8
0
 10
65.722500000000025
 20
170.9999999999998863
 30
0.0
 11
54.2775000000000318
 21
170.9999999999998863
 31
0.0
  0
LINE
  5
2D4E
  8
0
 10
78.5633147409793082
 20
125.4482727745533026
 30
0.0
 11
41.4366852590207202
 21
125.4482727745533026
 31
0.0
  0
LINE
  5
2D4F
  8
0
 10
84.7975510862051465
 20
130.7931552490325942
 30
0.0
 11
35.2024489137949104
 21
130.7931552490325942
 31
0.0
  0
LINE
  5
2D50
  8
0
 10
84.5773817382595325
 20
129.1208030188770124
 30
0.0
 11
35.4226182617407304
 21
129.1208030188770124
 31
0.0
  0
LINE
  5
2D51
  8
0
 10
70.6072123903133644
 20
142.7002632150359887
 30
0.0
 11
49.3927876096865077
 21
142.7002632150359887
 31
0.0
  0
LINE
  5
2D52
  8
0
 10
78.602005610108904
 20
126.3344393699639028
 30
0.0
 11
41.3979943898911174
 21
126.3344393699639028
 31
0.0
  0
LINE
  5
2D53
  8
0
 10
70.25
 20
143.4663076581549888
 30
0.0
 11
49.75
 21
143.4663076581549888
 31
0.0
  0
LINE
  5
2D54
  8
0
 10
178.0
 20
119.9999999999999005
 30
0.0
 11
168.5633147409793082
 21
125.4482727745533026
 31
0.0
  0
LINE
  5
2D55
  8
0
 10
131.4366852590206918
 20
125.4482727745533026
 30
0.0
 11
122.0
 21
119.9999999999999005
 31
0.0
  0
ARC
  5
2D56
  8
0
 10
174.1547634765186103
 20
130.0271108059135088
 30
0.0
 40
1.000000000000036
 50
295.0000000000031832
 51
50.0000000000023377
  0
ARC
  5
2D57
  8
0
 10
125.8452365234814039
 20
130.0271108059135088
 30
0.0
 40
1.0000000000000271
 50
129.9999999999976126
 51
244.9999999999967031
  0
LINE
  5
2D58
  8
0
 10
174.7975510862052033
 20
130.7931552490325942
 30
0.0
 11
160.607212390313606
 21
142.7002632150359034
 31
0.0
  0
LINE
  5
2D59
  8
0
 10
139.3927876096865077
 20
142.7002632150359034
 30
0.0
 11
125.2024489137948962
 21
130.7931552490325942
 31
0.0
  0
LINE
  5
2D5A
  8
0
 10
125.4226182617406948
 20
129.1208030188770124
 30
0.0
 11
131.397994389891096
 21
126.3344393699639028
 31
0.0
  0
LINE
  5
2D5B
  8
0
 10
168.602005610108904
 20
126.3344393699639028
 30
0.0
 11
174.5773817382593052
 21
129.1208030188770124
 31
0.0
  0
ARC
  5
2D5C
  8
0
 10
168.8133147409793082
 20
125.8812854764455977
 30
0.0
 40
0.5000000000000187
 50
115.0000000000015064
 51
240.0000000000019043
  0
ARC
  5
2D5D
  8
0
 10
131.1866852590206918
 20
125.8812854764455977
 30
0.0
 40
0.5000000000000187
 50
300.0
 51
64.9999999999984936
  0
ARC
  5
2D5E
  8
0
 10
161.25
 20
143.4663076581549888
 30
0.0
 40
1.0
 50
180.0
 51
230.0000000000021885
  0
ARC
  5
2D5F
  8
0
 10
138.75
 20
143.4663076581549888
 30
0.0
 40
1.0
 50
309.9999999999976126
 51
0.0
  0
LINE
  5
2D60
  8
0
 10
160.25
 20
143.4663076581549888
 30
0.0
 11
160.25
 21
161.0
 31
0.0
  0
LINE
  5
2D61
  8
0
 10
139.75
 20
161.0
 30
0.0
 11
139.75
 21
143.4663076581549888
 31
0.0
  0
LINE
  5
2D62
  8
0
 10
143.4215000000000089
 20
171.8559999999999093
 30
0.0
 11
144.2775000000000887
 21
170.9999999999998863
 31
0.0
  0
LINE
  5
2D63
  8
0
 10
155.7224999999999966
 20
170.9999999999998863
 30
0.0
 11
156.5785000000001048
 21
171.8559999999999093
 31
0.0
  0
LINE
  5
2D64
  8
0
 10
156.5784999999999911
 20
182.1440000000000055
 30
0.0
 11
155.7224999999999966
 21
183.0
 31
0.0
  0
LINE
  5
2D65
  8
0
 10
144.2775000000000887
 20
183.0
 30
0.0
 11
143.4215000000000941
 21
182.1440000000000055
 31
0.0
  0
LINE
  5
2D66
  8
0
 10
156.5784999999999911
 20
171.8559999999999093
 30
0.0
 11
156.5784999999999911
 21
182.1440000000000055
 31
0.0
  0
LINE
  5
2D67
  8
0
 10
143.4215000000000941
 20
182.1440000000000055
 30
0.0
 11
143.4215000000000941
 21
171.8559999999999093
 31
0.0
  0
LINE
  5
2D68
  8
0
 10
155.7224999999999966
 20
169.0
 30
0.0
 11
155.7224999999999966
 21
170.9999999999998863
 31
0.0
  0
LINE
  5
2D69
  8
0
 10
144.2775000000000887
 20
170.9999999999998863
 30
0.0
 11
144.2775000000000887
 21
169.0
 31
0.0
  0
LINE
  5
2D6A
  8
0
 10
178.0
 20
120.0
 30
0.0
 11
122.0
 21
120.0
 31
0.0
  0
LINE
  5
2D6B
  8
0
 10
160.25
 20
161.0
 30
0.0
 11
139.75
 21
161.0
 31
0.0
  0
LINE
  5
2D6C
  8
0
 10
150.0
 20
168.6476589832172976
 30
0.0
 11
150.0
 21
161.3523410167827024
 31
0.0
  0
POLYLINE
  5
2D6D
  8
0
 66
     1
 10
0.0
 20
0.0
 30
0.0
 70
   128
  0
VERTEX
  5
2E7A
  8
0
 10
154.25
 20
169.0
 30
0.0
  0
VERTEX
  5
2E7B
  8
0
 10
152.2012840678316934
 20
168.911914745804296
 30
0.0
  0
VERTEX
  5
2E7C
  8
0
 10
150.0
 20
168.6476589832174113
 30
0.0
  0
SEQEND
  5
2E7D
  8
0
  0
POLYLINE
  5
2D6E
  8
0
 66
     1
 10
0.0
 20
0.0
 30
0.0
 70
   128
  0
VERTEX
  5
2E7E
  8
0
 10
158.5
 20
168.6476589832174113
 30
0.0
  0
VERTEX
  5
2E7F
  8
0
 10
156.2987159321683066
 20
168.911914745804296
 30
0.0
  0
VERTEX
  5
2E80
  8
0
 10
154.25
 20
169.0
 30
0.0
  0
SEQEND
  5
2E81
  8
0
  0
LINE
  5
2D6F
  8
0
 10
158.5
 20
169.0
 30
0.0
 11
158.5
 21
161.0
 31
0.0
  0
POLYLINE
  5
2D70
  8
0
 66
     1
 10
0.0
 20
0.0
 30
0.0
 70
   128
  0
VERTEX
  5
2E82
  8
0
 10
154.25
 20
161.0
 30
0.0
  0
VERTEX
  5
2E83
  8
0
 10
156.2987159321683066
 20
161.0880852541955903
 30
0.0
  0
VERTEX
  5
2E84
  8
0
 10
158.5
 20
161.3523410167825887
 30
0.0
  0
SEQEND
  5
2E85
  8
0
  0
POLYLINE
  5
2D71
  8
0
 66
     1
 10
0.0
 20
0.0
 30
0.0
 70
   128
  0
VERTEX
  5
2E86
  8
0
 10
150.0
 20
161.3523410167825887
 30
0.0
  0
VERTEX
  5
2E87
  8
0
 10
152.2012840678316934
 20
161.0880852541955903
 30
0.0
  0
VERTEX
  5
2E88
  8
0
 10
154.25
 20
161.0
 30
0.0
  0
SEQEND
  5
2E89
  8
0
  0
POLYLINE
  5
2D72
  8
0
 66
     1
 10
0.0
 20
0.0
 30
0.0
 70
   128
  0
VERTEX
  5
2E8A
  8
0
 10
145.75
 20
161.0
 30
0.0
  0
VERTEX
  5
2E8B
  8
0
 10
147.7987159321683066
 20
161.0880852541955903
 30
0.0
  0
VERTEX
  5
2E8C
  8
0
 10
150.0
 20
161.3523410167825887
 30
0.0
  0
SEQEND
  5
2E8D
  8
0
  0
LINE
  5
2D73
  8
0
 10
141.5
 20
168.9999999999998863
 30
0.0
 11
141.5
 21
161.0
 31
0.0
  0
POLYLINE
  5
2D74
  8
0
 66
     1
 10
0.0
 20
0.0
 30
0.0
 70
   128
  0
VERTEX
  5
2E8E
  8
0
 10
145.75
 20
169.0
 30
0.0
  0
VERTEX
  5
2E8F
  8
0
 10
143.7012840678316934
 20
168.911914745804296
 30
0.0
  0
VERTEX
  5
2E90
  8
0
 10
141.5
 20
168.6476589832174113
 30
0.0
  0
SEQEND
  5
2E91
  8
0
  0
POLYLINE
  5
2D75
  8
0
 66
     1
 10
0.0
 20
0.0
 30
0.0
 70
   128
  0
VERTEX
  5
2E92
  8
0
 10
150.0
 20
168.6476589832174113
 30
0.0
  0
VERTEX
  5
2E93
  8
0
 10
147.7987159321683066
 20
168.911914745804296
 30
0.0
  0
VERTEX
  5
2E94
  8
0
 10
145.75
 20
169.0
 30
0.0
  0
SEQEND
  5
2E95
  8
0
  0
POLYLINE
  5
2D76
  8
0
 66
     1
 10
0.0
 20
0.0
 30
0.0
 70
   128
  0
VERTEX
  5
2E96
  8
0
 10
141.5
 20
161.3523410167825887
 30
0.0
  0
VERTEX
  5
2E97
  8
0
 10
143.7012840678316934
 20
161.0880852541955903
 30
0.0
  0
VERTEX
  5
2E98
  8
0
 10
145.75
 20
161.0
 30
0.0
  0
SEQEND
  5
2E99
  8
0
  0
LINE
  5
2D77
  8
0
 10
158.5
 20
169.0
 30
0.0
 11
141.5
 21
169.0
 31
0.0
  0
LINE
  5
2D78
  8
0
 10
156.5784999999999911
 20
171.8559999999999093
 30
0.0
 11
143.4215000000000089
 21
171.8559999999999093
 31
0.0
  0
LINE
  5
2D79
  8
0
 10
155.7224999999999966
 20
170.9999999999998863
 30
0.0
 11
144.2775000000000887
 21
170.9999999999998863
 31
0.0
  0
LINE
  5
2D7A
  8
0
 10
155.7224999999999966
 20
183.0
 30
0.0
 11
144.2775000000000887
 21
183.0
 31
0.0
  0
LINE
  5
2D7B
  8
0
 10
156.5784999999999911
 20
182.1440000000000055
 30
0.0
 11
143.4215000000000089
 21
182.1440000000000055
 31
0.0
  0
LINE
  5
2D7C
  8
0
 10
168.5633147409793082
 20
125.4482727745533026
 30
0.0
 11
131.4366852590206918
 21
125.4482727745533026
 31
0.0
  0
LINE
  5
2D7D
  8
0
 10
174.7975510862050896
 20
130.7931552490325942
 30
0.0
 11
125.2024489137948962
 21
130.7931552490325942
 31
0.0
  0
LINE
  5
2D7E
  8
0
 10
174.5773817382593052
 20
129.1208030188770124
 30
0.0
 11
125.4226182617406948
 21
129.1208030188770124
 31
0.0
  0
LINE
  5
2D7F
  8
0
 10
160.607212390313606
 20
142.7002632150359887
 30
0.0
 11
139.3927876096865077
 21
142.7002632150359887
 31
0.0
  0
LINE
  5
2D80
  8
0
 10
168.602005610108904
 20
126.3344393699639028
 30
0.0
 11
131.397994389891096
 21
126.3344393699639028
 31
0.0
  0
LINE
  5
2D81
  8
0
 10
160.25
 20
143.4663076581549888
 30
0.0
 11
139.75
 21
143.4663076581549888
 31
0.0
  0
LINE
  5
2D8F
  8
1
 10
60.0
 20
115.0
 30
0.0
 11
60.0
 21
188.0
 31
0.0
  0
LINE
  5
2D90
  8
1
 10
150.0
 20
115.0
 30
0.0
 11
150.0
 21
188.0
 31
0.0
  0
CIRCLE
  5
2DA8
  8
0
 10
60.0000000000000568
 20
243.0
 30
0.0
 40
25.1547634765185997
  0
CIRCLE
  5
2DAA
  8
0
 10
60.0000000000000568
 20
243.0
 30
0.0
 40
6.5784999999999911
  0
CIRCLE
  5
2DAB
  8
0
 10
60.0000000000000568
 20
243.0
 30
0.0
 40
2.0
  0
LINE
  5
2DAC
  8
0
 10
64.9074772881118918
 20
251.5
 30
0.0
 11
69.8149545762237551
 21
242.9999999999998863
 31
0.0
  0
LINE
  5
2DAD
  8
0
 10
64.9074772881118918
 20
234.5
 30
0.0
 11
55.0925227118882717
 21
234.5
 31
0.0
  0
LINE
  5
2DAE
  8
0
 10
55.0925227118882503
 20
251.5
 30
0.0
 11
64.9074772881118633
 21
251.5
 31
0.0
  0
LINE
  5
2DAF
  8
0
 10
55.0925227118882503
 20
234.5
 30
0.0
 11
50.1850454237764083
 21
243.0
 31
0.0
  0
LINE
  5
2DB0
  8
0
 10
69.8149545762237267
 20
243.0
 30
0.0
 11
64.9074772881119202
 21
234.5
 31
0.0
  0
LINE
  5
2DB1
  8
0
 10
50.1850454237764509
 20
243.0
 30
0.0
 11
55.0925227118881935
 21
251.5
 31
0.0
  0
CIRCLE
  5
2DB2
  8
0
 10
60.0000000000000568
 20
243.0
 30
0.0
 40
10.25
  0
CIRCLE
  5
2DB3
  8
0
 10
60.0000000000000568
 20
243.0
 30
0.0
 40
28.0
  0
CIRCLE
  5
2DB4
  8
0
 10
60.0000000000000568
 20
243.0
 30
0.0
 40
8.4999999999999716
  0
LINE
  5
2DB5
  8
1
 10
60.0000000000000568
 20
210.0
 30
0.0
 11
60.0000000000000568
 21
276.0
 31
0.0
  0
LINE
  5
2DB6
  8
1
 10
27.0000000000000604
 20
243.0
 30
0.0
 11
93.0000000000000568
 21
243.0
 31
0.0
  0
LINE
  5
2DBE
  8
3
 10
54.2775000000000603
 20
183.0
 30
0.0
 11
54.2775000000000318
 21
171.0
 31
0.0
  0
LINE
  5
2DBF
  8
3
 10
65.7225000000001103
 20
182.9999999999998863
 30
0.0
 11
65.7225000000000819
 21
171.0
 31
0.0
  0
LINE
  5
2DC0
  8
3
 10
144.2775000000000034
 20
183.0
 30
0.0
 11
144.2775000000000034
 21
171.0
 31
0.0
  0
LINE
  5
2DC1
  8
3
 10
155.7224999999999966
 20
182.9999999999998863
 30
0.0
 11
155.7224999999999966
 21
171.0
 31
0.0
  0
CIRCLE
  5
2DC2
  8
3
 10
60.0000000000000568
 20
243.0
 30
0.0
 40
5.7225000000000001
  0
VIEWPORT
  5
22
 67
     1
  8
0
 10
261.517699115044195
 20
148.5
 30
0.0
 40
523.0353982300885036
 41
297.0
 68
     1
 69
     1
1001
ACAD
1000
MVIEW
1002
{
1070
    16
1010
0.0
1020
0.0
1030
0.0
1010
0.0
1020
0.0
1030
1.0
1040
0.0
1040
297.0
1040
261.517699115044195
1040
148.5
1040
50.0
1040
0.0
1040
0.0
1070
     0
1070
   100
1070
     1
1070
     1
1070
     0
1070
     0
1070
     0
1070
     0
1040
0.0
1040
0.0
1040
0.0
1040
1.0
1040
1.0
1040
10.0
1040
10.0
1070
     0
1002
{
1002
}
1002
}
  0
ENDSEC
  0
EOF
