  0
SECTION
  2
HEADER
  9
$ACADVER
  1
AC1009
  9
$INSBASE
 10
0.0
 20
0.0
 30
0.0
  9
$EXTMIN
 10
0.0
 20
-2.960436562073669
 30
0.0
  9
$EXTMAX
 10
79.9727148703956345
 20
133.8255274513608981
 30
0.0
  9
$LIMMIN
 10
0.0
 20
0.0
  9
$LIMMAX
 10
400.0
 20
277.0
  9
$ORTHOMODE
 70
     1
  9
$REGENMODE
 70
     1
  9
$FILLMODE
 70
     1
  9
$QTEXTMODE
 70
     0
  9
$MIRRTEXT
 70
     1
  9
$DRAGMODE
 70
     2
  9
$LTSCALE
 40
5.0
  9
$OSMODE
 70
    37
  9
$ATTMODE
 70
     1
  9
$TEXTSIZE
 40
2.5
  9
$TRACEWID
 40
1.0
  9
$TEXTSTYLE
  7
STANDARD
  9
$CLAYER
  8
0
  9
$CELTYPE
  6
BYLAYER
  9
$CECOLOR
 62
   256
  9
$DIMSCALE
 40
1.0
  9
$DIMASZ
 40
3.0
  9
$DIMEXO
 40
1.0
  9
$DIMDLI
 40
6.0
  9
$DIMRND
 40
0.0
  9
$DIMDLE
 40
0.0
  9
$DIMEXE
 40
1.0
  9
$DIMTP
 40
495.0
  9
$DIMTM
 40
0.0
  9
$DIMTXT
 40
3.0
  9
$DIMCEN
 40
0.0
  9
$DIMTSZ
 40
0.0
  9
$DIMTOL
 70
     0
  9
$DIMLIM
 70
     0
  9
$DIMTIH
 70
     0
  9
$DIMTOH
 70
     0
  9
$DIMSE1
 70
     0
  9
$DIMSE2
 70
     0
  9
$DIMTAD
 70
     3
  9
$DIMZIN
 70
     8
  9
$DIMBLK
  1

  9
$DIMASO
 70
     0
  9
$DIMSHO
 70
     1
  9
$DIMPOST
  1

  9
$DIMAPOST
  1

  9
$DIMALT
 70
     0
  9
$DIMALTD
 70
     2
  9
$DIMALTF
 40
25.3999999999999986
  9
$DIMLFAC
 40
1.0
  9
$DIMTOFL
 70
     1
  9
$DIMTVP
 40
0.0
  9
$DIMTIX
 70
     1
  9
$DIMSOXD
 70
     0
  9
$DIMSAH
 70
     1
  9
$DIMBLK1
  1
ARROW1
  9
$DIMBLK2
  1
ARROW1
  9
$DIMSTYLE
  2
ITM
  9
$DIMCLRD
 70
     4
  9
$DIMCLRE
 70
     4
  9
$DIMCLRT
 70
     4
  9
$DIMTFAC
 40
1.0
  9
$DIMGAP
 40
1.0
  9
$LUNITS
 70
     2
  9
$LUPREC
 70
     1
  9
$SKETCHINC
 40
1.0
  9
$FILLETRAD
 40
0.0
  9
$AUNITS
 70
     0
  9
$AUPREC
 70
     0
  9
$MENU
  1
.
  9
$ELEVATION
 40
0.0
  9
$PELEVATION
 40
0.0
  9
$THICKNESS
 40
0.0
  9
$LIMCHECK
 70
     0
  9
$BLIPMODE
 70
     0
  9
$CHAMFERA
 40
10.0
  9
$CHAMFERB
 40
10.0
  9
$SKPOLY
 70
     0
  9
$TDCREATE
 40
2451415.6127083338797092
  9
$TDUPDATE
 40
2460886.7186921299435198
  9
$TDINDWG
 40
0.3884738542
  9
$TDUSRTIMER
 40
0.3884738542
  9
$USRTIMER
 70
     1
  9
$ANGBASE
 50
0.0
  9
$ANGDIR
 70
     0
  9
$PDMODE
 70
     0
  9
$PDSIZE
 40
0.0
  9
$PLINEWID
 40
0.0
  9
$COORDS
 70
     1
  9
$SPLFRAME
 70
     0
  9
$SPLINETYPE
 70
     6
  9
$SPLINESEGS
 70
     8
  9
$ATTDIA
 70
     1
  9
$ATTREQ
 70
     1
  9
$HANDLING
 70
     1
  9
$HANDSEED
  5
2700
  9
$SURFTAB1
 70
     6
  9
$SURFTAB2
 70
     6
  9
$SURFTYPE
 70
     6
  9
$SURFU
 70
     6
  9
$SURFV
 70
     6
  9
$UCSNAME
  2

  9
$UCSORG
 10
0.0
 20
0.0
 30
0.0
  9
$UCSXDIR
 10
1.0
 20
0.0
 30
0.0
  9
$UCSYDIR
 10
0.0
 20
1.0
 30
0.0
  9
$PUCSNAME
  2

  9
$PUCSORG
 10
0.0
 20
0.0
 30
0.0
  9
$PUCSXDIR
 10
1.0
 20
0.0
 30
0.0
  9
$PUCSYDIR
 10
0.0
 20
1.0
 30
0.0
  9
$USERI1
 70
     3
  9
$USERI2
 70
     1
  9
$USERI3
 70
     1
  9
$USERI4
 70
     0
  9
$USERI5
 70
     0
  9
$USERR1
 40
1.0
  9
$USERR2
 40
3.0
  9
$USERR3
 40
3.0
  9
$USERR4
 40
3.0
  9
$USERR5
 40
10.0
  9
$WORLDVIEW
 70
     1
  9
$SHADEDGE
 70
     3
  9
$SHADEDIF
 70
    70
  9
$TILEMODE
 70
     1
  9
$MAXACTVP
 70
    16
  9
$PLIMCHECK
 70
     0
  9
$PEXTMIN
 10
1.0000000000000000E+20
 20
1.0000000000000000E+20
 30
1.0000000000000000E+20
  9
$PEXTMAX
 10
-1.0000000000000000E+20
 20
-1.0000000000000000E+20
 30
-1.0000000000000000E+20
  9
$PLIMMIN
 10
0.0
 20
0.0
  9
$PLIMMAX
 10
420.0
 20
297.0
  9
$UNITMODE
 70
     0
  9
$VISRETAIN
 70
     0
  9
$PLINEGEN
 70
     0
  9
$PSLTSCALE
 70
     1
  0
ENDSEC
  0
SECTION
  2
TABLES
  0
TABLE
  2
VPORT
 70
     1
  0
VPORT
  2
*ACTIVE
 70
     0
 10
0.0
 20
0.0
 11
1.0
 21
1.0
 12
186.513911620294607
 22
79.6984927194588693
 13
0.0
 23
0.0
 14
10.0
 24
10.0
 15
10.0
 25
10.0
 16
0.0
 26
0.0
 36
1.0
 17
0.0
 27
0.0
 37
0.0
 40
159.3969854389177101
 41
2.340243902439024
 42
50.0
 43
0.0
 44
0.0
 50
0.0
 51
0.0
 71
     0
 72
   100
 73
     1
 74
     1
 75
     0
 76
     0
 77
     0
 78
     0
  0
ENDTAB
  0
TABLE
  2
LTYPE
 70
     3
  0
LTYPE
  2
CONTINUOUS
 70
     0
  3
Solid line
 72
    65
 73
     0
 40
0.0
  0
LTYPE
  2
CENTER
 70
     0
  3
____ _ ____ _ ____ _ ____ _ ____ _ ____ _ ____ 
 72
    65
 73
     4
 40
2.0
 49
1.25
 49
-0.25
 49
0.25
 49
-0.25
  0
LTYPE
  2
PHANTOM2
 70
     0
  3
___ _ _ ___ _ _ ___ _ _ ___ _ _
 72
    65
 73
     6
 40
1.25
 49
0.625
 49
-0.125
 49
0.125
 49
-0.125
 49
0.125
 49
-0.125
  0
ENDTAB
  0
TABLE
  2
LAYER
 70
     5
  0
LAYER
  2
0
 70
     0
 62
     7
  6
CONTINUOUS
  0
LAYER
  2
WAKU
 70
     0
 62
     5
  6
CONTINUOUS
  0
LAYER
  2
1
 70
     0
 62
     1
  6
CENTER
  0
LAYER
  2
3
 70
     0
 62
     3
  6
CONTINUOUS
  0
LAYER
  2
DEFPOINTS
 70
     0
 62
     7
  6
CONTINUOUS
  0
ENDTAB
  0
TABLE
  2
STYLE
 70
     3
  0
STYLE
  2
STANDARD
 70
     0
 40
0.0
 41
1.0
 50
0.0
 71
     0
 42
2.5
  3
ROMANS
  4
EXTFONT
  0
STYLE
  2
K
 70
     0
 40
0.0
 41
1.0
 50
0.0
 71
     0
 42
3.0
  3
ROMANS
  4
bigfont
  0
STYLE
  2
STANDARD1
 70
     0
 40
0.0
 41
1.0
 50
0.0
 71
     0
 42
3.0
  3
txt
  4

  0
ENDTAB
  0
TABLE
  2
VIEW
 70
     0
  0
ENDTAB
  0
TABLE
  2
UCS
 70
     0
  0
ENDTAB
  0
TABLE
  2
APPID
 70
    45
  0
APPID
  2
ACAD
 70
     0
  0
APPID
  2
ACAD_NAV_VCDISPLAY
 70
     0
  0
APPID
  2
DCO15
 70
     0
  0
APPID
  2
GENIUS_GENOREF_13
 70
     0
  0
APPID
  2
GENIUS_GENOENT_13
 70
     0
  0
APPID
  2
GENIUS_GENBH_13
 70
     0
  0
APPID
  2
GENIUS_GENOBJ_13
 70
     0
  0
APPID
  2
GENIUS_GENODEF_13
 70
     0
  0
APPID
  2
GENIUS_GENOLIS_13
 70
     0
  0
APPID
  2
GENIUS_GENOBJ-NBEHI-BHF_13
 70
     0
  0
APPID
  2
GENIUS_GENOBJ-NBEHI-BHB_13
 70
     0
  0
APPID
  2
GENIUS_GENOBJ-F-PART_13
 70
     0
  0
APPID
  2
GENIUS_GEFSTDP_13
 70
     0
  0
APPID
  2
GENIUS_GENOBJ-N-RSSYM_13
 70
     0
  0
APPID
  2
GENIUS_GENSYMENT_13
 70
     0
  0
APPID
  2
GENIUS_GENOBJ-N-TIT_13
 70
     0
  0
APPID
  2
GENIUS_GENTITLE_13
 70
     0
  0
APPID
  2
GENIUS_GENZVEED_13
 70
     0
  0
APPID
  2
GENIUS_GENOBJ-N-LEADER_13
 70
     0
  0
APPID
  2
GENIUS_GENOBJ-N-FIL_13
 70
     0
  0
APPID
  2
GENIUS_GENOBJ-N-SEC_13
 70
     0
  0
APPID
  2
GENIUS_GENOBJ-N-CRS_13
 70
     0
  0
APPID
  2
GENIUS_GENOBJ-N-ZOO_13
 70
     0
  0
APPID
  2
GENIUS_GENZOO_13
 70
     0
  0
APPID
  2
GENIUS_GENOBJ-F-TOL_13
 70
     0
  0
APPID
  2
GENIUS_GENFIL_13
 70
     0
  0
APPID
  2
GENIUS_GENOBJ-N-CHA_13
 70
     0
  0
APPID
  2
_CALL_MAC$
 70
     0
  0
APPID
  2
ASM_BASE
 70
     0
  0
APPID
  2
ASM_EXPLO_VER_2_00
 70
     0
  0
APPID
  2
ASM_CADM_VER_12_00
 70
     0
  0
APPID
  2
ASM_BASEFORO
 70
     0
  0
APPID
  2
ASM_BASETRAVI
 70
     0
  0
APPID
  2
ASM_BASETRAVI1
 70
     0
  0
APPID
  2
ASM_GRUPPI
 70
     0
  0
APPID
  2
ASM_CADM_ALBERO
 70
     0
  0
APPID
  2
ASM_GOLE
 70
     0
  0
APPID
  2
ACAD_EXEMPT_FROM_CAD_STANDARDS
 70
     0
  0
APPID
  2
ACAD_DSTYLE_DIMJAG
 70
     0
  0
APPID
  2
ACAD_DSTYLE_DIMTALN
 70
     0
  0
APPID
  2
GRADIENTCOLOR1ACI
 70
     0
  0
APPID
  2
GRADIENTCOLOR2ACI
 70
     0
  0
APPID
  2
ACAD_MLEADERVER
 70
     0
  0
APPID
  2
ACAD_TC
 70
     0
  0
APPID
  2
ACAD_DSTYLE_DIMRADIAL_EXTENSION
 70
     0
  0
ENDTAB
  0
TABLE
  2
DIMSTYLE
 70
     2
  0
DIMSTYLE
  2
STANDARD
 70
     0
  3

  4

  5

  6

  7

 40
1.0
 41
0.18
 42
0.0625
 43
0.38
 44
0.18
 45
0.0
 46
0.0
 47
0.0
 48
0.0
140
0.18
141
0.09
142
0.0
143
25.3999999999999986
144
1.0
145
0.0
146
1.0
147
0.09
 71
     0
 72
     0
 73
     1
 74
     1
 75
     0
 76
     0
 77
     0
 78
     0
170
     0
171
     2
172
     0
173
     0
174
     0
175
     0
176
     0
177
     0
178
     0
  0
DIMSTYLE
  2
ITM
 70
     0
  3

  4

  5
ARROWANG
  6
ARROWANG
  7
ARROWANG
 40
1.0
 41
1.5
 42
1.0
 43
6.0
 44
1.0
 45
0.0
 46
0.0
 47
495.0
 48
0.0
140
3.0
141
0.0
142
0.0
143
25.3999999999999986
144
1.0
145
0.0
146
1.0
147
0.5
 71
     0
 72
     0
 73
     0
 74
     0
 75
     0
 76
     0
 77
     3
 78
     8
170
     0
171
     2
172
     1
173
     1
174
     1
175
     0
176
     0
177
     0
178
     0
  0
ENDTAB
  0
ENDSEC
  0
SECTION
  2
BLOCKS
  0
BLOCK
  8
0
  2
$MODEL_SPACE
 70
     0
 10
0.0
 20
0.0
 30
0.0
  3
$MODEL_SPACE
  1

  0
ENDBLK
  5
1C
  8
0
  0
BLOCK
 67
     1
  8
0
  2
$PAPER_SPACE
 70
     0
 10
0.0
 20
0.0
 30
0.0
  3
$PAPER_SPACE
  1

  0
ENDBLK
  5
19
 67
     1
  8
0
  0
BLOCK
  8
0
  2
ARROWANG
 70
     0
 10
0.0
 20
0.0
 30
0.0
  3
ARROWANG
  1

  0
LINE
  5
C9
  8
0
 10
0.0
 20
0.0
 30
0.0
 11
-1.4999999999999429
 21
0.4019237886467409
 31
0.0
  0
LINE
  5
CA
  8
0
 10
0.0
 20
0.0
 30
0.0
 11
-1.5
 21
-0.4019237886467124
 31
0.0
  0
ENDBLK
  5
CB
  8
0
  0
BLOCK
  8
0
  2
ARROW1
 70
     0
 10
0.0
 20
0.0
 30
0.0
  3
ARROW1
  1

  0
SOLID
  5
EE
  8
WAKU
  6
CONTINUOUS
 62
     4
 10
-1.0
 20
0.1666666666666714
 30
0.0
 11
-1.0
 21
-0.1666666666666714
 31
0.0
 12
0.0
 22
0.0
 32
0.0
 13
0.0
 23
0.0
 33
0.0
  0
ENDBLK
  5
F0
  8
0
  0
ENDSEC
  0
SECTION
  2
ENTITIES
  0
TEXT
  5
1BB9
  8
0
 62
     3
 10
0.0
 20
0.0
 30
0.0
 40
10.0
  1
VVL11-A-M5
  7
STANDARD1
  0
ARC
  5
25C4
  8
0
 10
45.6255274513609024
 20
76.6176385072379844
 30
0.0
 40
0.2000000000000207
 50
326.4423407162836952
 51
55.0000000000028919
  0
ARC
  5
25C5
  8
0
 10
34.3744725486390905
 20
76.6176385072379844
 30
0.0
 40
0.2000000000000207
 50
124.999999999997101
 51
213.5576592837180954
  0
LINE
  5
25C6
  8
0
 10
34.2078065563897624
 20
76.5070833308438409
 30
0.0
 11
36.9012257447892011
 21
72.4466548984604231
 31
0.0
  0
LINE
  5
25C7
  8
0
 10
43.0987742552107918
 20
72.4466548984604231
 30
0.0
 11
45.7921934436102376
 21
76.5070833308438409
 31
0.0
  0
LINE
  5
25C8
  8
0
 10
45.7402427386311388
 20
76.7814689160958039
 30
0.0
 11
44.0
 21
78.0000000000000284
 31
0.0
  0
LINE
  5
25C9
  8
0
 10
36.0
 20
78.0000000000000284
 30
0.0
 11
34.2597572613688612
 21
76.7814689160958039
 31
0.0
  0
LINE
  5
25CA
  8
0
 10
34.5
 20
70.2000000000000171
 30
0.0
 11
34.6999999999999886
 21
70.0
 31
0.0
  0
LINE
  5
25CB
  8
0
 10
45.3000000000000114
 20
70.0
 30
0.0
 11
45.4999999999999929
 21
70.2000000000000171
 31
0.0
  0
LINE
  5
25CC
  8
0
 10
45.4999999999999929
 20
70.2000000000000171
 30
0.0
 11
43.1368827255228098
 21
72.1828908334424852
 31
0.0
  0
LINE
  5
25CD
  8
0
 10
36.8631172744771618
 20
72.1828908334424852
 30
0.0
 11
34.5
 21
70.2000000000000171
 31
0.0
  0
LINE
  5
25CE
  8
0
 10
44.0
 20
78.0000000000000284
 30
0.0
 11
44.0
 21
86.5000000000000284
 31
0.0
  0
LINE
  5
25CF
  8
0
 10
36.0
 20
86.5000000000000284
 30
0.0
 11
36.0
 21
78.0000000000000284
 31
0.0
  0
ARC
  5
25D0
  8
0
 10
43.265440247460127
 20
72.3360997220662512
 30
0.0
 40
0.2000000000000205
 50
146.4423407162690012
 51
229.999999999994003
  0
ARC
  5
25D1
  8
0
 10
36.734559752539873
 20
72.3360997220662512
 30
0.0
 40
0.2000000000000205
 50
310.0000000000039222
 51
33.5576592837309491
  0
LINE
  5
25D2
  8
0
 10
37.5
 20
92.4905000000000257
 30
0.0
 11
37.9904999999999973
 21
92.0000000000000142
 31
0.0
  0
LINE
  5
25D3
  8
0
 10
42.0095000000000027
 20
92.0000000000000142
 30
0.0
 11
42.5
 21
92.4905000000000257
 31
0.0
  0
LINE
  5
25D4
  8
0
 10
42.5
 20
92.4905000000000257
 30
0.0
 11
42.5
 21
94.5095000000000454
 31
0.0
  0
LINE
  5
25D5
  8
0
 10
37.5
 20
94.5095000000000454
 30
0.0
 11
37.5
 21
92.4905000000000257
 31
0.0
  0
LINE
  5
25D6
  8
0
 10
42.5
 20
94.5095000000000454
 30
0.0
 11
42.0095000000000027
 21
95.0000000000000284
 31
0.0
  0
LINE
  5
25D7
  8
0
 10
37.9904999999999973
 20
95.0000000000000284
 30
0.0
 11
37.5
 21
94.5095000000000454
 31
0.0
  0
LINE
  5
25D8
  8
0
 10
42.0095000000000027
 20
91.0000000000000284
 30
0.0
 11
42.0095000000000027
 21
92.0000000000000142
 31
0.0
  0
LINE
  5
25D9
  8
0
 10
37.9904999999999973
 20
92.0000000000000142
 30
0.0
 11
37.9904999999999973
 21
91.0000000000000284
 31
0.0
  0
LINE
  5
25DA
  8
0
 10
44.6255899141538634
 20
90.8323736877094348
 30
0.0
 11
44.0
 21
91.0000000000000284
 31
0.0
  0
LINE
  5
25DB
  8
0
 10
36.0
 20
91.0000000000000284
 30
0.0
 11
35.3744100858461366
 21
90.8323736877094348
 31
0.0
  0
LINE
  5
25DC
  8
0
 10
35.3744100858461366
 20
86.6676263122906221
 30
0.0
 11
36.0
 21
86.5000000000000284
 31
0.0
  0
LINE
  5
25DD
  8
0
 10
44.0
 20
86.5000000000000284
 30
0.0
 11
44.6255899141538634
 21
86.6676263122906221
 31
0.0
  0
LINE
  5
25DE
  8
0
 10
44.0
 20
78.0000000000000284
 30
0.0
 11
36.0
 21
78.0000000000000284
 31
0.0
  0
LINE
  5
25E0
  8
0
 10
45.4999999999999929
 20
70.2000000000000171
 30
0.0
 11
34.5
 21
70.2000000000000171
 31
0.0
  0
LINE
  5
25E2
  8
0
 10
45.3000000000000114
 20
70.0
 30
0.0
 11
34.6999999999999886
 21
70.0
 31
0.0
  0
LINE
  5
25E4
  8
0
 10
42.3094010767584905
 20
90.8341924626905382
 30
0.0
 11
42.3094010767584905
 21
86.6658075373095187
 31
0.0
  0
ARC
  5
25E5
  8
0
 10
43.5180224999513428
 20
86.5208597681534144
 30
0.0
 40
4.4794647758818673
 50
90.689706001876317
 51
105.6531873040785996
  0
ARC
  5
25E6
  8
0
 10
43.4101807303241785
 20
86.520859768153457
 30
0.0
 40
4.4794647758818078
 50
74.3468126959213436
 51
89.3102939981253172
  0
LINE
  5
25E7
  8
0
 10
44.6188021535170023
 20
90.8341924626905382
 30
0.0
 11
44.6188021535170023
 21
86.6658075373095187
 31
0.0
  0
ARC
  5
25E8
  8
0
 10
43.4101807303248108
 20
90.9791402318430045
 30
0.0
 40
4.4794647758781663
 50
270.6897060018682168
 51
285.6531873040835876
  0
ARC
  5
25E9
  8
0
 10
43.5180224999506891
 20
90.9791402318428482
 30
0.0
 40
4.4794647758780242
 50
254.3468126959162987
 51
269.3102939981334885
  0
LINE
  5
25EA
  8
0
 10
37.6905989232415095
 20
90.8341924626905382
 30
0.0
 11
37.6905989232415095
 21
86.6658075373095187
 31
0.0
  0
ARC
  5
25EB
  8
0
 10
40.0928789690465166
 20
73.5405553059890167
 30
0.0
 40
17.4596917362856203
 50
90.3047933555323823
 51
97.9084173462039047
  0
ARC
  5
25EC
  8
0
 10
39.90712103095467
 20
73.5405553060051318
 30
0.0
 40
17.4596917362695017
 50
82.0915826537928268
 51
89.6952066444708578
  0
ARC
  5
25ED
  8
0
 10
39.9071210309544995
 20
103.9594446939969004
 30
0.0
 40
17.4596917362715196
 50
270.3047933555291138
 51
277.9084173462071021
  0
ARC
  5
25EE
  8
0
 10
40.0928789690442713
 20
103.9594446939801031
 30
0.0
 40
17.4596917362546904
 50
262.091582653789601
 51
269.6952066444757747
  0
LINE
  5
25F0
  8
0
 10
44.0000000000000284
 20
86.5000000000000284
 30
0.0
 11
36.0000000000000284
 21
86.5000000000000284
 31
0.0
  0
ARC
  5
25F1
  8
0
 10
36.4819775000492825
 20
90.9791402318430755
 30
0.0
 40
4.4794647758782506
 50
270.6897060018682168
 51
285.6531873040835876
  0
ARC
  5
25F5
  8
0
 10
36.4819775000486572
 20
86.5208597681533291
 30
0.0
 40
4.4794647758819224
 50
74.3468126959213436
 51
89.3102939981253172
  0
LINE
  5
25F6
  8
0
 10
44.0
 20
91.0000000000000284
 30
0.0
 11
36.0
 21
91.0000000000000284
 31
0.0
  0
LINE
  5
25F7
  8
0
 10
35.3811978464829906
 20
90.8341924626905382
 30
0.0
 11
35.3811978464829906
 21
86.6658075373095187
 31
0.0
  0
ARC
  5
25F8
  8
0
 10
36.5898192696758429
 20
86.5208597681534144
 30
0.0
 40
4.4794647758818744
 50
90.689706001876317
 51
105.6531873040785996
  0
ARC
  5
25F9
  8
0
 10
36.5898192696751892
 20
90.9791402318428482
 30
0.0
 40
4.4794647758780268
 50
254.3468126959162987
 51
269.3102939981334885
  0
LINE
  5
25FA
  8
0
 10
42.5000000000000213
 20
92.4905000000000257
 30
0.0
 11
37.5
 21
92.4905000000000257
 31
0.0
  0
LINE
  5
25FC
  8
0
 10
42.0095000000000027
 20
92.0000000000000142
 30
0.0
 11
37.9904999999999973
 21
92.0000000000000142
 31
0.0
  0
LINE
  5
25FE
  8
0
 10
42.5
 20
94.5095000000000454
 30
0.0
 11
37.5
 21
94.5095000000000454
 31
0.0
  0
LINE
  5
2600
  8
0
 10
42.0095000000000027
 20
95.0000000000000284
 30
0.0
 11
37.9904999999999973
 21
95.0000000000000284
 31
0.0
  0
LINE
  5
2604
  8
0
 10
45.7402427386311388
 20
76.7814689160958039
 30
0.0
 11
34.2597572613688612
 21
76.7814689160958039
 31
0.0
  0
LINE
  5
2606
  8
0
 10
45.7921934436102731
 20
76.5070833308438409
 30
0.0
 11
34.2078065563897624
 21
76.5070833308438409
 31
0.0
  0
LINE
  5
2608
  8
0
 10
43.0987742552107918
 20
72.4466548984604231
 30
0.0
 11
36.9012257447892011
 21
72.4466548984604231
 31
0.0
  0
LINE
  5
260A
  8
0
 10
43.1368827255228311
 20
72.1828908334424852
 30
0.0
 11
36.8631172744771618
 21
72.1828908334424852
 31
0.0
  0
ARC
  5
260C
  8
0
 10
75.6255274513609379
 20
76.6176385072379844
 30
0.0
 40
0.2000000000000126
 50
326.4423407162855142
 51
55.0000000000049099
  0
ARC
  5
260D
  8
0
 10
64.3744725486391047
 20
76.6176385072379844
 30
0.0
 40
0.2000000000000207
 50
124.999999999997101
 51
213.5576592837180954
  0
LINE
  5
260E
  8
0
 10
64.2078065563897553
 20
76.5070833308438409
 30
0.0
 11
66.9012257447892011
 21
72.4466548984604231
 31
0.0
  0
LINE
  5
260F
  8
0
 10
73.0987742552107846
 20
72.4466548984604231
 30
0.0
 11
75.7921934436102731
 21
76.5070833308438409
 31
0.0
  0
LINE
  5
2610
  8
0
 10
75.7402427386311388
 20
76.7814689160958039
 30
0.0
 11
74.0
 21
78.0000000000000284
 31
0.0
  0
LINE
  5
2611
  8
0
 10
66.0
 20
78.0000000000000284
 30
0.0
 11
64.2597572613688897
 21
76.7814689160958039
 31
0.0
  0
LINE
  5
2612
  8
0
 10
64.5
 20
70.2000000000000171
 30
0.0
 11
64.7000000000000171
 21
70.0
 31
0.0
  0
LINE
  5
2613
  8
0
 10
75.3000000000000114
 20
70.0
 30
0.0
 11
75.5000000000000284
 21
70.2000000000000171
 31
0.0
  0
LINE
  5
2614
  8
0
 10
75.5000000000000284
 20
70.2000000000000171
 30
0.0
 11
73.1368827255228666
 21
72.1828908334424852
 31
0.0
  0
LINE
  5
2615
  8
0
 10
66.8631172744771902
 20
72.1828908334424852
 30
0.0
 11
64.5
 21
70.2000000000000171
 31
0.0
  0
LINE
  5
2616
  8
0
 10
74.0
 20
78.0000000000000284
 30
0.0
 11
74.0
 21
86.5000000000000284
 31
0.0
  0
LINE
  5
2617
  8
0
 10
66.0
 20
86.5000000000000284
 30
0.0
 11
66.0
 21
78.0000000000000284
 31
0.0
  0
ARC
  5
2618
  8
0
 10
73.2654402474601625
 20
72.3360997220662512
 30
0.0
 40
0.2000000000000205
 50
146.4423407162690012
 51
229.9999999999980957
  0
ARC
  5
2619
  8
0
 10
66.7345597525398944
 20
72.3360997220662512
 30
0.0
 40
0.2000000000000205
 50
310.0000000000060822
 51
33.557659283730942
  0
LINE
  5
261A
  8
0
 10
72.5
 20
92.4905000000000257
 30
0.0
 11
72.5
 21
94.5095000000000454
 31
0.0
  0
LINE
  5
261B
  8
0
 10
67.5
 20
94.5095000000000454
 30
0.0
 11
67.5
 21
92.4905000000000257
 31
0.0
  0
LINE
  5
261C
  8
0
 10
67.5
 20
92.4905000000000257
 30
0.0
 11
67.9905000000000257
 21
92.0000000000000142
 31
0.0
  0
LINE
  5
261D
  8
0
 10
72.0095000000000027
 20
92.0000000000000142
 30
0.0
 11
72.5
 21
92.4905000000000257
 31
0.0
  0
LINE
  5
261E
  8
0
 10
72.5
 20
94.5095000000000454
 30
0.0
 11
72.0095000000000027
 21
95.0000000000000284
 31
0.0
  0
LINE
  5
261F
  8
0
 10
67.9905000000000257
 20
95.0000000000000284
 30
0.0
 11
67.5
 21
94.5095000000000454
 31
0.0
  0
LINE
  5
2620
  8
0
 10
72.0095000000000027
 20
91.0000000000000284
 30
0.0
 11
72.0095000000000027
 21
92.0000000000000142
 31
0.0
  0
LINE
  5
2621
  8
0
 10
67.9905000000000257
 20
92.0000000000000142
 30
0.0
 11
67.9905000000000257
 21
91.0000000000000284
 31
0.0
  0
LINE
  5
2622
  8
0
 10
74.0
 20
78.0000000000000284
 30
0.0
 11
66.0
 21
78.0000000000000284
 31
0.0
  0
LINE
  5
2623
  8
0
 10
75.5000000000000284
 20
70.2000000000000171
 30
0.0
 11
64.5
 21
70.2000000000000171
 31
0.0
  0
LINE
  5
2624
  8
0
 10
75.3000000000000114
 20
70.0
 30
0.0
 11
64.7000000000000171
 21
70.0
 31
0.0
  0
LINE
  5
2625
  8
0
 10
70.0
 20
90.8341924626905382
 30
0.0
 11
70.0
 21
86.6658075373095187
 31
0.0
  0
ARC
  5
2626
  8
0
 10
72.0818753428252705
 20
77.8673234600663022
 30
0.0
 40
13.1329317623403892
 50
90.3572044737502296
 51
99.1211921657117756
  0
ARC
  5
2627
  8
0
 10
71.9181246571747437
 20
77.8673234600664159
 30
0.0
 40
13.1329317623402808
 50
80.8788078342882528
 51
89.6427955262497846
  0
LINE
  5
2628
  8
0
 10
74.0
 20
90.8341924626905382
 30
0.0
 11
74.0
 21
86.6658075373095187
 31
0.0
  0
ARC
  5
2629
  8
0
 10
71.9181246571758379
 20
99.6326765399228833
 30
0.0
 40
13.1329317623295001
 50
270.3572044737470037
 51
279.1211921657151152
  0
ARC
  5
262A
  8
0
 10
72.0818753428242189
 20
99.632676539923068
 30
0.0
 40
13.1329317623296706
 50
260.8788078342865902
 51
269.6427955262547016
  0
LINE
  5
262B
  8
0
 10
73.9999999999999716
 20
91.0000000000000284
 30
0.0
 11
66.0
 21
91.0000000000000284
 31
0.0
  0
ARC
  5
262C
  8
0
 10
67.9181246571747579
 20
77.8673234600664159
 30
0.0
 40
13.1329317623402808
 50
80.8788078342882528
 51
89.6427955262497846
  0
LINE
  5
262D
  8
0
 10
66.0
 20
90.8341924626905382
 30
0.0
 11
66.0
 21
86.6658075373095187
 31
0.0
  0
ARC
  5
262E
  8
0
 10
68.081875342825299
 20
77.8673234600663022
 30
0.0
 40
13.1329317623403892
 50
90.3572044737502296
 51
99.1211921657117756
  0
ARC
  5
262F
  8
0
 10
67.9181246571758663
 20
99.6326765399226133
 30
0.0
 40
13.1329317623292194
 50
270.3572044737470037
 51
279.1211921657151152
  0
ARC
  5
2630
  8
0
 10
68.0818753428241905
 20
99.6326765399228833
 30
0.0
 40
13.1329317623295001
 50
260.8788078342865902
 51
269.6427955262547016
  0
LINE
  5
2631
  8
0
 10
74.0
 20
86.5000000000000284
 30
0.0
 11
66.0
 21
86.5000000000000284
 31
0.0
  0
LINE
  5
2634
  8
0
 10
74.0
 20
86.6658075373095187
 30
0.0
 11
74.0
 21
86.5000000000000284
 31
0.0
  0
LINE
  5
2635
  8
0
 10
66.0
 20
90.8341924626905382
 30
0.0
 11
66.0
 21
91.0000000000000284
 31
0.0
  0
LINE
  5
2637
  8
0
 10
74.0
 20
91.0000000000000284
 30
0.0
 11
74.0
 21
90.8341924626905382
 31
0.0
  0
LINE
  5
2639
  8
0
 10
66.0
 20
86.5000000000000284
 30
0.0
 11
66.0
 21
86.6658075373095187
 31
0.0
  0
LINE
  5
263A
  8
0
 10
72.5
 20
94.5095000000000454
 30
0.0
 11
67.5
 21
94.5095000000000454
 31
0.0
  0
LINE
  5
263B
  8
0
 10
72.5
 20
92.4905000000000257
 30
0.0
 11
67.5
 21
92.4905000000000257
 31
0.0
  0
LINE
  5
263C
  8
0
 10
72.0095000000000027
 20
92.0000000000000142
 30
0.0
 11
67.9905000000000257
 21
92.0000000000000142
 31
0.0
  0
LINE
  5
263D
  8
0
 10
72.0095000000000027
 20
95.0000000000000284
 30
0.0
 11
67.9905000000000257
 21
95.0000000000000284
 31
0.0
  0
LINE
  5
263E
  8
0
 10
75.7402427386311388
 20
76.7814689160958039
 30
0.0
 11
64.2597572613688897
 21
76.7814689160958039
 31
0.0
  0
LINE
  5
263F
  8
0
 10
75.7921934436102731
 20
76.5070833308438409
 30
0.0
 11
64.2078065563897553
 21
76.5070833308438409
 31
0.0
  0
LINE
  5
2640
  8
0
 10
73.0987742552107846
 20
72.4466548984604231
 30
0.0
 11
66.9012257447892011
 21
72.4466548984604231
 31
0.0
  0
LINE
  5
2641
  8
0
 10
73.1368827255228666
 20
72.1828908334424852
 30
0.0
 11
66.8631172744771902
 21
72.1828908334424852
 31
0.0
  0
CIRCLE
  5
2642
  8
0
 10
40.0
 20
40.0
 30
0.0
 40
2.0407494091867728
  0
CIRCLE
  5
2643
  8
0
 10
40.0
 20
40.0
 30
0.0
 40
5.8255274513608981
  0
CIRCLE
  5
2644
  8
0
 10
40.0
 20
40.0
 30
0.0
 40
5.5000000000000142
  0
CIRCLE
  5
2645
  8
0
 10
40.0
 20
40.0
 30
0.0
 40
5.2999999999999972
  0
CIRCLE
  5
2646
  8
0
 10
40.0
 20
40.0
 30
0.0
 40
2.2907494091867728
  0
CIRCLE
  5
2648
  8
0
 10
40.0
 20
40.0
 30
0.0
 40
2.0
  0
CIRCLE
  5
2649
  8
0
 10
40.0
 20
40.0
 30
0.0
 40
1.0
  0
CIRCLE
  5
264B
  8
0
 10
40.0
 20
125.0
 30
0.0
 40
5.8255274513608981
  0
CIRCLE
  5
264C
  8
0
 10
40.0
 20
125.0
 30
0.0
 40
1.0
  0
CIRCLE
  5
264D
  8
0
 10
40.0
 20
125.0
 30
0.0
 40
2.0095000000000018
  0
CIRCLE
  5
264E
  8
0
 10
40.0
 20
125.0
 30
0.0
 40
2.5
  0
LINE
  5
2656
  8
0
 10
44.618802153516981
 20
125.0
 30
0.0
 11
42.3094010767584905
 21
121.0
 31
0.0
  0
LINE
  5
2658
  8
0
 10
37.6905989232415379
 20
129.0
 30
0.0
 11
42.3094010767584905
 21
129.0
 31
0.0
  0
LINE
  5
2659
  8
0
 10
35.381197846483019
 20
125.0
 30
0.0
 11
37.6905989232415095
 21
129.0
 31
0.0
  0
LINE
  5
265C
  8
0
 10
42.3094010767584905
 20
121.0
 30
0.0
 11
37.6905989232415095
 21
121.0
 31
0.0
  0
LINE
  5
265D
  8
0
 10
42.3094010767584265
 20
129.0
 30
0.0
 11
44.6188021535170023
 21
125.0
 31
0.0
  0
LINE
  5
265F
  8
0
 10
37.6905989232414811
 20
121.0
 30
0.0
 11
35.3811978464829906
 21
125.0
 31
0.0
  0
CIRCLE
  5
2669
  8
0
 10
40.0
 20
125.0
 30
0.0
 40
4.0
  0
LINE
  5
266A
  8
1
 10
31.1744725486390983
 20
40.0
 30
0.0
 11
48.8255274513608981
 21
40.0
 31
0.0
  0
LINE
  5
266B
  8
1
 10
40.0
 20
48.8255274513608981
 30
0.0
 11
40.0
 21
31.1744725486390983
 31
0.0
  0
LINE
  5
266D
  8
1
 10
40.0
 20
98.0000000000000426
 30
0.0
 11
40.0
 21
67.0
 31
0.0
  0
LINE
  5
266F
  8
1
 10
70.0
 20
98.0000000000000426
 30
0.0
 11
70.0
 21
67.0
 31
0.0
  0
LINE
  5
2670
  8
1
 10
31.1744725486390983
 20
125.0
 30
0.0
 11
48.8255274513608981
 21
125.0
 31
0.0
  0
LINE
  5
2671
  8
1
 10
40.0
 20
133.8255274513608981
 30
0.0
 11
40.0
 21
116.1744725486391019
 31
0.0
  0
LINE
  5
2689
  8
3
 10
42.0670000000003483
 20
94.9424999999996544
 30
0.0
 11
42.0670000000003199
 21
92.0575000000004167
 31
0.0
  0
LINE
  5
268A
  8
3
 10
37.9329999999999927
 20
94.9424999999999955
 30
0.0
 11
37.9330000000000211
 21
92.0574999999999619
 31
0.0
  0
LINE
  5
268B
  8
3
 10
72.0670000000003483
 20
94.9424999999996544
 30
0.0
 11
72.0670000000003199
 21
92.0575000000004167
 31
0.0
  0
LINE
  5
268C
  8
3
 10
67.9329999999999927
 20
94.9424999999999955
 30
0.0
 11
67.9330000000000211
 21
92.0574999999999619
 31
0.0
  0
CIRCLE
  5
268D
  8
3
 10
40.0
 20
125.0
 30
0.0
 40
2.0670000000002058
  0
VIEWPORT
  5
22
 67
     1
  8
0
 10
261.517699115044195
 20
148.5
 30
0.0
 40
523.0353982300885036
 41
297.0
 68
     1
 69
     1
1001
ACAD
1000
MVIEW
1002
{
1070
    16
1010
0.0
1020
0.0
1030
0.0
1010
0.0
1020
0.0
1030
1.0
1040
0.0
1040
297.0
1040
261.517699115044195
1040
148.5
1040
50.0
1040
0.0
1040
0.0
1070
     0
1070
   100
1070
     1
1070
     1
1070
     0
1070
     0
1070
     0
1070
     0
1040
0.0
1040
0.0
1040
0.0
1040
1.0
1040
1.0
1040
10.0
1040
10.0
1070
     0
1002
{
1002
}
1002
}
  0
ENDSEC
  0
EOF
