  0
SECTION
  2
HEADER
  9
$ACADVER
  1
AC1009
  9
$INSBASE
 10
0.0
 20
0.0
 30
0.0
  9
$EXTMIN
 10
0.0
 20
-2.960436562073669
 30
0.0
  9
$EXTMAX
 10
130.0000000000100044
 20
225.0
 30
0.0
  9
$LIMMIN
 10
0.0
 20
0.0
  9
$LIMMAX
 10
400.0
 20
277.0
  9
$ORTHOMODE
 70
     1
  9
$REGENMODE
 70
     1
  9
$FILLMODE
 70
     1
  9
$QTEXTMODE
 70
     0
  9
$MIRRTEXT
 70
     1
  9
$DRAGMODE
 70
     2
  9
$LTSCALE
 40
5.0
  9
$OSMODE
 70
    37
  9
$ATTMODE
 70
     1
  9
$TEXTSIZE
 40
2.5
  9
$TRACEWID
 40
1.0
  9
$TEXTSTYLE
  7
STANDARD
  9
$CLAYER
  8
0
  9
$CELTYPE
  6
BYLAYER
  9
$CECOLOR
 62
   256
  9
$DIMSCALE
 40
1.0
  9
$DIMASZ
 40
3.0
  9
$DIMEXO
 40
1.0
  9
$DIMDLI
 40
6.0
  9
$DIMRND
 40
0.0
  9
$DIMDLE
 40
0.0
  9
$DIMEXE
 40
1.0
  9
$DIMTP
 40
495.0
  9
$DIMTM
 40
0.0
  9
$DIMTXT
 40
3.0
  9
$DIMCEN
 40
0.0
  9
$DIMTSZ
 40
0.0
  9
$DIMTOL
 70
     0
  9
$DIMLIM
 70
     0
  9
$DIMTIH
 70
     0
  9
$DIMTOH
 70
     0
  9
$DIMSE1
 70
     0
  9
$DIMSE2
 70
     0
  9
$DIMTAD
 70
     3
  9
$DIMZIN
 70
     8
  9
$DIMBLK
  1

  9
$DIMASO
 70
     0
  9
$DIMSHO
 70
     1
  9
$DIMPOST
  1

  9
$DIMAPOST
  1

  9
$DIMALT
 70
     0
  9
$DIMALTD
 70
     2
  9
$DIMALTF
 40
25.3999999999999986
  9
$DIMLFAC
 40
1.0
  9
$DIMTOFL
 70
     1
  9
$DIMTVP
 40
0.0
  9
$DIMTIX
 70
     1
  9
$DIMSOXD
 70
     0
  9
$DIMSAH
 70
     1
  9
$DIMBLK1
  1
ARROW1
  9
$DIMBLK2
  1
ARROW1
  9
$DIMSTYLE
  2
ITM
  9
$DIMCLRD
 70
     4
  9
$DIMCLRE
 70
     4
  9
$DIMCLRT
 70
     4
  9
$DIMTFAC
 40
1.0
  9
$DIMGAP
 40
1.0
  9
$LUNITS
 70
     2
  9
$LUPREC
 70
     1
  9
$SKETCHINC
 40
1.0
  9
$FILLETRAD
 40
0.0
  9
$AUNITS
 70
     0
  9
$AUPREC
 70
     0
  9
$MENU
  1
.
  9
$ELEVATION
 40
0.0
  9
$PELEVATION
 40
0.0
  9
$THICKNESS
 40
0.0
  9
$LIMCHECK
 70
     0
  9
$BLIPMODE
 70
     0
  9
$CHAMFERA
 40
10.0
  9
$CHAMFERB
 40
10.0
  9
$SKPOLY
 70
     0
  9
$TDCREATE
 40
2451415.6127083338797092
  9
$TDUPDATE
 40
2460886.7186574079096317
  9
$TDINDWG
 40
0.4752678356
  9
$TDUSRTIMER
 40
0.4752678356
  9
$USRTIMER
 70
     1
  9
$ANGBASE
 50
0.0
  9
$ANGDIR
 70
     0
  9
$PDMODE
 70
     0
  9
$PDSIZE
 40
0.0
  9
$PLINEWID
 40
0.0
  9
$COORDS
 70
     1
  9
$SPLFRAME
 70
     0
  9
$SPLINETYPE
 70
     6
  9
$SPLINESEGS
 70
     8
  9
$ATTDIA
 70
     1
  9
$ATTREQ
 70
     1
  9
$HANDLING
 70
     1
  9
$HANDSEED
  5
31E3
  9
$SURFTAB1
 70
     6
  9
$SURFTAB2
 70
     6
  9
$SURFTYPE
 70
     6
  9
$SURFU
 70
     6
  9
$SURFV
 70
     6
  9
$UCSNAME
  2

  9
$UCSORG
 10
0.0
 20
0.0
 30
0.0
  9
$UCSXDIR
 10
1.0
 20
0.0
 30
0.0
  9
$UCSYDIR
 10
0.0
 20
1.0
 30
0.0
  9
$PUCSNAME
  2

  9
$PUCSORG
 10
0.0
 20
0.0
 30
0.0
  9
$PUCSXDIR
 10
1.0
 20
0.0
 30
0.0
  9
$PUCSYDIR
 10
0.0
 20
1.0
 30
0.0
  9
$USERI1
 70
     3
  9
$USERI2
 70
     1
  9
$USERI3
 70
     1
  9
$USERI4
 70
     0
  9
$USERI5
 70
     0
  9
$USERR1
 40
1.0
  9
$USERR2
 40
3.0
  9
$USERR3
 40
3.0
  9
$USERR4
 40
3.0
  9
$USERR5
 40
10.0
  9
$WORLDVIEW
 70
     1
  9
$SHADEDGE
 70
     3
  9
$SHADEDIF
 70
    70
  9
$TILEMODE
 70
     1
  9
$MAXACTVP
 70
    16
  9
$PLIMCHECK
 70
     0
  9
$PEXTMIN
 10
1.0000000000000000E+20
 20
1.0000000000000000E+20
 30
1.0000000000000000E+20
  9
$PEXTMAX
 10
-1.0000000000000000E+20
 20
-1.0000000000000000E+20
 30
-1.0000000000000000E+20
  9
$PLIMMIN
 10
0.0
 20
0.0
  9
$PLIMMAX
 10
420.0
 20
297.0
  9
$UNITMODE
 70
     0
  9
$VISRETAIN
 70
     0
  9
$PLINEGEN
 70
     0
  9
$PSLTSCALE
 70
     1
  0
ENDSEC
  0
SECTION
  2
TABLES
  0
TABLE
  2
VPORT
 70
     1
  0
VPORT
  2
*ACTIVE
 70
     0
 10
0.0
 20
0.0
 11
1.0
 21
1.0
 12
319.7381342062192857
 22
136.6259875190723108
 13
0.0
 23
0.0
 14
10.0
 24
10.0
 15
10.0
 25
10.0
 16
0.0
 26
0.0
 36
1.0
 17
0.0
 27
0.0
 37
0.0
 40
273.2519750381446784
 41
2.340243902439024
 42
50.0
 43
0.0
 44
0.0
 50
0.0
 51
0.0
 71
     0
 72
   100
 73
     1
 74
     1
 75
     0
 76
     0
 77
     0
 78
     0
  0
ENDTAB
  0
TABLE
  2
LTYPE
 70
     3
  0
LTYPE
  2
CONTINUOUS
 70
     0
  3
Solid line
 72
    65
 73
     0
 40
0.0
  0
LTYPE
  2
CENTER
 70
     0
  3
____ _ ____ _ ____ _ ____ _ ____ _ ____ _ ____ 
 72
    65
 73
     4
 40
2.0
 49
1.25
 49
-0.25
 49
0.25
 49
-0.25
  0
LTYPE
  2
PHANTOM2
 70
     0
  3
___ _ _ ___ _ _ ___ _ _ ___ _ _
 72
    65
 73
     6
 40
1.25
 49
0.625
 49
-0.125
 49
0.125
 49
-0.125
 49
0.125
 49
-0.125
  0
ENDTAB
  0
TABLE
  2
LAYER
 70
     5
  0
LAYER
  2
0
 70
     0
 62
     7
  6
CONTINUOUS
  0
LAYER
  2
WAKU
 70
     0
 62
     5
  6
CONTINUOUS
  0
LAYER
  2
1
 70
     0
 62
     1
  6
CENTER
  0
LAYER
  2
3
 70
     0
 62
     3
  6
CONTINUOUS
  0
LAYER
  2
DEFPOINTS
 70
     0
 62
     7
  6
CONTINUOUS
  0
ENDTAB
  0
TABLE
  2
STYLE
 70
     3
  0
STYLE
  2
STANDARD
 70
     0
 40
0.0
 41
1.0
 50
0.0
 71
     0
 42
2.5
  3
ROMANS
  4
EXTFONT
  0
STYLE
  2
K
 70
     0
 40
0.0
 41
1.0
 50
0.0
 71
     0
 42
3.0
  3
ROMANS
  4
bigfont
  0
STYLE
  2
STANDARD1
 70
     0
 40
0.0
 41
1.0
 50
0.0
 71
     0
 42
3.0
  3
txt
  4

  0
ENDTAB
  0
TABLE
  2
VIEW
 70
     0
  0
ENDTAB
  0
TABLE
  2
UCS
 70
     0
  0
ENDTAB
  0
TABLE
  2
APPID
 70
    45
  0
APPID
  2
ACAD
 70
     0
  0
APPID
  2
ACAD_NAV_VCDISPLAY
 70
     0
  0
APPID
  2
DCO15
 70
     0
  0
APPID
  2
GENIUS_GENOREF_13
 70
     0
  0
APPID
  2
GENIUS_GENOENT_13
 70
     0
  0
APPID
  2
GENIUS_GENBH_13
 70
     0
  0
APPID
  2
GENIUS_GENOBJ_13
 70
     0
  0
APPID
  2
GENIUS_GENODEF_13
 70
     0
  0
APPID
  2
GENIUS_GENOLIS_13
 70
     0
  0
APPID
  2
GENIUS_GENOBJ-NBEHI-BHF_13
 70
     0
  0
APPID
  2
GENIUS_GENOBJ-NBEHI-BHB_13
 70
     0
  0
APPID
  2
GENIUS_GENOBJ-F-PART_13
 70
     0
  0
APPID
  2
GENIUS_GEFSTDP_13
 70
     0
  0
APPID
  2
GENIUS_GENOBJ-N-RSSYM_13
 70
     0
  0
APPID
  2
GENIUS_GENSYMENT_13
 70
     0
  0
APPID
  2
GENIUS_GENOBJ-N-TIT_13
 70
     0
  0
APPID
  2
GENIUS_GENTITLE_13
 70
     0
  0
APPID
  2
GENIUS_GENZVEED_13
 70
     0
  0
APPID
  2
GENIUS_GENOBJ-N-LEADER_13
 70
     0
  0
APPID
  2
GENIUS_GENOBJ-N-FIL_13
 70
     0
  0
APPID
  2
GENIUS_GENOBJ-N-SEC_13
 70
     0
  0
APPID
  2
GENIUS_GENOBJ-N-CRS_13
 70
     0
  0
APPID
  2
GENIUS_GENOBJ-N-ZOO_13
 70
     0
  0
APPID
  2
GENIUS_GENZOO_13
 70
     0
  0
APPID
  2
GENIUS_GENOBJ-F-TOL_13
 70
     0
  0
APPID
  2
GENIUS_GENFIL_13
 70
     0
  0
APPID
  2
GENIUS_GENOBJ-N-CHA_13
 70
     0
  0
APPID
  2
_CALL_MAC$
 70
     0
  0
APPID
  2
ASM_BASE
 70
     0
  0
APPID
  2
ASM_EXPLO_VER_2_00
 70
     0
  0
APPID
  2
ASM_CADM_VER_12_00
 70
     0
  0
APPID
  2
ASM_BASEFORO
 70
     0
  0
APPID
  2
ASM_BASETRAVI
 70
     0
  0
APPID
  2
ASM_BASETRAVI1
 70
     0
  0
APPID
  2
ASM_GRUPPI
 70
     0
  0
APPID
  2
ASM_CADM_ALBERO
 70
     0
  0
APPID
  2
ASM_GOLE
 70
     0
  0
APPID
  2
ACAD_EXEMPT_FROM_CAD_STANDARDS
 70
     0
  0
APPID
  2
ACAD_DSTYLE_DIMJAG
 70
     0
  0
APPID
  2
ACAD_DSTYLE_DIMTALN
 70
     0
  0
APPID
  2
GRADIENTCOLOR1ACI
 70
     0
  0
APPID
  2
GRADIENTCOLOR2ACI
 70
     0
  0
APPID
  2
ACAD_MLEADERVER
 70
     0
  0
APPID
  2
ACAD_TC
 70
     0
  0
APPID
  2
ACAD_DSTYLE_DIMRADIAL_EXTENSION
 70
     0
  0
ENDTAB
  0
TABLE
  2
DIMSTYLE
 70
     2
  0
DIMSTYLE
  2
STANDARD
 70
     0
  3

  4

  5

  6

  7

 40
1.0
 41
0.18
 42
0.0625
 43
0.38
 44
0.18
 45
0.0
 46
0.0
 47
0.0
 48
0.0
140
0.18
141
0.09
142
0.0
143
25.3999999999999986
144
1.0
145
0.0
146
1.0
147
0.09
 71
     0
 72
     0
 73
     1
 74
     1
 75
     0
 76
     0
 77
     0
 78
     0
170
     0
171
     2
172
     0
173
     0
174
     0
175
     0
176
     0
177
     0
178
     0
  0
DIMSTYLE
  2
ITM
 70
     0
  3

  4

  5
ARROWANG
  6
ARROWANG
  7
ARROWANG
 40
1.0
 41
1.5
 42
1.0
 43
6.0
 44
1.0
 45
0.0
 46
0.0
 47
495.0
 48
0.0
140
3.0
141
0.0
142
0.0
143
25.3999999999999986
144
1.0
145
0.0
146
1.0
147
0.5
 71
     0
 72
     0
 73
     0
 74
     0
 75
     0
 76
     0
 77
     3
 78
     8
170
     0
171
     2
172
     1
173
     1
174
     1
175
     0
176
     0
177
     0
178
     0
  0
ENDTAB
  0
ENDSEC
  0
SECTION
  2
BLOCKS
  0
BLOCK
  8
0
  2
$MODEL_SPACE
 70
     0
 10
0.0
 20
0.0
 30
0.0
  3
$MODEL_SPACE
  1

  0
ENDBLK
  5
1C
  8
0
  0
BLOCK
 67
     1
  8
0
  2
$PAPER_SPACE
 70
     0
 10
0.0
 20
0.0
 30
0.0
  3
$PAPER_SPACE
  1

  0
ENDBLK
  5
19
 67
     1
  8
0
  0
BLOCK
  8
0
  2
ARROWANG
 70
     0
 10
0.0
 20
0.0
 30
0.0
  3
ARROWANG
  1

  0
LINE
  5
C9
  8
0
 10
0.0
 20
0.0
 30
0.0
 11
-1.4999999999999429
 21
0.4019237886467409
 31
0.0
  0
LINE
  5
CA
  8
0
 10
0.0
 20
0.0
 30
0.0
 11
-1.5
 21
-0.4019237886467124
 31
0.0
  0
ENDBLK
  5
CB
  8
0
  0
BLOCK
  8
0
  2
ARROW1
 70
     0
 10
0.0
 20
0.0
 30
0.0
  3
ARROW1
  1

  0
SOLID
  5
EE
  8
WAKU
  6
CONTINUOUS
 62
     4
 10
-1.0
 20
0.1666666666666714
 30
0.0
 11
-1.0
 21
-0.1666666666666714
 31
0.0
 12
0.0
 22
0.0
 32
0.0
 13
0.0
 23
0.0
 33
0.0
  0
ENDBLK
  5
F0
  8
0
  0
ENDSEC
  0
SECTION
  2
ENTITIES
  0
TEXT
  5
1BB9
  8
0
 62
     3
 10
0.0
 20
0.0
 30
0.0
 40
10.0
  1
VVH40-S-G1/4
  7
STANDARD1
  0
CIRCLE
  5
3096
  8
0
 10
50.0000000000100826
 20
200.0
 30
0.0
 40
6.5785000000000053
  0
CIRCLE
  5
3098
  8
0
 10
50.0000000000100826
 20
200.0
 30
0.0
 40
3.5000000000000142
  0
POLYLINE
  5
3099
  8
0
 66
     1
 10
0.0
 20
0.0
 30
0.0
 70
   128
  0
VERTEX
  5
31A7
  8
0
 10
54.9074772881218891
 20
191.5
 30
0.0
  0
VERTEX
  5
31A8
  8
0
 10
55.7319209588793001
 20
192.9279771091925113
 30
0.0
  0
VERTEX
  5
31A9
  8
0
 10
56.5464040840464506
 20
194.3393753735689984
 30
0.0
  0
VERTEX
  5
31AA
  8
0
 10
57.3612159321778279
 20
195.7499999999998863
 30
0.0
  0
SEQEND
  5
31AB
  8
0
  0
POLYLINE
  5
309B
  8
0
 66
     1
 10
0.0
 20
0.0
 30
0.0
 70
   128
  0
VERTEX
  5
31AC
  8
0
 10
50.0000000000100826
 20
191.5
 30
0.0
  0
VERTEX
  5
31AD
  8
0
 10
51.6289906788761428
 20
191.5002477511692973
 30
0.0
  0
VERTEX
  5
31AE
  8
0
 10
53.258848956054301
 20
191.4999453165781915
 30
0.0
  0
VERTEX
  5
31AF
  8
0
 10
54.9074772881219175
 20
191.5
 30
0.0
  0
SEQEND
  5
31B0
  8
0
  0
POLYLINE
  5
309D
  8
0
 66
     1
 10
0.0
 20
0.0
 30
0.0
 70
   128
  0
VERTEX
  5
31B1
  8
0
 10
45.0925227118982832
 20
208.4999999999998863
 30
0.0
  0
VERTEX
  5
31B2
  8
0
 10
44.2680790411374971
 20
207.0720228907975979
 30
0.0
  0
VERTEX
  5
31B3
  8
0
 10
43.4535959159667513
 20
205.6606246264229014
 30
0.0
  0
VERTEX
  5
31B4
  8
0
 10
42.63878406784238
 20
204.2499999999998863
 30
0.0
  0
SEQEND
  5
31B5
  8
0
  0
POLYLINE
  5
309E
  8
0
 66
     1
 10
0.0
 20
0.0
 30
0.0
 70
   128
  0
VERTEX
  5
31B6
  8
0
 10
50.0000000000100826
 20
208.4999999999998863
 30
0.0
  0
VERTEX
  5
31B7
  8
0
 10
48.3710093211440721
 20
208.4997522488305037
 30
0.0
  0
VERTEX
  5
31B8
  8
0
 10
46.7411510439659068
 20
208.5000546834216948
 30
0.0
  0
VERTEX
  5
31B9
  8
0
 10
45.0925227118982832
 20
208.4999999999998863
 30
0.0
  0
SEQEND
  5
31BA
  8
0
  0
POLYLINE
  5
30A0
  8
0
 66
     1
 10
0.0
 20
0.0
 30
0.0
 70
   128
  0
VERTEX
  5
31BB
  8
0
 10
57.3612159321778279
 20
204.2499999999998863
 30
0.0
  0
VERTEX
  5
31BC
  8
0
 10
56.5464469634521194
 20
205.660575036838992
 30
0.0
  0
VERTEX
  5
31BD
  8
0
 10
55.7319418836745228
 20
207.071962371018202
 30
0.0
  0
VERTEX
  5
31BE
  8
0
 10
54.9074772881218891
 20
208.4999999999998863
 30
0.0
  0
SEQEND
  5
31BF
  8
0
  0
POLYLINE
  5
30A1
  8
0
 66
     1
 10
0.0
 20
0.0
 30
0.0
 70
   128
  0
VERTEX
  5
31C0
  8
0
 10
54.9074772881218891
 20
208.4999999999998863
 30
0.0
  0
VERTEX
  5
31C1
  8
0
 10
53.2654852033086001
 20
208.4999796639451972
 30
0.0
  0
VERTEX
  5
31C2
  8
0
 10
51.6358753767672667
 20
208.4996338343541993
 30
0.0
  0
VERTEX
  5
31C3
  8
0
 10
50.0000000000100826
 20
208.4999999999998863
 30
0.0
  0
SEQEND
  5
31C4
  8
0
  0
POLYLINE
  5
30A5
  8
0
 66
     1
 10
0.0
 20
0.0
 30
0.0
 70
   128
  0
VERTEX
  5
31C5
  8
0
 10
42.63878406784238
 20
195.7499999999998863
 30
0.0
  0
VERTEX
  5
31C6
  8
0
 10
43.4535530365680813
 20
194.3394249631608943
 30
0.0
  0
VERTEX
  5
31C7
  8
0
 10
44.2680581163456779
 20
192.928037628981798
 30
0.0
  0
VERTEX
  5
31C8
  8
0
 10
45.0925227118982832
 20
191.5
 30
0.0
  0
SEQEND
  5
31C9
  8
0
  0
POLYLINE
  5
30A6
  8
0
 66
     1
 10
0.0
 20
0.0
 30
0.0
 70
   128
  0
VERTEX
  5
31CA
  8
0
 10
45.0925227118982832
 20
191.5
 30
0.0
  0
VERTEX
  5
31CB
  8
0
 10
46.7345147967157217
 20
191.5000203360555133
 30
0.0
  0
VERTEX
  5
31CC
  8
0
 10
48.3641246232571689
 20
191.5003661656448912
 30
0.0
  0
VERTEX
  5
31CD
  8
0
 10
50.0000000000100826
 20
191.5
 30
0.0
  0
SEQEND
  5
31CE
  8
0
  0
POLYLINE
  5
30A7
  8
0
 66
     1
 10
0.0
 20
0.0
 30
0.0
 70
   128
  0
VERTEX
  5
31CF
  8
0
 10
40.185045423786498
 20
200.0
 30
0.0
  0
VERTEX
  5
31D0
  8
0
 10
41.0094880409988818
 20
198.5720222825295878
 30
0.0
  0
VERTEX
  5
31D1
  8
0
 10
41.8245532302188323
 20
197.1609600729904059
 30
0.0
  0
VERTEX
  5
31D2
  8
0
 10
42.63878406784238
 20
195.7499999999998863
 30
0.0
  0
SEQEND
  5
31D3
  8
0
  0
POLYLINE
  5
30A8
  8
0
 66
     1
 10
0.0
 20
0.0
 30
0.0
 70
   128
  0
VERTEX
  5
31D4
  8
0
 10
42.63878406784238
 20
204.2499999999998863
 30
0.0
  0
VERTEX
  5
31D5
  8
0
 10
41.8245747363636085
 20
202.8391018564635999
 30
0.0
  0
VERTEX
  5
31D6
  8
0
 10
41.0095299902786223
 20
201.4280260987719089
 30
0.0
  0
VERTEX
  5
31D7
  8
0
 10
40.185045423786498
 20
200.0
 30
0.0
  0
SEQEND
  5
31D8
  8
0
  0
POLYLINE
  5
30A9
  8
0
 66
     1
 10
0.0
 20
0.0
 30
0.0
 70
   128
  0
VERTEX
  5
31D9
  8
0
 10
57.3612159321778279
 20
195.7499999999998863
 30
0.0
  0
VERTEX
  5
31DA
  8
0
 10
58.1754252636662201
 20
197.1608981435641113
 30
0.0
  0
VERTEX
  5
31DB
  8
0
 10
58.9904700097604007
 20
198.5719739012496916
 30
0.0
  0
VERTEX
  5
31DC
  8
0
 10
59.8149545762337027
 20
200.0
 30
0.0
  0
SEQEND
  5
31DD
  8
0
  0
POLYLINE
  5
30AA
  8
0
 66
     1
 10
0.0
 20
0.0
 30
0.0
 70
   128
  0
VERTEX
  5
31DE
  8
0
 10
59.8149545762337027
 20
200.0
 30
0.0
  0
VERTEX
  5
31DF
  8
0
 10
58.9905119590213118
 20
201.4279777174702986
 30
0.0
  0
VERTEX
  5
31E0
  8
0
 10
58.1754467698013684
 20
202.8390399270095088
 30
0.0
  0
VERTEX
  5
31E1
  8
0
 10
57.3612159321778279
 20
204.2499999999998863
 30
0.0
  0
SEQEND
  5
31E2
  8
0
  0
CIRCLE
  5
30AB
  8
0
 10
50.0000000000100826
 20
200.0
 30
0.0
 40
20.0
  0
ARC
  5
30AD
  8
0
 10
55.5051653428199288
 20
101.1174458481403065
 30
0.0
 40
17.0000000000000284
 50
31.5003105018347291
 51
83.2612033557794291
  0
ARC
  5
30AE
  8
0
 10
44.494834657200272
 20
101.1174458481403065
 30
0.0
 40
17.0000000000000284
 50
96.7387966442205851
 51
148.4996894981651963
  0
LINE
  5
30AF
  8
0
 10
57.5000000000101181
 20
117.9999999999999005
 30
0.0
 11
57.5000000000101181
 21
128.0
 31
0.0
  0
LINE
  5
30B0
  8
0
 10
42.5000000000100826
 20
128.0
 30
0.0
 11
42.5000000000100826
 21
117.9999999999999005
 31
0.0
  0
LINE
  5
30B1
  8
0
 10
56.5785000000101093
 20
136.0
 30
0.0
 11
56.5785000000101093
 21
149.1440000000000055
 31
0.0
  0
LINE
  5
30B2
  8
0
 10
43.4215000000100986
 20
149.1440000000000055
 30
0.0
 11
43.4215000000100986
 21
136.0
 31
0.0
  0
LINE
  5
30B3
  8
0
 10
56.5785000000101093
 20
149.1440000000000055
 30
0.0
 11
55.7225000000101218
 21
150.0
 31
0.0
  0
LINE
  5
30B4
  8
0
 10
44.2775000000100931
 20
150.0
 30
0.0
 11
43.4215000000100986
 21
149.1440000000000055
 31
0.0
  0
LINE
  5
30B5
  8
0
 10
40.1706214324288666
 20
128.3562059136185951
 30
0.0
 11
41.5000000000100897
 21
128.0
 31
0.0
  0
LINE
  5
30B6
  8
0
 10
59.8293785675912204
 20
135.6437940863814049
 30
0.0
 11
58.5000000000101181
 21
136.0
 31
0.0
  0
LINE
  5
30B7
  8
0
 10
58.5000000000101181
 20
128.0
 30
0.0
 11
59.829378567591327
 21
128.3562059136185951
 31
0.0
  0
LINE
  5
30B8
  8
0
 10
41.5000000000100897
 20
136.0
 30
0.0
 11
40.1706214324288382
 21
135.6437940863814049
 31
0.0
  0
LINE
  5
30B9
  8
0
 10
57.5000000000103171
 20
117.9999999999999005
 30
0.0
 11
42.5000000000100826
 21
117.9999999999999005
 31
0.0
  0
LINE
  5
30BB
  8
0
 10
70.0000000000101181
 20
110.0
 30
0.0
 11
30.0000000000100897
 21
110.0
 31
0.0
  0
ARC
  5
30BD
  8
0
 10
49.8412193194040185
 20
164.5638706053028102
 30
0.0
 40
36.5642153607302873
 50
270.2488086061724175
 51
277.964402095568289
  0
ARC
  5
30BE
  8
0
 10
50.1590874877269428
 20
164.5681438770940019
 30
0.0
 40
36.5684899256805025
 50
262.0360495326917203
 51
269.7507397655717227
  0
LINE
  5
30BF
  8
0
 10
45.0925227118982832
 20
128.3523410167827024
 30
0.0
 11
45.0925227118982832
 21
135.6476589832172124
 31
0.0
  0
ARC
  5
30C0
  8
0
 10
50.1587806806176104
 20
99.4361293946741256
 30
0.0
 40
36.5642153607533231
 50
90.2488086061740233
 51
97.9644020955650348
  0
ARC
  5
30C1
  8
0
 10
49.8409125122907994
 20
99.4318561228683393
 30
0.0
 40
36.5684899257181897
 50
82.0360495326932835
 51
89.7507397655668058
  0
LINE
  5
30C2
  8
0
 10
54.9074772881219175
 20
128.3523410167827024
 30
0.0
 11
54.9074772881219175
 21
135.6476589832172124
 31
0.0
  0
ARC
  5
30C3
  8
0
 10
57.4562511926858122
 20
126.6179516533120051
 30
0.0
 40
9.3825296631735462
 50
90.5803565391805847
 51
105.7625367668047005
  0
LINE
  5
30C4
  8
0
 10
57.3612159321778279
 20
136.0
 30
0.0
 11
50.0000000000100826
 21
136.0
 31
0.0
  0
ARC
  5
30C5
  8
0
 10
42.5437488073363284
 20
137.3820483466751909
 30
0.0
 40
9.3825296631607422
 50
270.5803565391707934
 51
285.7625367668148897
  0
LINE
  5
30C6
  8
0
 10
50.0000000000100826
 20
128.0
 30
0.0
 11
42.63878406784238
 21
128.0
 31
0.0
  0
ARC
  5
30C7
  8
0
 10
42.5437624256643403
 20
126.6180464927455063
 30
0.0
 40
9.3824346906741791
 50
74.237385940566071
 51
89.4197207534506617
  0
LINE
  5
30C8
  8
0
 10
50.0000000000100826
 20
136.0
 30
0.0
 11
42.63878406784238
 21
136.0
 31
0.0
  0
ARC
  5
30C9
  8
0
 10
57.4562375743558391
 20
137.3819535072549058
 30
0.0
 40
9.3824346906746925
 50
254.23738594056789
 51
269.4197207534505765
  0
LINE
  5
30CA
  8
0
 10
57.3612159321778279
 20
128.0
 30
0.0
 11
50.0000000000100826
 21
128.0
 31
0.0
  0
ARC
  5
30CB
  8
0
 10
57.2657035993660202
 20
137.385370726690013
 30
0.0
 40
9.3858567154591181
 50
270.5830632388573918
 51
285.7598300671281208
  0
ARC
  5
30CC
  8
0
 10
57.2656979337426435
 20
126.6145898173336946
 30
0.0
 40
9.3858962270483737
 50
74.240202065611399
 51
89.4169046284026763
  0
LINE
  5
30CD
  8
0
 10
59.8149545762337311
 20
128.3523410167827024
 30
0.0
 11
59.8149545762337311
 21
135.6476589832172124
 31
0.0
  0
ARC
  5
30CE
  8
0
 10
42.7343020662789499
 20
137.3854101826765941
 30
0.0
 40
9.385896227058792
 50
254.2402020656213892
 51
269.4169046283961961
  0
LINE
  5
30CF
  8
0
 10
40.1850454237864696
 20
128.3523410167827024
 30
0.0
 11
40.1850454237864696
 21
135.6476589832172124
 31
0.0
  0
ARC
  5
30D0
  8
0
 10
42.7342964006539034
 20
126.6146292733127012
 30
0.0
 40
9.3858567154564412
 50
90.5830632388541659
 51
105.7598300671297977
  0
LINE
  5
30D1
  8
0
 10
56.5785000000101093
 20
149.1440000000000055
 30
0.0
 11
43.4215000000100986
 21
149.1440000000000055
 31
0.0
  0
LINE
  5
30D2
  8
0
 10
44.2775000000100931
 20
150.0
 30
0.0
 11
55.7225000000101218
 21
150.0
 31
0.0
  0
LINE
  5
30D3
  8
0
 10
42.63878406784238
 20
128.0
 30
0.0
 11
41.5000000000100897
 21
128.0
 31
0.0
  0
LINE
  5
30D4
  8
0
 10
58.5000000000101181
 20
136.0
 30
0.0
 11
57.3612159321778279
 21
136.0
 31
0.0
  0
LINE
  5
30D5
  8
0
 10
58.5000000000101181
 20
128.0
 30
0.0
 11
57.3612159321778279
 21
128.0
 31
0.0
  0
LINE
  5
30D6
  8
0
 10
42.63878406784238
 20
136.0
 30
0.0
 11
41.5000000000100897
 21
136.0
 31
0.0
  0
ARC
  5
30D7
  8
0
 10
115.5051653428198932
 20
101.1174458481403065
 30
0.0
 40
17.0000000000000284
 50
31.5003105018347291
 51
83.2612033557794291
  0
ARC
  5
30D8
  8
0
 10
104.4948346572002009
 20
101.1174458481403065
 30
0.0
 40
17.0000000000000284
 50
96.7387966442205851
 51
148.499689498164912
  0
LINE
  5
30D9
  8
0
 10
117.5000000000100044
 20
117.9999999999999005
 30
0.0
 11
117.5000000000100044
 21
128.0
 31
0.0
  0
LINE
  5
30DA
  8
0
 10
102.5000000000100044
 20
128.0
 30
0.0
 11
102.5000000000100044
 21
117.9999999999999005
 31
0.0
  0
LINE
  5
30DB
  8
0
 10
116.5785000000099956
 20
149.1440000000000055
 30
0.0
 11
115.722500000010001
 21
150.0
 31
0.0
  0
LINE
  5
30DC
  8
0
 10
104.2775000000099936
 20
150.0
 30
0.0
 11
103.4215000000099991
 21
149.1440000000000055
 31
0.0
  0
LINE
  5
30DD
  8
0
 10
116.5785000000099956
 20
136.0
 30
0.0
 11
116.5785000000099956
 21
149.1440000000000055
 31
0.0
  0
LINE
  5
30DE
  8
0
 10
103.4215000000099991
 20
149.1440000000000055
 30
0.0
 11
103.4215000000099991
 21
136.0
 31
0.0
  0
LINE
  5
30DF
  8
0
 10
117.5000000000100044
 20
117.9999999999999005
 30
0.0
 11
102.5000000000100044
 21
117.9999999999999005
 31
0.0
  0
LINE
  5
30E0
  8
0
 10
130.0000000000100044
 20
110.0
 30
0.0
 11
90.0000000000100329
 21
110.0
 31
0.0
  0
ARC
  5
30E1
  8
0
 10
114.1095638819947027
 20
155.5022638184503023
 30
0.0
 40
27.5026223739280091
 50
270.2925696216018991
 51
279.1858270178789212
  0
ARC
  5
30E2
  8
0
 10
114.3901517255328031
 20
155.4988334256321991
 30
0.0
 40
27.4991905749393908
 50
260.813616942020019
 51
269.7079864185022871
  0
LINE
  5
30E3
  8
0
 10
110.0000000000100044
 20
128.3523410167827024
 30
0.0
 11
110.0000000000100044
 21
135.6476589832172124
 31
0.0
  0
ARC
  5
30E4
  8
0
 10
114.3901632625179019
 20
108.501027413204497
 30
0.0
 40
27.4993297930965817
 50
90.2920361411465535
 51
99.1863604983338973
  0
ARC
  5
30E5
  8
0
 10
114.109564436009606
 20
108.4977428641778943
 30
0.0
 40
27.5026156885579489
 50
80.8141718990539886
 51
89.7074314614658448
  0
LINE
  5
30E6
  8
0
 10
118.5000000000100044
 20
128.3523410167827024
 30
0.0
 11
118.5000000000100044
 21
135.6476589832172124
 31
0.0
  0
LINE
  5
30E7
  8
0
 10
114.2500000000100044
 20
128.0
 30
0.0
 11
105.7500000000100044
 21
128.0
 31
0.0
  0
ARC
  5
30E8
  8
0
 10
105.6098367375014959
 20
155.4989725868051096
 30
0.0
 40
27.4993297931061917
 50
270.2920361411481736
 51
279.1863604983338973
  0
ARC
  5
30E9
  8
0
 10
105.8904355640109003
 20
155.502257135829808
 30
0.0
 40
27.50261568856574
 50
260.8141718990573281
 51
269.7074314614657737
  0
LINE
  5
30EA
  8
0
 10
101.5000000000100044
 20
128.3523410167827024
 30
0.0
 11
101.5000000000100044
 21
135.6476589832172124
 31
0.0
  0
ARC
  5
30EB
  8
0
 10
105.8904361180245957
 20
108.4977361815604979
 30
0.0
 40
27.5026223739172018
 50
90.2925696216003075
 51
99.185827017880456
  0
ARC
  5
30EC
  8
0
 10
105.6098482744849036
 20
108.5011665743415961
 30
0.0
 40
27.4991905749656098
 50
80.8136169420233443
 51
89.7079864184957216
  0
LINE
  5
30ED
  8
0
 10
114.2500000000100044
 20
136.0
 30
0.0
 11
105.7500000000100044
 21
136.0
 31
0.0
  0
LINE
  5
30EE
  8
0
 10
118.5000000000100044
 20
136.0
 30
0.0
 11
114.2500000000100044
 21
136.0
 31
0.0
  0
ARC
  5
30EF
  8
0
 10
506.5138795836512031
 20
135.823829491608592
 30
0.0
 40
388.0139195771155869
 50
179.9739859153424106
 51
180.0260140846584136
  0
ARC
  5
30F0
  8
0
 10
-286.513829306358673
 20
128.176170508391408
 30
0.0
 40
388.0138692998485226
 50
359.9739859119724201
 51
0.0260140880284699
  0
LINE
  5
30F1
  8
0
 10
105.7500000000100044
 20
128.0
 30
0.0
 11
101.5000000000100044
 21
128.0
 31
0.0
  0
ARC
  5
30F2
  8
0
 10
-9.4429294763134237
 20
128.176170508391408
 30
0.0
 40
127.943050764906701
 50
359.9211068539117946
 51
0.0788931460889941
  0
LINE
  5
30F3
  8
0
 10
118.5000000000100044
 20
128.0
 30
0.0
 11
114.2500000000100044
 21
128.0
 31
0.0
  0
ARC
  5
30F4
  8
0
 10
229.4429208687049879
 20
135.823829491608592
 30
0.0
 40
127.9430421572863992
 50
179.9211068486029887
 51
180.0788931513976934
  0
LINE
  5
30F5
  8
0
 10
105.7500000000100044
 20
136.0
 30
0.0
 11
101.5000000000100044
 21
136.0
 31
0.0
  0
LINE
  5
30F6
  8
0
 10
116.5785000000099956
 20
149.1440000000000055
 30
0.0
 11
103.4215000000099991
 21
149.1440000000000055
 31
0.0
  0
LINE
  5
30F9
  8
0
 10
104.2775000000099936
 20
150.0
 30
0.0
 11
115.722500000010001
 21
150.0
 31
0.0
  0
CIRCLE
  5
30FA
  8
0
 10
50.0000000000100613
 20
60.0
 30
0.0
 40
3.5
  0
CIRCLE
  5
30FB
  8
0
 10
50.0000000000100613
 20
60.0
 30
0.0
 40
20.0
  0
CIRCLE
  5
3103
  8
0
 10
50.0000000000100826
 20
200.0
 30
0.0
 40
8.4999999999999716
  0
LINE
  5
3104
  8
1
 10
25.0000000000100613
 20
60.0
 30
0.0
 11
75.0000000000100613
 21
60.0
 31
0.0
  0
LINE
  5
3105
  8
1
 10
50.0000000000100613
 20
85.0
 30
0.0
 11
50.0000000000100613
 21
35.0
 31
0.0
  0
LINE
  5
3107
  8
1
 10
50.0000000000100826
 20
154.9999999999998863
 30
0.0
 11
50.0000000000100613
 21
105.0
 31
0.0
  0
LINE
  5
3109
  8
1
 10
110.0000000000100044
 20
155.0
 30
0.0
 11
110.0000000000100044
 21
105.0
 31
0.0
  0
LINE
  5
310A
  8
1
 10
25.0000000000100897
 20
200.0
 30
0.0
 11
75.0000000000100755
 21
200.0
 31
0.0
  0
LINE
  5
310B
  8
1
 10
50.0000000000100826
 20
225.0
 30
0.0
 11
50.0000000000100826
 21
175.0
 31
0.0
  0
LINE
  5
3112
  8
3
 10
44.2775000000101215
 20
150.0
 30
0.0
 11
44.2775000000100931
 21
135.9999999999998863
 31
0.0
  0
LINE
  5
3113
  8
3
 10
55.7225000000101716
 20
149.9999999999998863
 30
0.0
 11
55.7225000000101431
 21
135.9999999999998863
 31
0.0
  0
LINE
  5
3114
  8
3
 10
104.2775000000100931
 20
150.0
 30
0.0
 11
104.2775000000100931
 21
135.9999999999998863
 31
0.0
  0
LINE
  5
3115
  8
3
 10
115.7225000000101005
 20
149.9999999999998863
 30
0.0
 11
115.7225000000101005
 21
135.9999999999998863
 31
0.0
  0
CIRCLE
  5
3116
  8
3
 10
50.0000000000100826
 20
200.0
 30
0.0
 40
5.7225000000000001
  0
VIEWPORT
  5
22
 67
     1
  8
0
 10
261.517699115044195
 20
148.5
 30
0.0
 40
523.0353982300885036
 41
297.0
 68
     1
 69
     1
1001
ACAD
1000
MVIEW
1002
{
1070
    16
1010
0.0
1020
0.0
1030
0.0
1010
0.0
1020
0.0
1030
1.0
1040
0.0
1040
297.0
1040
261.517699115044195
1040
148.5
1040
50.0
1040
0.0
1040
0.0
1070
     0
1070
   100
1070
     1
1070
     1
1070
     0
1070
     0
1070
     0
1070
     0
1040
0.0
1040
0.0
1040
0.0
1040
1.0
1040
1.0
1040
10.0
1040
10.0
1070
     0
1002
{
1002
}
1002
}
  0
ENDSEC
  0
EOF
