  0
SECTION
  2
HEADER
  9
$ACADVER
  1
AC1009
  9
$INSBASE
 10
0.0
 20
0.0
 30
0.0
  9
$EXTMIN
 10
0.0
 20
-2.960436562073669
 30
0.0
  9
$EXTMAX
 10
117.5000000000101039
 20
190.5
 30
0.0
  9
$LIMMIN
 10
0.0
 20
0.0
  9
$LIMMAX
 10
400.0
 20
277.0
  9
$ORTHOMODE
 70
     1
  9
$REGENMODE
 70
     1
  9
$FILLMODE
 70
     1
  9
$QTEXTMODE
 70
     0
  9
$MIRRTEXT
 70
     1
  9
$DRAGMODE
 70
     2
  9
$LTSCALE
 40
5.0
  9
$OSMODE
 70
    37
  9
$ATTMODE
 70
     1
  9
$TEXTSIZE
 40
2.5
  9
$TRACEWID
 40
1.0
  9
$TEXTSTYLE
  7
STANDARD
  9
$CLAYER
  8
0
  9
$CELTYPE
  6
BYLAYER
  9
$CECOLOR
 62
   256
  9
$DIMSCALE
 40
1.0
  9
$DIMASZ
 40
3.0
  9
$DIMEXO
 40
1.0
  9
$DIMDLI
 40
6.0
  9
$DIMRND
 40
0.0
  9
$DIMDLE
 40
0.0
  9
$DIMEXE
 40
1.0
  9
$DIMTP
 40
495.0
  9
$DIMTM
 40
0.0
  9
$DIMTXT
 40
3.0
  9
$DIMCEN
 40
0.0
  9
$DIMTSZ
 40
0.0
  9
$DIMTOL
 70
     0
  9
$DIMLIM
 70
     0
  9
$DIMTIH
 70
     0
  9
$DIMTOH
 70
     0
  9
$DIMSE1
 70
     0
  9
$DIMSE2
 70
     0
  9
$DIMTAD
 70
     3
  9
$DIMZIN
 70
     8
  9
$DIMBLK
  1

  9
$DIMASO
 70
     0
  9
$DIMSHO
 70
     1
  9
$DIMPOST
  1

  9
$DIMAPOST
  1

  9
$DIMALT
 70
     0
  9
$DIMALTD
 70
     2
  9
$DIMALTF
 40
25.3999999999999986
  9
$DIMLFAC
 40
1.0
  9
$DIMTOFL
 70
     1
  9
$DIMTVP
 40
0.0
  9
$DIMTIX
 70
     1
  9
$DIMSOXD
 70
     0
  9
$DIMSAH
 70
     1
  9
$DIMBLK1
  1
ARROW1
  9
$DIMBLK2
  1
ARROW1
  9
$DIMSTYLE
  2
ITM
  9
$DIMCLRD
 70
     4
  9
$DIMCLRE
 70
     4
  9
$DIMCLRT
 70
     4
  9
$DIMTFAC
 40
1.0
  9
$DIMGAP
 40
1.0
  9
$LUNITS
 70
     2
  9
$LUPREC
 70
     1
  9
$SKETCHINC
 40
1.0
  9
$FILLETRAD
 40
0.0
  9
$AUNITS
 70
     0
  9
$AUPREC
 70
     0
  9
$MENU
  1
.
  9
$ELEVATION
 40
0.0
  9
$PELEVATION
 40
0.0
  9
$THICKNESS
 40
0.0
  9
$LIMCHECK
 70
     0
  9
$BLIPMODE
 70
     0
  9
$CHAMFERA
 40
10.0
  9
$CHAMFERB
 40
10.0
  9
$SKPOLY
 70
     0
  9
$TDCREATE
 40
2451415.6127083338797092
  9
$TDUPDATE
 40
2460886.7186458329670131
  9
$TDINDWG
 40
0.4658581134
  9
$TDUSRTIMER
 40
0.4658581134
  9
$USRTIMER
 70
     1
  9
$ANGBASE
 50
0.0
  9
$ANGDIR
 70
     0
  9
$PDMODE
 70
     0
  9
$PDSIZE
 40
0.0
  9
$PLINEWID
 40
0.0
  9
$COORDS
 70
     1
  9
$SPLFRAME
 70
     0
  9
$SPLINETYPE
 70
     6
  9
$SPLINESEGS
 70
     8
  9
$ATTDIA
 70
     1
  9
$ATTREQ
 70
     1
  9
$HANDLING
 70
     1
  9
$HANDSEED
  5
30B7
  9
$SURFTAB1
 70
     6
  9
$SURFTAB2
 70
     6
  9
$SURFTYPE
 70
     6
  9
$SURFU
 70
     6
  9
$SURFV
 70
     6
  9
$UCSNAME
  2

  9
$UCSORG
 10
0.0
 20
0.0
 30
0.0
  9
$UCSXDIR
 10
1.0
 20
0.0
 30
0.0
  9
$UCSYDIR
 10
0.0
 20
1.0
 30
0.0
  9
$PUCSNAME
  2

  9
$PUCSORG
 10
0.0
 20
0.0
 30
0.0
  9
$PUCSXDIR
 10
1.0
 20
0.0
 30
0.0
  9
$PUCSYDIR
 10
0.0
 20
1.0
 30
0.0
  9
$USERI1
 70
     3
  9
$USERI2
 70
     1
  9
$USERI3
 70
     1
  9
$USERI4
 70
     0
  9
$USERI5
 70
     0
  9
$USERR1
 40
1.0
  9
$USERR2
 40
3.0
  9
$USERR3
 40
3.0
  9
$USERR4
 40
3.0
  9
$USERR5
 40
10.0
  9
$WORLDVIEW
 70
     1
  9
$SHADEDGE
 70
     3
  9
$SHADEDIF
 70
    70
  9
$TILEMODE
 70
     1
  9
$MAXACTVP
 70
    16
  9
$PLIMCHECK
 70
     0
  9
$PEXTMIN
 10
1.0000000000000000E+20
 20
1.0000000000000000E+20
 30
1.0000000000000000E+20
  9
$PEXTMAX
 10
-1.0000000000000000E+20
 20
-1.0000000000000000E+20
 30
-1.0000000000000000E+20
  9
$PLIMMIN
 10
0.0
 20
0.0
  9
$PLIMMAX
 10
420.0
 20
297.0
  9
$UNITMODE
 70
     0
  9
$VISRETAIN
 70
     0
  9
$PLINEGEN
 70
     0
  9
$PSLTSCALE
 70
     1
  0
ENDSEC
  0
SECTION
  2
TABLES
  0
TABLE
  2
VPORT
 70
     1
  0
VPORT
  2
*ACTIVE
 70
     0
 10
0.0
 20
0.0
 11
1.0
 21
1.0
 12
266.4484451718495279
 22
113.8549895992268972
 13
0.0
 23
0.0
 14
10.0
 24
10.0
 15
10.0
 25
10.0
 16
0.0
 26
0.0
 36
1.0
 17
0.0
 27
0.0
 37
0.0
 40
227.7099791984539081
 41
2.340243902439024
 42
50.0
 43
0.0
 44
0.0
 50
0.0
 51
0.0
 71
     0
 72
   100
 73
     1
 74
     1
 75
     0
 76
     0
 77
     0
 78
     0
  0
ENDTAB
  0
TABLE
  2
LTYPE
 70
     3
  0
LTYPE
  2
CONTINUOUS
 70
     0
  3
Solid line
 72
    65
 73
     0
 40
0.0
  0
LTYPE
  2
CENTER
 70
     0
  3
____ _ ____ _ ____ _ ____ _ ____ _ ____ _ ____ 
 72
    65
 73
     4
 40
2.0
 49
1.25
 49
-0.25
 49
0.25
 49
-0.25
  0
LTYPE
  2
PHANTOM2
 70
     0
  3
___ _ _ ___ _ _ ___ _ _ ___ _ _
 72
    65
 73
     6
 40
1.25
 49
0.625
 49
-0.125
 49
0.125
 49
-0.125
 49
0.125
 49
-0.125
  0
ENDTAB
  0
TABLE
  2
LAYER
 70
     5
  0
LAYER
  2
0
 70
     0
 62
     7
  6
CONTINUOUS
  0
LAYER
  2
WAKU
 70
     0
 62
     5
  6
CONTINUOUS
  0
LAYER
  2
1
 70
     0
 62
     1
  6
CENTER
  0
LAYER
  2
3
 70
     0
 62
     3
  6
CONTINUOUS
  0
LAYER
  2
DEFPOINTS
 70
     0
 62
     7
  6
CONTINUOUS
  0
ENDTAB
  0
TABLE
  2
STYLE
 70
     3
  0
STYLE
  2
STANDARD
 70
     0
 40
0.0
 41
1.0
 50
0.0
 71
     0
 42
2.5
  3
ROMANS
  4
EXTFONT
  0
STYLE
  2
K
 70
     0
 40
0.0
 41
1.0
 50
0.0
 71
     0
 42
3.0
  3
ROMANS
  4
bigfont
  0
STYLE
  2
STANDARD1
 70
     0
 40
0.0
 41
1.0
 50
0.0
 71
     0
 42
3.0
  3
txt
  4

  0
ENDTAB
  0
TABLE
  2
VIEW
 70
     0
  0
ENDTAB
  0
TABLE
  2
UCS
 70
     0
  0
ENDTAB
  0
TABLE
  2
APPID
 70
    45
  0
APPID
  2
ACAD
 70
     0
  0
APPID
  2
ACAD_NAV_VCDISPLAY
 70
     0
  0
APPID
  2
DCO15
 70
     0
  0
APPID
  2
GENIUS_GENOREF_13
 70
     0
  0
APPID
  2
GENIUS_GENOENT_13
 70
     0
  0
APPID
  2
GENIUS_GENBH_13
 70
     0
  0
APPID
  2
GENIUS_GENOBJ_13
 70
     0
  0
APPID
  2
GENIUS_GENODEF_13
 70
     0
  0
APPID
  2
GENIUS_GENOLIS_13
 70
     0
  0
APPID
  2
GENIUS_GENOBJ-NBEHI-BHF_13
 70
     0
  0
APPID
  2
GENIUS_GENOBJ-NBEHI-BHB_13
 70
     0
  0
APPID
  2
GENIUS_GENOBJ-F-PART_13
 70
     0
  0
APPID
  2
GENIUS_GEFSTDP_13
 70
     0
  0
APPID
  2
GENIUS_GENOBJ-N-RSSYM_13
 70
     0
  0
APPID
  2
GENIUS_GENSYMENT_13
 70
     0
  0
APPID
  2
GENIUS_GENOBJ-N-TIT_13
 70
     0
  0
APPID
  2
GENIUS_GENTITLE_13
 70
     0
  0
APPID
  2
GENIUS_GENZVEED_13
 70
     0
  0
APPID
  2
GENIUS_GENOBJ-N-LEADER_13
 70
     0
  0
APPID
  2
GENIUS_GENOBJ-N-FIL_13
 70
     0
  0
APPID
  2
GENIUS_GENOBJ-N-SEC_13
 70
     0
  0
APPID
  2
GENIUS_GENOBJ-N-CRS_13
 70
     0
  0
APPID
  2
GENIUS_GENOBJ-N-ZOO_13
 70
     0
  0
APPID
  2
GENIUS_GENZOO_13
 70
     0
  0
APPID
  2
GENIUS_GENOBJ-F-TOL_13
 70
     0
  0
APPID
  2
GENIUS_GENFIL_13
 70
     0
  0
APPID
  2
GENIUS_GENOBJ-N-CHA_13
 70
     0
  0
APPID
  2
_CALL_MAC$
 70
     0
  0
APPID
  2
ASM_BASE
 70
     0
  0
APPID
  2
ASM_EXPLO_VER_2_00
 70
     0
  0
APPID
  2
ASM_CADM_VER_12_00
 70
     0
  0
APPID
  2
ASM_BASEFORO
 70
     0
  0
APPID
  2
ASM_BASETRAVI
 70
     0
  0
APPID
  2
ASM_BASETRAVI1
 70
     0
  0
APPID
  2
ASM_GRUPPI
 70
     0
  0
APPID
  2
ASM_CADM_ALBERO
 70
     0
  0
APPID
  2
ASM_GOLE
 70
     0
  0
APPID
  2
ACAD_EXEMPT_FROM_CAD_STANDARDS
 70
     0
  0
APPID
  2
ACAD_DSTYLE_DIMJAG
 70
     0
  0
APPID
  2
ACAD_DSTYLE_DIMTALN
 70
     0
  0
APPID
  2
GRADIENTCOLOR1ACI
 70
     0
  0
APPID
  2
GRADIENTCOLOR2ACI
 70
     0
  0
APPID
  2
ACAD_MLEADERVER
 70
     0
  0
APPID
  2
ACAD_TC
 70
     0
  0
APPID
  2
ACAD_DSTYLE_DIMRADIAL_EXTENSION
 70
     0
  0
ENDTAB
  0
TABLE
  2
DIMSTYLE
 70
     2
  0
DIMSTYLE
  2
STANDARD
 70
     0
  3

  4

  5

  6

  7

 40
1.0
 41
0.18
 42
0.0625
 43
0.38
 44
0.18
 45
0.0
 46
0.0
 47
0.0
 48
0.0
140
0.18
141
0.09
142
0.0
143
25.3999999999999986
144
1.0
145
0.0
146
1.0
147
0.09
 71
     0
 72
     0
 73
     1
 74
     1
 75
     0
 76
     0
 77
     0
 78
     0
170
     0
171
     2
172
     0
173
     0
174
     0
175
     0
176
     0
177
     0
178
     0
  0
DIMSTYLE
  2
ITM
 70
     0
  3

  4

  5
ARROWANG
  6
ARROWANG
  7
ARROWANG
 40
1.0
 41
1.5
 42
1.0
 43
6.0
 44
1.0
 45
0.0
 46
0.0
 47
495.0
 48
0.0
140
3.0
141
0.0
142
0.0
143
25.3999999999999986
144
1.0
145
0.0
146
1.0
147
0.5
 71
     0
 72
     0
 73
     0
 74
     0
 75
     0
 76
     0
 77
     3
 78
     8
170
     0
171
     2
172
     1
173
     1
174
     1
175
     0
176
     0
177
     0
178
     0
  0
ENDTAB
  0
ENDSEC
  0
SECTION
  2
BLOCKS
  0
BLOCK
  8
0
  2
$MODEL_SPACE
 70
     0
 10
0.0
 20
0.0
 30
0.0
  3
$MODEL_SPACE
  1

  0
ENDBLK
  5
1C
  8
0
  0
BLOCK
 67
     1
  8
0
  2
$PAPER_SPACE
 70
     0
 10
0.0
 20
0.0
 30
0.0
  3
$PAPER_SPACE
  1

  0
ENDBLK
  5
19
 67
     1
  8
0
  0
BLOCK
  8
0
  2
ARROWANG
 70
     0
 10
0.0
 20
0.0
 30
0.0
  3
ARROWANG
  1

  0
LINE
  5
C9
  8
0
 10
0.0
 20
0.0
 30
0.0
 11
-1.4999999999999429
 21
0.4019237886467409
 31
0.0
  0
LINE
  5
CA
  8
0
 10
0.0
 20
0.0
 30
0.0
 11
-1.5
 21
-0.4019237886467124
 31
0.0
  0
ENDBLK
  5
CB
  8
0
  0
BLOCK
  8
0
  2
ARROW1
 70
     0
 10
0.0
 20
0.0
 30
0.0
  3
ARROW1
  1

  0
SOLID
  5
EE
  8
WAKU
  6
CONTINUOUS
 62
     4
 10
-1.0
 20
0.1666666666666714
 30
0.0
 11
-1.0
 21
-0.1666666666666714
 31
0.0
 12
0.0
 22
0.0
 32
0.0
 13
0.0
 23
0.0
 33
0.0
  0
ENDBLK
  5
F0
  8
0
  0
ENDSEC
  0
SECTION
  2
ENTITIES
  0
TEXT
  5
1BB9
  8
0
 62
     3
 10
0.0
 20
0.0
 30
0.0
 40
10.0
  1
VVH35-S-G1/4
  7
STANDARD1
  0
POLYLINE
  5
2E76
  8
0
 66
     1
 10
0.0
 20
0.0
 30
0.0
 70
   128
  0
VERTEX
  5
307B
  8
0
 10
57.3612159321778279
 20
163.75
 30
0.0
  0
VERTEX
  5
307C
  8
0
 10
58.1754252636613103
 20
165.1608981435500141
 30
0.0
  0
VERTEX
  5
307D
  8
0
 10
58.990470009750787
 20
166.5719739012386924
 30
0.0
  0
VERTEX
  5
307E
  8
0
 10
59.8149545762337027
 20
168.0
 30
0.0
  0
SEQEND
  5
307F
  8
0
  0
POLYLINE
  5
2E77
  8
0
 66
     1
 10
0.0
 20
0.0
 30
0.0
 70
   128
  0
VERTEX
  5
3080
  8
0
 10
50.0000000000100826
 20
159.5
 30
0.0
  0
VERTEX
  5
3081
  8
0
 10
51.62899067885715
 20
159.5002477511656878
 30
0.0
  0
VERTEX
  5
3082
  8
0
 10
53.2588489560357274
 20
159.4999453165818011
 30
0.0
  0
VERTEX
  5
3083
  8
0
 10
54.9074772881218891
 20
159.5
 30
0.0
  0
SEQEND
  5
3084
  8
0
  0
POLYLINE
  5
2E78
  8
0
 66
     1
 10
0.0
 20
0.0
 30
0.0
 70
   128
  0
VERTEX
  5
3085
  8
0
 10
54.9074772881218891
 20
159.5
 30
0.0
  0
VERTEX
  5
3086
  8
0
 10
55.7319209588793001
 20
160.9279771091925966
 30
0.0
  0
VERTEX
  5
3087
  8
0
 10
56.5464040840464293
 20
162.3393753735689984
 30
0.0
  0
VERTEX
  5
3088
  8
0
 10
57.3612159321778279
 20
163.75
 30
0.0
  0
SEQEND
  5
3089
  8
0
  0
POLYLINE
  5
2E79
  8
0
 66
     1
 10
0.0
 20
0.0
 30
0.0
 70
   128
  0
VERTEX
  5
308A
  8
0
 10
50.0000000000100826
 20
176.5
 30
0.0
  0
VERTEX
  5
308B
  8
0
 10
48.3710093211524779
 20
176.499752248832209
 30
0.0
  0
VERTEX
  5
308C
  8
0
 10
46.7411510439741491
 20
176.5000546834201032
 30
0.0
  0
VERTEX
  5
308D
  8
0
 10
45.0925227118982193
 20
176.5
 30
0.0
  0
SEQEND
  5
308E
  8
0
  0
POLYLINE
  5
2E7A
  8
0
 66
     1
 10
0.0
 20
0.0
 30
0.0
 70
   128
  0
VERTEX
  5
308F
  8
0
 10
57.3612159321778279
 20
172.25
 30
0.0
  0
VERTEX
  5
3090
  8
0
 10
56.5464469634520981
 20
173.660575036838992
 30
0.0
  0
VERTEX
  5
3091
  8
0
 10
55.7319418836744589
 20
175.071962371018202
 30
0.0
  0
VERTEX
  5
3092
  8
0
 10
54.9074772881218891
 20
176.5
 30
0.0
  0
SEQEND
  5
3093
  8
0
  0
POLYLINE
  5
2E7B
  8
0
 66
     1
 10
0.0
 20
0.0
 30
0.0
 70
   128
  0
VERTEX
  5
3094
  8
0
 10
59.8149545762337027
 20
168.0
 30
0.0
  0
VERTEX
  5
3095
  8
0
 10
58.9905119590212905
 20
169.4279777174702986
 30
0.0
  0
VERTEX
  5
3096
  8
0
 10
58.1754467698013329
 20
170.8390399270095088
 30
0.0
  0
VERTEX
  5
3097
  8
0
 10
57.3612159321778279
 20
172.25
 30
0.0
  0
SEQEND
  5
3098
  8
0
  0
POLYLINE
  5
2E7D
  8
0
 66
     1
 10
0.0
 20
0.0
 30
0.0
 70
   128
  0
VERTEX
  5
3099
  8
0
 10
42.6387840678423515
 20
172.25
 30
0.0
  0
VERTEX
  5
309A
  8
0
 10
41.82457473636358
 20
170.8391018564635999
 30
0.0
  0
VERTEX
  5
309B
  8
0
 10
41.0095299902785868
 20
169.4280260987719089
 30
0.0
  0
VERTEX
  5
309C
  8
0
 10
40.1850454237864696
 20
168.0
 30
0.0
  0
SEQEND
  5
309D
  8
0
  0
POLYLINE
  5
2E7F
  8
0
 66
     1
 10
0.0
 20
0.0
 30
0.0
 70
   128
  0
VERTEX
  5
309E
  8
0
 10
54.9074772881218891
 20
176.5
 30
0.0
  0
VERTEX
  5
309F
  8
0
 10
53.2654852033251984
 20
176.4999796639484089
 30
0.0
  0
VERTEX
  5
30A0
  8
0
 10
51.6358753767842416
 20
176.4996338343509024
 30
0.0
  0
VERTEX
  5
30A1
  8
0
 10
50.0000000000100826
 20
176.5
 30
0.0
  0
SEQEND
  5
30A2
  8
0
  0
POLYLINE
  5
2E81
  8
0
 66
     1
 10
0.0
 20
0.0
 30
0.0
 70
   128
  0
VERTEX
  5
30A3
  8
0
 10
42.6387840678423515
 20
172.25
 30
0.0
  0
VERTEX
  5
30A4
  8
0
 10
43.4535530365671718
 20
173.6605750368379972
 30
0.0
  0
VERTEX
  5
30A5
  8
0
 10
44.2680581163452302
 20
175.0719623710168946
 30
0.0
  0
VERTEX
  5
30A6
  8
0
 10
45.0925227118982832
 20
176.5
 30
0.0
  0
SEQEND
  5
30A7
  8
0
  0
POLYLINE
  5
2E82
  8
0
 66
     1
 10
0.0
 20
0.0
 30
0.0
 70
   128
  0
VERTEX
  5
30A8
  8
0
 10
42.6387840678423515
 20
163.75
 30
0.0
  0
VERTEX
  5
30A9
  8
0
 10
41.8245747363625568
 20
165.1608981435392138
 30
0.0
  0
VERTEX
  5
30AA
  8
0
 10
41.0095299902765973
 20
166.571973901230308
 30
0.0
  0
VERTEX
  5
30AB
  8
0
 10
40.1850454237864696
 20
168.0
 30
0.0
  0
SEQEND
  5
30AC
  8
0
  0
CIRCLE
  5
2E83
  8
0
 10
50.0000000000100826
 20
168.0
 30
0.0
 40
3.0
  0
POLYLINE
  5
2E85
  8
0
 66
     1
 10
0.0
 20
0.0
 30
0.0
 70
   128
  0
VERTEX
  5
30AD
  8
0
 10
50.0000000000100826
 20
159.5
 30
0.0
  0
VERTEX
  5
30AE
  8
0
 10
48.3710093211515471
 20
159.5002477511679899
 30
0.0
  0
VERTEX
  5
30AF
  8
0
 10
46.7411510439732467
 20
159.4999453165796126
 30
0.0
  0
VERTEX
  5
30B0
  8
0
 10
45.0925227118982193
 20
159.5
 30
0.0
  0
SEQEND
  5
30B1
  8
0
  0
POLYLINE
  5
2E8B
  8
0
 66
     1
 10
0.0
 20
0.0
 30
0.0
 70
   128
  0
VERTEX
  5
30B2
  8
0
 10
45.0925227118982832
 20
159.5
 30
0.0
  0
VERTEX
  5
30B3
  8
0
 10
44.2680790411372698
 20
160.9279771092031126
 30
0.0
  0
VERTEX
  5
30B4
  8
0
 10
43.4535959159662966
 20
162.3393753735776102
 30
0.0
  0
VERTEX
  5
30B5
  8
0
 10
42.6387840678423515
 20
163.75
 30
0.0
  0
SEQEND
  5
30B6
  8
0
  0
CIRCLE
  5
2E8C
  8
0
 10
50.0000000000100826
 20
168.0
 30
0.0
 40
6.5785000000000053
  0
CIRCLE
  5
2E90
  8
0
 10
50.0000000000100826
 20
168.0
 30
0.0
 40
17.5000000000000284
  0
ARC
  5
2E9A
  8
0
 10
55.389527193690391
 20
81.1492119894672044
 30
0.0
 40
15.0000000000000107
 50
36.1607362638920478
 51
81.9117506719617552
  0
ARC
  5
2E9B
  8
0
 10
44.6104728063297387
 20
81.1492119894672044
 30
0.0
 40
15.0000000000000107
 50
98.0882493280382732
 51
143.8392637361079096
  0
LINE
  5
2E9C
  8
0
 10
57.5000000000100613
 20
96.0
 30
0.0
 11
57.5000000000100613
 21
106.0
 31
0.0
  0
LINE
  5
2E9D
  8
0
 10
42.5000000000100329
 20
106.0
 30
0.0
 11
42.5000000000100329
 21
96.0
 31
0.0
  0
LINE
  5
2E9E
  8
0
 10
56.5785000000100524
 20
114.0
 30
0.0
 11
56.5785000000100524
 21
127.1440000000000055
 31
0.0
  0
LINE
  5
2E9F
  8
0
 10
43.4215000000100702
 20
127.1440000000000055
 30
0.0
 11
43.4215000000100702
 21
114.0
 31
0.0
  0
LINE
  5
2EA0
  8
0
 10
56.5785000000100524
 20
127.1440000000000055
 30
0.0
 11
55.7225000000100508
 21
128.0
 31
0.0
  0
LINE
  5
2EA1
  8
0
 10
44.2775000000100576
 20
128.0
 30
0.0
 11
43.4215000000100702
 21
127.1440000000000055
 31
0.0
  0
LINE
  5
2EA2
  8
0
 10
40.1706214324288666
 20
106.3562059136185951
 30
0.0
 11
41.5000000000100329
 21
106.0
 31
0.0
  0
LINE
  5
2EA3
  8
0
 10
59.8293785675912488
 20
113.6437940863814049
 30
0.0
 11
58.5000000000100897
 21
114.0
 31
0.0
  0
LINE
  5
2EA4
  8
0
 10
58.5000000000100897
 20
106.0
 30
0.0
 11
59.8293785675912488
 21
106.3562059136185951
 31
0.0
  0
LINE
  5
2EA5
  8
0
 10
41.5000000000100329
 20
114.0
 30
0.0
 11
40.1706214324288098
 21
113.6437940863814049
 31
0.0
  0
LINE
  5
2EA6
  8
0
 10
57.5000000000102318
 20
96.0
 30
0.0
 11
42.5000000000100329
 21
96.0
 31
0.0
  0
LINE
  5
2EA8
  8
0
 10
67.5000000000100755
 20
90.0
 30
0.0
 11
32.5000000000100613
 21
90.0
 31
0.0
  0
ARC
  5
2EAA
  8
0
 10
49.8412193194022635
 20
142.5638706053269971
 30
0.0
 40
36.5642153607544529
 50
270.2488086061757144
 51
277.9644020955649921
  0
ARC
  5
2EAB
  8
0
 10
50.1590874877269073
 20
142.5681438770942009
 30
0.0
 40
36.5684899256807228
 50
262.0360495326917203
 51
269.7507397655717227
  0
LINE
  5
2EAC
  8
0
 10
45.0925227118982193
 20
106.3523410167827024
 30
0.0
 11
45.0925227118982193
 21
113.6476589832172976
 31
0.0
  0
ARC
  5
2EAD
  8
0
 10
50.1587806806192305
 20
77.4361293946454623
 30
0.0
 40
36.5642153607820006
 50
90.2488086061756434
 51
97.9644020955601462
  0
ARC
  5
2EAE
  8
0
 10
49.84091251229367
 20
77.4318561229034401
 30
0.0
 40
36.5684899256830818
 50
82.0360495326916777
 51
89.7507397655716659
  0
LINE
  5
2EAF
  8
0
 10
54.9074772881218891
 20
106.3523410167827024
 30
0.0
 11
54.9074772881218891
 21
113.6476589832172976
 31
0.0
  0
ARC
  5
2EB0
  8
0
 10
57.4562511926860893
 20
104.617951653308296
 30
0.0
 40
9.3825296631772162
 50
90.5803565391822048
 51
105.7625367667995988
  0
LINE
  5
2EB1
  8
0
 10
57.3612159321777995
 20
114.0
 30
0.0
 11
50.0000000000100613
 21
114.0
 31
0.0
  0
ARC
  5
2EB2
  8
0
 10
42.5437488073362999
 20
115.3820483466752052
 30
0.0
 40
9.3825296631606836
 50
270.5803565391707934
 51
285.7625367668148897
  0
LINE
  5
2EB3
  8
0
 10
50.0000000000100613
 20
106.0
 30
0.0
 11
42.6387840678423231
 21
106.0
 31
0.0
  0
ARC
  5
2EB4
  8
0
 10
57.4562375743560381
 20
115.3819535072564975
 30
0.0
 40
9.3824346906762859
 50
254.23738594056789
 51
269.4197207534505765
  0
LINE
  5
2EB5
  8
0
 10
57.3612159321777995
 20
106.0
 30
0.0
 11
50.0000000000100613
 21
106.0
 31
0.0
  0
ARC
  5
2EB6
  8
0
 10
42.5437624256639992
 20
104.6180464927419962
 30
0.0
 40
9.382434690677762
 50
74.2373859405695384
 51
89.4197207534490559
  0
LINE
  5
2EB7
  8
0
 10
50.0000000000100613
 20
114.0
 30
0.0
 11
42.6387840678423231
 21
114.0
 31
0.0
  0
ARC
  5
2EB8
  8
0
 10
57.2657035993649686
 20
115.3853707266973032
 30
0.0
 40
9.3858567154664012
 50
270.5830632388622803
 51
285.7598300671231186
  0
ARC
  5
2EB9
  8
0
 10
57.2656979337410519
 20
104.6145898173213027
 30
0.0
 40
9.3858962270607815
 50
74.2402020656231514
 51
89.4169046283945335
  0
LINE
  5
2EBA
  8
0
 10
59.8149545762337027
 20
106.3523410167827024
 30
0.0
 11
59.8149545762337027
 21
113.6476589832172976
 31
0.0
  0
ARC
  5
2EBB
  8
0
 10
42.7343020662799233
 20
115.3854101826836995
 30
0.0
 40
9.3858962270658761
 50
254.2402020656282104
 51
269.4169046283913076
  0
LINE
  5
2EBC
  8
0
 10
40.1850454237864199
 20
106.3523410167827024
 30
0.0
 11
40.1850454237864199
 21
113.6476589832172976
 31
0.0
  0
ARC
  5
2EBD
  8
0
 10
42.7342964006538679
 20
104.6146292733109959
 30
0.0
 40
9.3858567154580896
 50
90.5830632388541659
 51
105.7598300671264013
  0
LINE
  5
2EBE
  8
0
 10
56.5785000000100524
 20
127.1440000000000055
 30
0.0
 11
43.4215000000100702
 21
127.1440000000000055
 31
0.0
  0
LINE
  5
2EBF
  8
0
 10
44.2775000000100576
 20
128.0
 30
0.0
 11
55.7225000000100508
 21
128.0
 31
0.0
  0
LINE
  5
2EC0
  8
0
 10
42.6387840678423231
 20
106.0
 30
0.0
 11
41.5000000000100329
 21
106.0
 31
0.0
  0
LINE
  5
2EC1
  8
0
 10
58.5000000000100897
 20
114.0
 30
0.0
 11
57.3612159321777995
 21
114.0
 31
0.0
  0
LINE
  5
2EC2
  8
0
 10
58.5000000000100897
 20
106.0
 30
0.0
 11
57.3612159321777995
 21
106.0
 31
0.0
  0
LINE
  5
2EC3
  8
0
 10
42.6387840678423231
 20
114.0
 30
0.0
 11
41.5000000000100329
 21
114.0
 31
0.0
  0
ARC
  5
2EC4
  8
0
 10
105.3895271936903981
 20
81.1492119894672044
 30
0.0
 40
15.0000000000000107
 50
36.1607362638920478
 51
81.9117506719617552
  0
ARC
  5
2EC5
  8
0
 10
94.6104728063296818
 20
81.1492119894672044
 30
0.0
 40
15.0000000000000107
 50
98.0882493280382732
 51
143.8392637361079096
  0
LINE
  5
2EC6
  8
0
 10
107.5000000000100044
 20
96.0
 30
0.0
 11
107.5000000000100044
 21
106.0
 31
0.0
  0
LINE
  5
2EC7
  8
0
 10
92.5000000000100329
 20
106.0
 30
0.0
 11
92.5000000000100329
 21
96.0
 31
0.0
  0
LINE
  5
2EC8
  8
0
 10
106.5785000000099956
 20
127.1440000000000055
 30
0.0
 11
105.722500000010001
 21
128.0
 31
0.0
  0
LINE
  5
2EC9
  8
0
 10
94.2775000000100079
 20
128.0
 30
0.0
 11
93.4215000000100133
 21
127.1440000000000055
 31
0.0
  0
LINE
  5
2ECA
  8
0
 10
106.5785000000099956
 20
114.0
 30
0.0
 11
106.5785000000099956
 21
127.1440000000000055
 31
0.0
  0
LINE
  5
2ECB
  8
0
 10
93.4215000000100133
 20
127.1440000000000055
 30
0.0
 11
93.4215000000100133
 21
114.0
 31
0.0
  0
LINE
  5
2ECC
  8
0
 10
107.5000000000100044
 20
96.0
 30
0.0
 11
92.5000000000100329
 21
96.0
 31
0.0
  0
LINE
  5
2ECD
  8
0
 10
117.5000000000100044
 20
90.0
 30
0.0
 11
82.5000000000100329
 21
90.0
 31
0.0
  0
ARC
  5
2ECE
  8
0
 10
104.1095638819947027
 20
133.5022638184495065
 30
0.0
 40
27.5026223739272098
 50
270.2925696216018991
 51
279.1858270178789212
  0
ARC
  5
2ECF
  8
0
 10
104.3901517255306004
 20
133.4988334256067048
 30
0.0
 40
27.499190574913861
 50
260.8136169420150736
 51
269.7079864185055271
  0
LINE
  5
2ED0
  8
0
 10
100.0000000000100044
 20
106.3523410167827024
 30
0.0
 11
100.0000000000100044
 21
113.6476589832172976
 31
0.0
  0
ARC
  5
2ED1
  8
0
 10
104.3901632625178024
 20
86.5010274132002905
 30
0.0
 40
27.4993297931007916
 50
90.2920361411465535
 51
99.1863604983322347
  0
ARC
  5
2ED2
  8
0
 10
104.1095644360089949
 20
86.4977428641673356
 30
0.0
 40
27.5026156885685289
 50
80.8141718990572571
 51
89.7074314614642248
  0
LINE
  5
2ED3
  8
0
 10
108.5000000000100044
 20
106.3523410167827024
 30
0.0
 11
108.5000000000100044
 21
113.6476589832172976
 31
0.0
  0
LINE
  5
2ED4
  8
0
 10
104.2500000000100044
 20
106.0
 30
0.0
 11
95.7500000000100187
 21
106.0
 31
0.0
  0
ARC
  5
2ED5
  8
0
 10
95.609836737503457
 20
133.4989725867824859
 30
0.0
 40
27.4993297930835787
 50
270.2920361411448766
 51
279.186360498335489
  0
ARC
  5
2ED6
  8
0
 10
95.6098482744871063
 20
86.5011665743633245
 30
0.0
 40
27.4991905749438494
 50
80.8136169420200048
 51
89.7079864185006102
  0
LINE
  5
2ED7
  8
0
 10
104.2500000000100044
 20
114.0
 30
0.0
 11
95.7500000000100187
 21
114.0
 31
0.0
  0
ARC
  5
2ED8
  8
0
 10
95.890435564011355
 20
133.5022571358354924
 30
0.0
 40
27.5026156885713391
 50
260.8141718990573281
 51
269.7074314614641821
  0
LINE
  5
2ED9
  8
0
 10
91.5000000000100329
 20
106.3523410167827024
 30
0.0
 11
91.5000000000100329
 21
113.6476589832172976
 31
0.0
  0
ARC
  5
2EDA
  8
0
 10
95.8904361180251783
 20
86.497736181549655
 30
0.0
 40
27.5026223739280304
 50
90.2925696216003075
 51
99.1858270178788359
  0
LINE
  5
2EDB
  8
0
 10
108.5000000000100044
 20
114.0
 30
0.0
 11
104.2500000000100044
 21
114.0
 31
0.0
  0
ARC
  5
2EDC
  8
0
 10
496.5139388574492045
 20
113.8238294916086062
 30
0.0
 40
388.0139788509076766
 50
179.973985919315794
 51
180.0260140806850018
  0
ARC
  5
2EDD
  8
0
 10
-296.513874819180387
 20
106.1761705083913938
 30
0.0
 40
388.013914812665405
 50
359.9739859150233201
 51
0.0260140849775797
  0
LINE
  5
2EDE
  8
0
 10
95.7500000000100187
 20
106.0
 30
0.0
 11
91.5000000000100329
 21
106.0
 31
0.0
  0
ARC
  5
2EDF
  8
0
 10
-19.4429295495798087
 20
106.1761705083913938
 30
0.0
 40
127.9430508381729936
 50
359.9211068539565872
 51
0.0788931460442124
  0
LINE
  5
2EE0
  8
0
 10
108.5000000000100044
 20
106.0
 30
0.0
 11
104.2500000000100044
 21
106.0
 31
0.0
  0
ARC
  5
2EE1
  8
0
 10
219.4429299815450918
 20
113.8238294916086062
 30
0.0
 40
127.9430512701179055
 50
179.9211068542219891
 51
180.078893145778693
  0
LINE
  5
2EE2
  8
0
 10
95.7500000000100187
 20
114.0
 30
0.0
 11
91.5000000000100329
 21
114.0
 31
0.0
  0
LINE
  5
2EE3
  8
0
 10
106.5785000000099956
 20
127.1440000000000055
 30
0.0
 11
93.4215000000100133
 21
127.1440000000000055
 31
0.0
  0
LINE
  5
2EE6
  8
0
 10
94.2775000000100079
 20
128.0
 30
0.0
 11
105.722500000010001
 21
128.0
 31
0.0
  0
CIRCLE
  5
2EE7
  8
0
 10
50.0000000000100613
 20
50.0
 30
0.0
 40
2.9999999999999849
  0
CIRCLE
  5
2EE8
  8
0
 10
50.0000000000100613
 20
50.0
 30
0.0
 40
17.4999999999999787
  0
CIRCLE
  5
2EF8
  8
0
 10
50.0000000000100826
 20
168.0
 30
0.0
 40
8.5
  0
LINE
  5
2EF9
  8
1
 10
27.5000000000100897
 20
50.0
 30
0.0
 11
72.5000000000100329
 21
50.0
 31
0.0
  0
LINE
  5
2EFA
  8
1
 10
50.0000000000100613
 20
72.4999999999999858
 30
0.0
 11
50.0000000000100613
 21
27.5000000000000213
 31
0.0
  0
LINE
  5
2EFC
  8
1
 10
50.0000000000100826
 20
133.0
 30
0.0
 11
50.0000000000100826
 21
85.0
 31
0.0
  0
LINE
  5
2EFE
  8
1
 10
100.0000000000100044
 20
133.0
 30
0.0
 11
100.0000000000100044
 21
85.0
 31
0.0
  0
LINE
  5
2EFF
  8
1
 10
27.5000000000100613
 20
168.0
 30
0.0
 11
72.5000000000101181
 21
168.0
 31
0.0
  0
LINE
  5
2F00
  8
1
 10
50.0000000000100826
 20
190.5
 30
0.0
 11
50.0000000000100826
 21
145.5
 31
0.0
  0
LINE
  5
2FF6
  8
3
 10
44.2775000000100931
 20
128.0
 30
0.0
 11
44.2775000000100576
 21
114.0
 31
0.0
  0
LINE
  5
2FF7
  8
3
 10
55.7225000000101431
 20
127.9999999999999005
 30
0.0
 11
55.7225000000101218
 21
114.0
 31
0.0
  0
LINE
  5
2FF8
  8
3
 10
94.2775000000100647
 20
128.0
 30
0.0
 11
94.2775000000100079
 21
114.0
 31
0.0
  0
LINE
  5
2FF9
  8
3
 10
105.7225000000101005
 20
127.9999999999999005
 30
0.0
 11
105.722500000010001
 21
114.0
 31
0.0
  0
CIRCLE
  5
2FFA
  8
3
 10
50.0000000000100826
 20
168.0
 30
0.0
 40
5.7225000000000001
  0
VIEWPORT
  5
22
 67
     1
  8
0
 10
261.517699115044195
 20
148.5
 30
0.0
 40
523.0353982300885036
 41
297.0
 68
     1
 69
     1
1001
ACAD
1000
MVIEW
1002
{
1070
    16
1010
0.0
1020
0.0
1030
0.0
1010
0.0
1020
0.0
1030
1.0
1040
0.0
1040
297.0
1040
261.517699115044195
1040
148.5
1040
50.0
1040
0.0
1040
0.0
1070
     0
1070
   100
1070
     1
1070
     1
1070
     0
1070
     0
1070
     0
1070
     0
1040
0.0
1040
0.0
1040
0.0
1040
1.0
1040
1.0
1040
10.0
1040
10.0
1070
     0
1002
{
1002
}
1002
}
  0
ENDSEC
  0
EOF
