  0
SECTION
  2
HEADER
  9
$ACADVER
  1
AC1009
  9
$INSBASE
 10
0.0
 20
0.0
 30
0.0
  9
$EXTMIN
 10
0.0
 20
-2.960436562073669
 30
0.0
  9
$EXTMAX
 10
100.0000000000100044
 20
148.0
 30
0.0
  9
$LIMMIN
 10
0.0
 20
0.0
  9
$LIMMAX
 10
400.0
 20
277.0
  9
$ORTHOMODE
 70
     1
  9
$REGENMODE
 70
     1
  9
$FILLMODE
 70
     1
  9
$QTEXTMODE
 70
     0
  9
$MIRRTEXT
 70
     1
  9
$DRAGMODE
 70
     2
  9
$LTSCALE
 40
5.0
  9
$OSMODE
 70
    37
  9
$ATTMODE
 70
     1
  9
$TEXTSIZE
 40
2.5
  9
$TRACEWID
 40
1.0
  9
$TEXTSTYLE
  7
STANDARD
  9
$CLAYER
  8
0
  9
$CELTYPE
  6
BYLAYER
  9
$CECOLOR
 62
   256
  9
$DIMSCALE
 40
1.0
  9
$DIMASZ
 40
3.0
  9
$DIMEXO
 40
1.0
  9
$DIMDLI
 40
6.0
  9
$DIMRND
 40
0.0
  9
$DIMDLE
 40
0.0
  9
$DIMEXE
 40
1.0
  9
$DIMTP
 40
495.0
  9
$DIMTM
 40
0.0
  9
$DIMTXT
 40
3.0
  9
$DIMCEN
 40
0.0
  9
$DIMTSZ
 40
0.0
  9
$DIMTOL
 70
     0
  9
$DIMLIM
 70
     0
  9
$DIMTIH
 70
     0
  9
$DIMTOH
 70
     0
  9
$DIMSE1
 70
     0
  9
$DIMSE2
 70
     0
  9
$DIMTAD
 70
     3
  9
$DIMZIN
 70
     8
  9
$DIMBLK
  1

  9
$DIMASO
 70
     0
  9
$DIMSHO
 70
     1
  9
$DIMPOST
  1

  9
$DIMAPOST
  1

  9
$DIMALT
 70
     0
  9
$DIMALTD
 70
     2
  9
$DIMALTF
 40
25.3999999999999986
  9
$DIMLFAC
 40
1.0
  9
$DIMTOFL
 70
     1
  9
$DIMTVP
 40
0.0
  9
$DIMTIX
 70
     1
  9
$DIMSOXD
 70
     0
  9
$DIMSAH
 70
     1
  9
$DIMBLK1
  1
ARROW1
  9
$DIMBLK2
  1
ARROW1
  9
$DIMSTYLE
  2
ITM
  9
$DIMCLRD
 70
     4
  9
$DIMCLRE
 70
     4
  9
$DIMCLRT
 70
     4
  9
$DIMTFAC
 40
1.0
  9
$DIMGAP
 40
1.0
  9
$LUNITS
 70
     2
  9
$LUPREC
 70
     1
  9
$SKETCHINC
 40
1.0
  9
$FILLETRAD
 40
0.0
  9
$AUNITS
 70
     0
  9
$AUPREC
 70
     0
  9
$MENU
  1
.
  9
$ELEVATION
 40
0.0
  9
$PELEVATION
 40
0.0
  9
$THICKNESS
 40
0.0
  9
$LIMCHECK
 70
     0
  9
$BLIPMODE
 70
     0
  9
$CHAMFERA
 40
10.0
  9
$CHAMFERB
 40
10.0
  9
$SKPOLY
 70
     0
  9
$TDCREATE
 40
2451415.6127083338797092
  9
$TDUPDATE
 40
2460886.718611110933125
  9
$TDINDWG
 40
0.4104414468
  9
$TDUSRTIMER
 40
0.4104414468
  9
$USRTIMER
 70
     1
  9
$ANGBASE
 50
0.0
  9
$ANGDIR
 70
     0
  9
$PDMODE
 70
     0
  9
$PDSIZE
 40
0.0
  9
$PLINEWID
 40
0.0
  9
$COORDS
 70
     1
  9
$SPLFRAME
 70
     0
  9
$SPLINETYPE
 70
     6
  9
$SPLINESEGS
 70
     8
  9
$ATTDIA
 70
     1
  9
$ATTREQ
 70
     1
  9
$HANDLING
 70
     1
  9
$HANDSEED
  5
306D
  9
$SURFTAB1
 70
     6
  9
$SURFTAB2
 70
     6
  9
$SURFTYPE
 70
     6
  9
$SURFU
 70
     6
  9
$SURFV
 70
     6
  9
$UCSNAME
  2

  9
$UCSORG
 10
0.0
 20
0.0
 30
0.0
  9
$UCSXDIR
 10
1.0
 20
0.0
 30
0.0
  9
$UCSYDIR
 10
0.0
 20
1.0
 30
0.0
  9
$PUCSNAME
  2

  9
$PUCSORG
 10
0.0
 20
0.0
 30
0.0
  9
$PUCSXDIR
 10
1.0
 20
0.0
 30
0.0
  9
$PUCSYDIR
 10
0.0
 20
1.0
 30
0.0
  9
$USERI1
 70
     3
  9
$USERI2
 70
     1
  9
$USERI3
 70
     1
  9
$USERI4
 70
     0
  9
$USERI5
 70
     0
  9
$USERR1
 40
1.0
  9
$USERR2
 40
3.0
  9
$USERR3
 40
3.0
  9
$USERR4
 40
3.0
  9
$USERR5
 40
10.0
  9
$WORLDVIEW
 70
     1
  9
$SHADEDGE
 70
     3
  9
$SHADEDIF
 70
    70
  9
$TILEMODE
 70
     1
  9
$MAXACTVP
 70
    16
  9
$PLIMCHECK
 70
     0
  9
$PEXTMIN
 10
1.0000000000000000E+20
 20
1.0000000000000000E+20
 30
1.0000000000000000E+20
  9
$PEXTMAX
 10
-1.0000000000000000E+20
 20
-1.0000000000000000E+20
 30
-1.0000000000000000E+20
  9
$PLIMMIN
 10
0.0
 20
0.0
  9
$PLIMMAX
 10
420.0
 20
297.0
  9
$UNITMODE
 70
     0
  9
$VISRETAIN
 70
     0
  9
$PLINEGEN
 70
     0
  9
$PSLTSCALE
 70
     1
  0
ENDSEC
  0
SECTION
  2
TABLES
  0
TABLE
  2
VPORT
 70
     1
  0
VPORT
  2
*ACTIVE
 70
     0
 10
0.0
 20
0.0
 11
1.0
 21
1.0
 12
204.13793103448279
 22
87.2293399938905054
 13
0.0
 23
0.0
 14
10.0
 24
10.0
 15
10.0
 25
10.0
 16
0.0
 26
0.0
 36
1.0
 17
0.0
 27
0.0
 37
0.0
 40
174.4586799877810108
 41
2.340243902439024
 42
50.0
 43
0.0
 44
0.0
 50
0.0
 51
0.0
 71
     0
 72
   100
 73
     1
 74
     1
 75
     0
 76
     0
 77
     0
 78
     0
  0
ENDTAB
  0
TABLE
  2
LTYPE
 70
     3
  0
LTYPE
  2
CONTINUOUS
 70
     0
  3
Solid line
 72
    65
 73
     0
 40
0.0
  0
LTYPE
  2
CENTER
 70
     0
  3
____ _ ____ _ ____ _ ____ _ ____ _ ____ _ ____ 
 72
    65
 73
     4
 40
2.0
 49
1.25
 49
-0.25
 49
0.25
 49
-0.25
  0
LTYPE
  2
PHANTOM2
 70
     0
  3
___ _ _ ___ _ _ ___ _ _ ___ _ _
 72
    65
 73
     6
 40
1.25
 49
0.625
 49
-0.125
 49
0.125
 49
-0.125
 49
0.125
 49
-0.125
  0
ENDTAB
  0
TABLE
  2
LAYER
 70
     5
  0
LAYER
  2
0
 70
     0
 62
     7
  6
CONTINUOUS
  0
LAYER
  2
WAKU
 70
     0
 62
     5
  6
CONTINUOUS
  0
LAYER
  2
1
 70
     0
 62
     1
  6
CENTER
  0
LAYER
  2
3
 70
     0
 62
     3
  6
CONTINUOUS
  0
LAYER
  2
DEFPOINTS
 70
     0
 62
     7
  6
CONTINUOUS
  0
ENDTAB
  0
TABLE
  2
STYLE
 70
     3
  0
STYLE
  2
STANDARD
 70
     0
 40
0.0
 41
1.0
 50
0.0
 71
     0
 42
2.5
  3
ROMANS
  4
EXTFONT
  0
STYLE
  2
K
 70
     0
 40
0.0
 41
1.0
 50
0.0
 71
     0
 42
3.0
  3
ROMANS
  4
bigfont
  0
STYLE
  2
STANDARD1
 70
     0
 40
0.0
 41
1.0
 50
0.0
 71
     0
 42
3.0
  3
txt
  4

  0
ENDTAB
  0
TABLE
  2
VIEW
 70
     0
  0
ENDTAB
  0
TABLE
  2
UCS
 70
     0
  0
ENDTAB
  0
TABLE
  2
APPID
 70
    45
  0
APPID
  2
ACAD
 70
     0
  0
APPID
  2
ACAD_NAV_VCDISPLAY
 70
     0
  0
APPID
  2
DCO15
 70
     0
  0
APPID
  2
GENIUS_GENOREF_13
 70
     0
  0
APPID
  2
GENIUS_GENOENT_13
 70
     0
  0
APPID
  2
GENIUS_GENBH_13
 70
     0
  0
APPID
  2
GENIUS_GENOBJ_13
 70
     0
  0
APPID
  2
GENIUS_GENODEF_13
 70
     0
  0
APPID
  2
GENIUS_GENOLIS_13
 70
     0
  0
APPID
  2
GENIUS_GENOBJ-NBEHI-BHF_13
 70
     0
  0
APPID
  2
GENIUS_GENOBJ-NBEHI-BHB_13
 70
     0
  0
APPID
  2
GENIUS_GENOBJ-F-PART_13
 70
     0
  0
APPID
  2
GENIUS_GEFSTDP_13
 70
     0
  0
APPID
  2
GENIUS_GENOBJ-N-RSSYM_13
 70
     0
  0
APPID
  2
GENIUS_GENSYMENT_13
 70
     0
  0
APPID
  2
GENIUS_GENOBJ-N-TIT_13
 70
     0
  0
APPID
  2
GENIUS_GENTITLE_13
 70
     0
  0
APPID
  2
GENIUS_GENZVEED_13
 70
     0
  0
APPID
  2
GENIUS_GENOBJ-N-LEADER_13
 70
     0
  0
APPID
  2
GENIUS_GENOBJ-N-FIL_13
 70
     0
  0
APPID
  2
GENIUS_GENOBJ-N-SEC_13
 70
     0
  0
APPID
  2
GENIUS_GENOBJ-N-CRS_13
 70
     0
  0
APPID
  2
GENIUS_GENOBJ-N-ZOO_13
 70
     0
  0
APPID
  2
GENIUS_GENZOO_13
 70
     0
  0
APPID
  2
GENIUS_GENOBJ-F-TOL_13
 70
     0
  0
APPID
  2
GENIUS_GENFIL_13
 70
     0
  0
APPID
  2
GENIUS_GENOBJ-N-CHA_13
 70
     0
  0
APPID
  2
_CALL_MAC$
 70
     0
  0
APPID
  2
ASM_BASE
 70
     0
  0
APPID
  2
ASM_EXPLO_VER_2_00
 70
     0
  0
APPID
  2
ASM_CADM_VER_12_00
 70
     0
  0
APPID
  2
ASM_BASEFORO
 70
     0
  0
APPID
  2
ASM_BASETRAVI
 70
     0
  0
APPID
  2
ASM_BASETRAVI1
 70
     0
  0
APPID
  2
ASM_GRUPPI
 70
     0
  0
APPID
  2
ASM_CADM_ALBERO
 70
     0
  0
APPID
  2
ASM_GOLE
 70
     0
  0
APPID
  2
ACAD_EXEMPT_FROM_CAD_STANDARDS
 70
     0
  0
APPID
  2
ACAD_DSTYLE_DIMJAG
 70
     0
  0
APPID
  2
ACAD_DSTYLE_DIMTALN
 70
     0
  0
APPID
  2
GRADIENTCOLOR1ACI
 70
     0
  0
APPID
  2
GRADIENTCOLOR2ACI
 70
     0
  0
APPID
  2
ACAD_MLEADERVER
 70
     0
  0
APPID
  2
ACAD_TC
 70
     0
  0
APPID
  2
ACAD_DSTYLE_DIMRADIAL_EXTENSION
 70
     0
  0
ENDTAB
  0
TABLE
  2
DIMSTYLE
 70
     2
  0
DIMSTYLE
  2
STANDARD
 70
     0
  3

  4

  5

  6

  7

 40
1.0
 41
0.18
 42
0.0625
 43
0.38
 44
0.18
 45
0.0
 46
0.0
 47
0.0
 48
0.0
140
0.18
141
0.09
142
0.0
143
25.3999999999999986
144
1.0
145
0.0
146
1.0
147
0.09
 71
     0
 72
     0
 73
     1
 74
     1
 75
     0
 76
     0
 77
     0
 78
     0
170
     0
171
     2
172
     0
173
     0
174
     0
175
     0
176
     0
177
     0
178
     0
  0
DIMSTYLE
  2
ITM
 70
     0
  3

  4

  5
ARROWANG
  6
ARROWANG
  7
ARROWANG
 40
1.0
 41
1.5
 42
1.0
 43
6.0
 44
1.0
 45
0.0
 46
0.0
 47
495.0
 48
0.0
140
3.0
141
0.0
142
0.0
143
25.3999999999999986
144
1.0
145
0.0
146
1.0
147
0.5
 71
     0
 72
     0
 73
     0
 74
     0
 75
     0
 76
     0
 77
     3
 78
     8
170
     0
171
     2
172
     1
173
     1
174
     1
175
     0
176
     0
177
     0
178
     0
  0
ENDTAB
  0
ENDSEC
  0
SECTION
  2
BLOCKS
  0
BLOCK
  8
0
  2
$MODEL_SPACE
 70
     0
 10
0.0
 20
0.0
 30
0.0
  3
$MODEL_SPACE
  1

  0
ENDBLK
  5
1C
  8
0
  0
BLOCK
 67
     1
  8
0
  2
$PAPER_SPACE
 70
     0
 10
0.0
 20
0.0
 30
0.0
  3
$PAPER_SPACE
  1

  0
ENDBLK
  5
19
 67
     1
  8
0
  0
BLOCK
  8
0
  2
ARROWANG
 70
     0
 10
0.0
 20
0.0
 30
0.0
  3
ARROWANG
  1

  0
LINE
  5
C9
  8
0
 10
0.0
 20
0.0
 30
0.0
 11
-1.4999999999999429
 21
0.4019237886467409
 31
0.0
  0
LINE
  5
CA
  8
0
 10
0.0
 20
0.0
 30
0.0
 11
-1.5
 21
-0.4019237886467124
 31
0.0
  0
ENDBLK
  5
CB
  8
0
  0
BLOCK
  8
0
  2
ARROW1
 70
     0
 10
0.0
 20
0.0
 30
0.0
  3
ARROW1
  1

  0
SOLID
  5
EE
  8
WAKU
  6
CONTINUOUS
 62
     4
 10
-1.0
 20
0.1666666666666714
 30
0.0
 11
-1.0
 21
-0.1666666666666714
 31
0.0
 12
0.0
 22
0.0
 32
0.0
 13
0.0
 23
0.0
 33
0.0
  0
ENDBLK
  5
F0
  8
0
  0
ENDSEC
  0
SECTION
  2
ENTITIES
  0
TEXT
  5
1BB9
  8
0
 62
     3
 10
0.0
 20
0.0
 30
0.0
 40
10.0
  1
VVH20-A-G1/8
  7
STANDARD1
  0
CIRCLE
  5
2957
  8
0
 10
50.0000000000100613
 20
135.0
 30
0.0
 40
4.8640000000000043
  0
CIRCLE
  5
2958
  8
0
 10
50.0000000000100613
 20
135.0
 30
0.0
 40
2.0
  0
CIRCLE
  5
296B
  8
0
 10
50.0000000000100613
 20
135.0
 30
0.0
 40
9.7000000000000028
  0
CIRCLE
  5
296C
  8
0
 10
50.0000000000100613
 20
135.0
 30
0.0
 40
10.0000000000000107
  0
LINE
  5
2992
  8
0
 10
60.0000000000100613
 20
80.0
 30
0.0
 11
59.7000000000100499
 21
80.5
 31
0.0
  0
LINE
  5
2993
  8
0
 10
40.3000000000100371
 20
80.5
 30
0.0
 11
40.0000000000100613
 21
80.0
 31
0.0
  0
ARC
  5
2994
  8
0
 10
52.4778563190100371
 20
75.1296517197000071
 30
0.0
 40
9.0
 50
36.6342993832005135
 51
80.262930720199364
  0
ARC
  5
2995
  8
0
 10
47.5221436809100624
 20
75.1296517197000071
 30
0.0
 40
9.0000000000000053
 50
99.7370692798005933
 51
143.3657006167995007
  0
LINE
  5
2996
  8
0
 10
54.8640000000100585
 20
97.0
 30
0.0
 11
54.8640000000100585
 21
104.4189999999999969
 31
0.0
  0
LINE
  5
2997
  8
0
 10
45.1360000000100499
 20
104.4189999999999969
 30
0.0
 11
45.1360000000100499
 21
97.0
 31
0.0
  0
LINE
  5
2998
  8
0
 10
54.8640000000100585
 20
104.4189999999999969
 30
0.0
 11
54.2830000000100483
 21
105.0
 31
0.0
  0
LINE
  5
2999
  8
0
 10
45.7170000000100387
 20
105.0
 30
0.0
 11
45.1360000000100499
 21
104.4189999999999969
 31
0.0
  0
LINE
  5
299A
  8
0
 10
54.0000000000100613
 20
84.0
 30
0.0
 11
54.0000000000100613
 21
92.0
 31
0.0
  0
LINE
  5
299B
  8
0
 10
46.0000000000100471
 20
92.0
 30
0.0
 11
46.0000000000100471
 21
84.0
 31
0.0
  0
LINE
  5
299C
  8
0
 10
56.9383848712100473
 20
96.7485605315999919
 30
0.0
 11
56.0000000000100613
 21
97.0
 31
0.0
  0
LINE
  5
299D
  8
0
 10
43.0616151287100593
 20
92.2514394683999939
 30
0.0
 11
44.0000000000100613
 21
92.0
 31
0.0
  0
LINE
  5
299E
  8
0
 10
44.0000000000100613
 20
97.0
 30
0.0
 11
43.0616151287100593
 21
96.7485605315999919
 31
0.0
  0
LINE
  5
299F
  8
0
 10
56.0000000000100613
 20
92.0
 30
0.0
 11
56.9383848712100473
 21
92.2514394683999939
 31
0.0
  0
LINE
  5
29A0
  8
0
 10
60.0000000000100826
 20
80.0
 30
0.0
 11
40.0000000000100613
 21
80.0
 31
0.0
  0
LINE
  5
29A2
  8
0
 10
59.7000000000100499
 20
80.5
 30
0.0
 11
40.3000000000100371
 21
80.5
 31
0.0
  0
LINE
  5
29A4
  8
0
 10
54.0000000001974811
 20
84.0
 30
0.0
 11
46.0000000000100471
 21
84.0
 31
0.0
  0
LINE
  5
29A8
  8
0
 10
46.5358983848100465
 20
92.2487113060000041
 30
0.0
 11
46.5358983848100465
 21
96.7512886939999959
 31
0.0
  0
LINE
  5
29AB
  8
0
 10
53.4641016151100601
 20
92.2487113060000041
 30
0.0
 11
53.4641016151100601
 21
96.7512886939999959
 31
0.0
  0
LINE
  5
29AD
  8
0
 10
55.1961524227100711
 20
97.0
 30
0.0
 11
50.0000000000100613
 21
97.0
 31
0.0
  0
LINE
  5
29AF
  8
0
 10
50.0000000000100613
 20
92.0
 30
0.0
 11
44.8038475773100373
 21
92.0
 31
0.0
  0
LINE
  5
29B1
  8
0
 10
50.0000000000100613
 20
97.0
 30
0.0
 11
44.8038475773100373
 21
97.0
 31
0.0
  0
LINE
  5
29B3
  8
0
 10
55.1961524227100711
 20
92.0
 30
0.0
 11
50.0000000000100613
 21
92.0
 31
0.0
  0
LINE
  5
29B6
  8
0
 10
56.9282032302100731
 20
92.2487113060000041
 30
0.0
 11
56.9282032302100731
 21
96.7512886939999959
 31
0.0
  0
LINE
  5
29B8
  8
0
 10
43.0717967697100335
 20
92.2487113060000041
 30
0.0
 11
43.0717967697100335
 21
96.7512886939999959
 31
0.0
  0
LINE
  5
29BA
  8
0
 10
54.8640000000100869
 20
104.4189999999999969
 30
0.0
 11
45.1360000000100499
 21
104.4189999999999969
 31
0.0
  0
LINE
  5
29BC
  8
0
 10
54.2830000000100128
 20
105.0
 30
0.0
 11
45.7170000000100387
 21
105.0
 31
0.0
  0
LINE
  5
29BE
  8
0
 10
56.0000000000100613
 20
97.0
 30
0.0
 11
55.1961524227100711
 21
97.0
 31
0.0
  0
LINE
  5
29BF
  8
0
 10
44.8038475773100373
 20
92.0
 30
0.0
 11
44.0000000000100613
 21
92.0
 31
0.0
  0
LINE
  5
29C0
  8
0
 10
44.8038475773100373
 20
97.0
 30
0.0
 11
44.0000000000100613
 21
97.0
 31
0.0
  0
LINE
  5
29C1
  8
0
 10
56.0000000000100613
 20
92.0
 30
0.0
 11
55.1961524227100711
 21
92.0
 31
0.0
  0
CIRCLE
  5
29D6
  8
0
 10
50.0000000000100613
 20
50.0
 30
0.0
 40
10.0000000000000107
  0
CIRCLE
  5
29D7
  8
0
 10
50.0000000000100613
 20
50.0
 30
0.0
 40
2.0
  0
LINE
  5
2A03
  8
0
 10
100.0000000000100044
 20
80.0
 30
0.0
 11
99.7000000000099931
 21
80.5
 31
0.0
  0
LINE
  5
2A04
  8
0
 10
80.3000000000100158
 20
80.5
 30
0.0
 11
80.0000000000100044
 21
80.0
 31
0.0
  0
ARC
  5
2A05
  8
0
 10
92.4778563191100034
 20
75.1296517195999627
 30
0.0
 40
8.9999999999999911
 50
36.6342993832000232
 51
80.262930720199364
  0
ARC
  5
2A06
  8
0
 10
87.5221436810099789
 20
75.1296517195999627
 30
0.0
 40
8.9999999999999805
 50
99.7370692798005933
 51
143.3657006167995007
  0
LINE
  5
2A07
  8
0
 10
94.8640000000100088
 20
97.0
 30
0.0
 11
94.8640000000100088
 21
104.4189999999999969
 31
0.0
  0
LINE
  5
2A08
  8
0
 10
85.1360000000100001
 20
104.4189999999999969
 30
0.0
 11
85.1360000000100001
 21
97.0
 31
0.0
  0
LINE
  5
2A09
  8
0
 10
94.8640000000100088
 20
104.4189999999999969
 30
0.0
 11
94.2830000000100057
 21
105.0
 31
0.0
  0
LINE
  5
2A0A
  8
0
 10
85.7170000000100032
 20
105.0
 30
0.0
 11
85.1360000000100001
 21
104.4189999999999969
 31
0.0
  0
LINE
  5
2A0B
  8
0
 10
94.0000000000100044
 20
84.0
 30
0.0
 11
94.0000000000100044
 21
92.0
 31
0.0
  0
LINE
  5
2A0C
  8
0
 10
86.0000000000100044
 20
92.0
 30
0.0
 11
86.0000000000100044
 21
84.0
 31
0.0
  0
LINE
  5
2A0D
  8
0
 10
100.0000000000100044
 20
80.0
 30
0.0
 11
80.0000000000100044
 21
80.0
 31
0.0
  0
LINE
  5
2A0E
  8
0
 10
99.7000000000099931
 20
80.5
 30
0.0
 11
80.3000000000100158
 21
80.5
 31
0.0
  0
LINE
  5
2A0F
  8
0
 10
94.0000000000100044
 20
84.0
 30
0.0
 11
86.0000000000100044
 21
84.0
 31
0.0
  0
LINE
  5
2A12
  8
0
 10
90.0000000000100044
 20
92.2487113058999739
 30
0.0
 11
90.0000000000100044
 21
96.7512886939999248
 31
0.0
  0
LINE
  5
2A15
  8
0
 10
96.0000000000100044
 20
92.2487113058999739
 30
0.0
 11
96.0000000000100044
 21
96.7512886939999248
 31
0.0
  0
LINE
  5
2A18
  8
0
 10
84.0000000000100044
 20
92.2487113058999739
 30
0.0
 11
84.0000000000100044
 21
96.7512886939999248
 31
0.0
  0
LINE
  5
2A1B
  8
0
 10
93.0000000000100044
 20
97.0
 30
0.0
 11
87.0000000000100044
 21
97.0
 31
0.0
  0
LINE
  5
2A1C
  8
0
 10
93.0000000000100044
 20
92.0
 30
0.0
 11
87.0000000000100044
 21
92.0
 31
0.0
  0
LINE
  5
2A1D
  8
0
 10
96.0000000000100044
 20
97.0
 30
0.0
 11
93.0000000000100044
 21
97.0
 31
0.0
  0
LINE
  5
2A20
  8
0
 10
87.0000000000100044
 20
92.0
 30
0.0
 11
84.0000000000100044
 21
92.0
 31
0.0
  0
LINE
  5
2A22
  8
0
 10
87.0000000000100044
 20
97.0
 30
0.0
 11
84.0000000000100044
 21
97.0
 31
0.0
  0
LINE
  5
2A24
  8
0
 10
96.0000000000100044
 20
92.0
 30
0.0
 11
93.0000000000100044
 21
92.0
 31
0.0
  0
LINE
  5
2A25
  8
0
 10
94.8640000000100088
 20
104.4189999999999969
 30
0.0
 11
85.1360000000100001
 21
104.4189999999999969
 31
0.0
  0
LINE
  5
2A26
  8
0
 10
94.2830000000100057
 20
105.0
 30
0.0
 11
85.7170000000100032
 21
105.0
 31
0.0
  0
CIRCLE
  5
2A2D
  8
0
 10
50.0000000000100613
 20
135.0
 30
0.0
 40
6.0
  0
POLYLINE
  5
2A2E
  8
0
 66
     1
 10
0.0
 20
0.0
 30
0.0
  0
VERTEX
  5
2ACD
  8
0
 10
96.0000000000513865
 20
91.999999999965155
 30
0.0
  0
VERTEX
  5
2ACE
  8
0
 10
95.9999549320068439
 20
92.0004739136714846
 30
0.0
  0
VERTEX
  5
2ACF
  8
0
 10
95.9999100143393775
 20
92.0010273336081639
 30
0.0
  0
VERTEX
  5
2AD0
  8
0
 10
95.9998653974260066
 20
92.0017397660056133
 30
0.0
  0
VERTEX
  5
2AD1
  8
0
 10
95.9998212316438639
 20
92.0026907170941968
 30
0.0
  0
VERTEX
  5
2AD2
  8
0
 10
95.9997776673699832
 20
92.0039596931043349
 30
0.0
  0
VERTEX
  5
2AD3
  8
0
 10
95.9997353851308617
 20
92.0056138574047395
 30
0.0
  0
VERTEX
  5
2AD4
  8
0
 10
95.9996979372477171
 20
92.0076535126504638
 30
0.0
  0
VERTEX
  5
2AD5
  8
0
 10
95.9996698439329066
 20
92.0100564271989754
 30
0.0
  0
VERTEX
  5
2AD6
  8
0
 10
95.9996556261378373
 20
92.0128003521956259
 30
0.0
  0
VERTEX
  5
2AD7
  8
0
 10
95.9996598048140868
 20
92.0158630387857386
 30
0.0
  0
VERTEX
  5
2AD8
  8
0
 10
95.9996860030202441
 20
92.0192246076325944
 30
0.0
  0
VERTEX
  5
2AD9
  8
0
 10
95.9997317073675731
 20
92.0228813733375546
 30
0.0
  0
VERTEX
  5
2ADA
  8
0
 10
95.9997918380872193
 20
92.0268364231172455
 30
0.0
  0
VERTEX
  5
2ADB
  8
0
 10
95.9998613067635347
 20
92.0310928670072741
 30
0.0
  0
VERTEX
  5
2ADC
  8
0
 10
95.999935024980843
 20
92.0356538150433607
 30
0.0
  0
VERTEX
  5
2ADD
  8
0
 10
96.0000080274194829
 20
92.0405215542512849
 30
0.0
  0
VERTEX
  5
2ADE
  8
0
 10
96.0000765219728578
 20
92.0456905276431598
 30
0.0
  0
VERTEX
  5
2ADF
  8
0
 10
96.0001373666747639
 20
92.0511508314443887
 30
0.0
  0
VERTEX
  5
2AE0
  8
0
 10
96.0001874264700632
 20
92.0568925156725442
 30
0.0
  0
VERTEX
  5
2AE1
  8
0
 10
96.0002235663037027
 20
92.0629056303451705
 30
0.0
  0
VERTEX
  5
2AE2
  8
0
 10
96.0002428094427529
 20
92.0691806135420308
 30
0.0
  0
VERTEX
  5
2AE3
  8
0
 10
96.0002451474167628
 20
92.0757151788267834
 30
0.0
  0
VERTEX
  5
2AE4
  8
0
 10
96.0002332081740661
 20
92.0825135018674672
 30
0.0
  0
VERTEX
  5
2AE5
  8
0
 10
96.0002097113237483
 20
92.0895799830014425
 30
0.0
  0
VERTEX
  5
2AE6
  8
0
 10
96.000177376475051
 20
92.0969190225660412
 30
0.0
  0
VERTEX
  5
2AE7
  8
0
 10
96.0001389232371451
 20
92.104535020898652
 30
0.0
  0
VERTEX
  5
2AE8
  8
0
 10
96.0000970712192156
 20
92.1124323783366066
 30
0.0
  0
VERTEX
  5
2AE9
  8
0
 10
96.0000545400304759
 20
92.1206154952172938
 30
0.0
  0
VERTEX
  5
2AEA
  8
0
 10
96.0000140492800256
 20
92.1290887718780453
 30
0.0
  0
VERTEX
  5
2AEB
  8
0
 10
95.9999783185771065
 20
92.13785660865625
 30
0.0
  0
VERTEX
  5
2AEC
  8
0
 10
95.9999500218978028
 20
92.1469229820043267
 30
0.0
  0
VERTEX
  5
2AED
  8
0
 10
95.9999302886375858
 20
92.1562775208215612
 30
0.0
  0
VERTEX
  5
2AEE
  8
0
 10
95.9999183651906947
 20
92.1658923628730804
 30
0.0
  0
VERTEX
  5
2AEF
  8
0
 10
95.9999133838001626
 20
92.175738585577335
 30
0.0
  0
VERTEX
  5
2AF0
  8
0
 10
95.9999144767088666
 20
92.1857872663526763
 30
0.0
  0
VERTEX
  5
2AF1
  8
0
 10
95.9999207761597404
 20
92.1960094826175549
 30
0.0
  0
VERTEX
  5
2AF2
  8
0
 10
95.99993141439586
 20
92.2063763117904358
 30
0.0
  0
VERTEX
  5
2AF3
  8
0
 10
95.9999455236600738
 20
92.2168588312895992
 30
0.0
  0
VERTEX
  5
2AF4
  8
0
 10
95.9999622361954579
 20
92.2274281185335951
 30
0.0
  0
VERTEX
  5
2AF5
  8
0
 10
95.9999806842449175
 20
92.2380552509407323
 30
0.0
  0
VERTEX
  5
2AF6
  8
0
 10
96.0000000000513865
 20
92.2487113059294757
 30
0.0
  0
SEQEND
  5
2AF7
  8
0
  0
POLYLINE
  5
2A2F
  8
0
 66
     1
 10
0.0
 20
0.0
 30
0.0
  0
VERTEX
  5
2AF8
  8
0
 10
84.0000000000513865
 20
96.9999999999653255
 30
0.0
  0
VERTEX
  5
2AF9
  8
0
 10
84.0000450680958011
 20
96.9995260862589532
 30
0.0
  0
VERTEX
  5
2AFA
  8
0
 10
84.0000899857631538
 20
96.9989726663222314
 30
0.0
  0
VERTEX
  5
2AFB
  8
0
 10
84.0001346026763827
 20
96.9982602339247251
 30
0.0
  0
VERTEX
  5
2AFC
  8
0
 10
84.0001787684583974
 20
96.9973092828360848
 30
0.0
  0
VERTEX
  5
2AFD
  8
0
 10
84.0002223327320934
 20
96.9960403068259325
 30
0.0
  0
VERTEX
  5
2AFE
  8
0
 10
84.0002646149710444
 20
96.9943861425254141
 30
0.0
  0
VERTEX
  5
2AFF
  8
0
 10
84.0003020628539616
 20
96.992346487279633
 30
0.0
  0
VERTEX
  5
2B00
  8
0
 10
84.0003301561686158
 20
96.9899435727310646
 30
0.0
  0
VERTEX
  5
2B01
  8
0
 10
84.0003443739634577
 20
96.987199647734343
 30
0.0
  0
VERTEX
  5
2B02
  8
0
 10
84.0003401952869808
 20
96.9841369611441735
 30
0.0
  0
VERTEX
  5
2B03
  8
0
 10
84.0003139970806387
 20
96.9807753922972751
 30
0.0
  0
VERTEX
  5
2B04
  8
0
 10
84.0002682927331961
 20
96.9771186265922438
 30
0.0
  0
VERTEX
  5
2B05
  8
0
 10
84.0002081620135073
 20
96.973163576812567
 30
0.0
  0
VERTEX
  5
2B06
  8
0
 10
84.0001386933371919
 20
96.9689071329225243
 30
0.0
  0
VERTEX
  5
2B07
  8
0
 10
84.0000649751199262
 20
96.9643461848864661
 30
0.0
  0
VERTEX
  5
2B08
  8
0
 10
83.9999919726815847
 20
96.9594784456786272
 30
0.0
  0
VERTEX
  5
2B09
  8
0
 10
83.999923478128494
 20
96.9543094722868375
 30
0.0
  0
VERTEX
  5
2B0A
  8
0
 10
83.9998626334269716
 20
96.9488491684856939
 30
0.0
  0
VERTEX
  5
2B0B
  8
0
 10
83.9998125736320844
 20
96.9431074842576521
 30
0.0
  0
VERTEX
  5
2B0C
  8
0
 10
83.9997764337988855
 20
96.9370943695851679
 30
0.0
  0
VERTEX
  5
2B0D
  8
0
 10
83.9997571906601479
 20
96.9308193863884213
 30
0.0
  0
VERTEX
  5
2B0E
  8
0
 10
83.9997548526864648
 20
96.924284821103754
 30
0.0
  0
VERTEX
  5
2B0F
  8
0
 10
83.9997667919294457
 20
96.9174864980631696
 30
0.0
  0
VERTEX
  5
2B10
  8
0
 10
83.9997902887800478
 20
96.9104200169292653
 30
0.0
  0
VERTEX
  5
2B11
  8
0
 10
83.9998226236289725
 20
96.9030809773647093
 30
0.0
  0
VERTEX
  5
2B12
  8
0
 10
83.9998610768670346
 20
96.8954649790321554
 30
0.0
  0
VERTEX
  5
2B13
  8
0
 10
83.9999029288850352
 20
96.887567621594215
 30
0.0
  0
VERTEX
  5
2B14
  8
0
 10
83.9999454600738886
 20
96.8793845047135278
 30
0.0
  0
VERTEX
  5
2B15
  8
0
 10
83.9999859508243958
 20
96.8709112280527762
 30
0.0
  0
VERTEX
  5
2B16
  8
0
 10
84.0000216815272864
 20
96.8621433912745857
 30
0.0
  0
VERTEX
  5
2B17
  8
0
 10
84.0000499782066754
 20
96.8530770179264664
 30
0.0
  0
VERTEX
  5
2B18
  8
0
 10
84.0000697114668355
 20
96.8437224791092035
 30
0.0
  0
VERTEX
  5
2B19
  8
0
 10
84.000081634913613
 20
96.8341076370576559
 30
0.0
  0
VERTEX
  5
2B1A
  8
0
 10
84.0000866163040314
 20
96.8242614143533729
 30
0.0
  0
VERTEX
  5
2B1B
  8
0
 10
84.0000855233951711
 20
96.8142127335779747
 30
0.0
  0
VERTEX
  5
2B1C
  8
0
 10
84.0000792239441125
 20
96.8039905173130251
 30
0.0
  0
VERTEX
  5
2B1D
  8
0
 10
84.0000685857078082
 20
96.7936236881401442
 30
0.0
  0
VERTEX
  5
2B1E
  8
0
 10
84.000054476443367
 20
96.783141168640924
 30
0.0
  0
VERTEX
  5
2B1F
  8
0
 10
84.0000377639077556
 20
96.7725718813969138
 30
0.0
  0
VERTEX
  5
2B20
  8
0
 10
84.0000193158581396
 20
96.7619447489897482
 30
0.0
  0
VERTEX
  5
2B21
  8
0
 10
84.0000000000514433
 20
96.7512886940010048
 30
0.0
  0
SEQEND
  5
2B22
  8
0
  0
POLYLINE
  5
2A30
  8
0
 66
     1
 10
0.0
 20
0.0
 30
0.0
  0
VERTEX
  5
2B23
  8
0
 10
84.0000000000513865
 20
92.2487113059294757
 30
0.0
  0
VERTEX
  5
2B24
  8
0
 10
84.0000142556228298
 20
92.2360079657292147
 30
0.0
  0
VERTEX
  5
2B25
  8
0
 10
84.0000280639199985
 20
92.2233697091856754
 30
0.0
  0
VERTEX
  5
2B26
  8
0
 10
84.0000409776688457
 20
92.2108616199556081
 30
0.0
  0
VERTEX
  5
2B27
  8
0
 10
84.0000525495950683
 20
92.1985487816957487
 30
0.0
  0
VERTEX
  5
2B28
  8
0
 10
84.0000623324245339
 20
92.1864962780628616
 30
0.0
  0
VERTEX
  5
2B29
  8
0
 10
84.0000698788576869
 20
92.1747691909120164
 30
0.0
  0
VERTEX
  5
2B2A
  8
0
 10
84.0000745440590748
 20
92.1634185318558394
 30
0.0
  0
VERTEX
  5
2B2B
  8
0
 10
84.000075009024215
 20
92.152447292275113
 30
0.0
  0
VERTEX
  5
2B2C
  8
0
 10
84.0000698110493431
 20
92.1418482280430453
 30
0.0
  0
VERTEX
  5
2B2D
  8
0
 10
84.0000574874309649
 20
92.1316140950327735
 30
0.0
  0
VERTEX
  5
2B2E
  8
0
 10
84.000036575465387
 20
92.121737649117577
 30
0.0
  0
VERTEX
  5
2B2F
  8
0
 10
84.000005634123454
 20
92.1122116650503244
 30
0.0
  0
VERTEX
  5
2B30
  8
0
 10
83.9999658608843447
 20
92.1030312158839024
 30
0.0
  0
VERTEX
  5
2B31
  8
0
 10
83.9999235861803868
 20
92.0941958457826786
 30
0.0
  0
VERTEX
  5
2B32
  8
0
 10
83.9998857313860867
 20
92.0857056136573675
 30
0.0
  0
VERTEX
  5
2B33
  8
0
 10
83.9998592178760077
 20
92.0775605784187121
 30
0.0
  0
VERTEX
  5
2B34
  8
0
 10
83.9998509670246989
 20
92.0697607989774269
 30
0.0
  0
VERTEX
  5
2B35
  8
0
 10
83.9998675727889434
 20
92.062306925580117
 30
0.0
  0
VERTEX
  5
2B36
  8
0
 10
83.9999091204248316
 20
92.0552113635737044
 30
0.0
  0
VERTEX
  5
2B37
  8
0
 10
83.9999697081768204
 20
92.0484973312034924
 30
0.0
  0
VERTEX
  5
2B38
  8
0
 10
84.0000432114379549
 20
92.0421884491979085
 30
0.0
  0
VERTEX
  5
2B39
  8
0
 10
84.0001235056011666
 20
92.0363083382852949
 30
0.0
  0
VERTEX
  5
2B3A
  8
0
 10
84.0002044660594152
 20
92.0308806191940647
 30
0.0
  0
VERTEX
  5
2B3B
  8
0
 10
84.0002799682057457
 20
92.0259289126526312
 30
0.0
  0
VERTEX
  5
2B3C
  8
0
 10
84.0003438874331891
 20
92.0214768393893223
 30
0.0
  0
VERTEX
  5
2B3D
  8
0
 10
84.0003900991346768
 20
92.0175480201325797
 30
0.0
  0
VERTEX
  5
2B3E
  8
0
 10
84.0004130500474275
 20
92.0141605798029616
 30
0.0
  0
VERTEX
  5
2B3F
  8
0
 10
84.0004126245108864
 20
92.0112803385663085
 30
0.0
  0
VERTEX
  5
2B40
  8
0
 10
84.0003917166891938
 20
92.0088441648324533
 30
0.0
  0
VERTEX
  5
2B41
  8
0
 10
84.0003532526230288
 20
92.0067886203866721
 30
0.0
  0
VERTEX
  5
2B42
  8
0
 10
84.000300158353113
 20
92.0050502670142833
 30
0.0
  0
VERTEX
  5
2B43
  8
0
 10
84.000235359920282
 20
92.0035656665006343
 30
0.0
  0
VERTEX
  5
2B44
  8
0
 10
84.000161783365229
 20
92.0022713806310151
 30
0.0
  0
VERTEX
  5
2B45
  8
0
 10
84.0000823547286473
 20
92.0011039711907443
 30
0.0
  0
VERTEX
  5
2B46
  8
0
 10
84.0000000000513865
 20
91.999999999965155
 30
0.0
  0
SEQEND
  5
2B47
  8
0
  0
POLYLINE
  5
2A31
  8
0
 66
     1
 10
0.0
 20
0.0
 30
0.0
  0
VERTEX
  5
2B48
  8
0
 10
96.0000000000513865
 20
96.7512886940010048
 30
0.0
  0
VERTEX
  5
2B49
  8
0
 10
95.9999857444799858
 20
96.7639920342012658
 30
0.0
  0
VERTEX
  5
2B4A
  8
0
 10
95.9999719361827744
 20
96.7766302907447766
 30
0.0
  0
VERTEX
  5
2B4B
  8
0
 10
95.999959022433913
 20
96.7891383799748155
 30
0.0
  0
VERTEX
  5
2B4C
  8
0
 10
95.9999474505077046
 20
96.8014512182346465
 30
0.0
  0
VERTEX
  5
2B4D
  8
0
 10
95.9999376676782958
 20
96.8135037218675052
 30
0.0
  0
VERTEX
  5
2B4E
  8
0
 10
95.9999301212451854
 20
96.8252308090183362
 30
0.0
  0
VERTEX
  5
2B4F
  8
0
 10
95.9999254560437834
 20
96.8365814680744847
 30
0.0
  0
VERTEX
  5
2B50
  8
0
 10
95.9999249910787285
 20
96.847552707655197
 30
0.0
  0
VERTEX
  5
2B51
  8
0
 10
95.9999301890536003
 20
96.8581517718872647
 30
0.0
  0
VERTEX
  5
2B52
  8
0
 10
95.9999425126719643
 20
96.8683859048974938
 30
0.0
  0
VERTEX
  5
2B53
  8
0
 10
95.9999634246375422
 20
96.8782623508126903
 30
0.0
  0
VERTEX
  5
2B54
  8
0
 10
95.9999943659794894
 20
96.8877883348799571
 30
0.0
  0
VERTEX
  5
2B55
  8
0
 10
96.0000341392186129
 20
96.8969687840463934
 30
0.0
  0
VERTEX
  5
2B56
  8
0
 10
96.0000764139225566
 20
96.905804154147603
 30
0.0
  0
VERTEX
  5
2B57
  8
0
 10
96.0001142687168141
 20
96.9142943862729283
 30
0.0
  0
VERTEX
  5
2B58
  8
0
 10
96.0001407822268789
 20
96.9224394215116121
 30
0.0
  0
VERTEX
  5
2B59
  8
0
 10
96.0001490330781166
 20
96.9302392009529257
 30
0.0
  0
VERTEX
  5
2B5A
  8
0
 10
96.0001324273138721
 20
96.9376930743502356
 30
0.0
  0
VERTEX
  5
2B5B
  8
0
 10
96.0000908796779413
 20
96.9447886363566766
 30
0.0
  0
VERTEX
  5
2B5C
  8
0
 10
96.0000302919259525
 20
96.9515026687269028
 30
0.0
  0
VERTEX
  5
2B5D
  8
0
 10
95.9999567886648038
 20
96.9578115507325151
 30
0.0
  0
VERTEX
  5
2B5E
  8
0
 10
95.9998764945016063
 20
96.963691661645143
 30
0.0
  0
VERTEX
  5
2B5F
  8
0
 10
95.9997955340432867
 20
96.9691193807364016
 30
0.0
  0
VERTEX
  5
2B60
  8
0
 10
95.9997200318969561
 20
96.9740710872778493
 30
0.0
  0
VERTEX
  5
2B61
  8
0
 10
95.9996561126695269
 20
96.9785231605411724
 30
0.0
  0
VERTEX
  5
2B62
  8
0
 10
95.9996099009679824
 20
96.982451979797915
 30
0.0
  0
VERTEX
  5
2B63
  8
0
 10
95.9995869500552459
 20
96.9858394201275473
 30
0.0
  0
VERTEX
  5
2B64
  8
0
 10
95.9995873755917728
 20
96.988719661364172
 30
0.0
  0
VERTEX
  5
2B65
  8
0
 10
95.9996082834134654
 20
96.9911558350980414
 30
0.0
  0
VERTEX
  5
2B66
  8
0
 10
95.9996467474796447
 20
96.9932113795438369
 30
0.0
  0
VERTEX
  5
2B67
  8
0
 10
95.9996998417495178
 20
96.9949497329162114
 30
0.0
  0
VERTEX
  5
2B68
  8
0
 10
95.9997646401824341
 20
96.9964343334298604
 30
0.0
  0
VERTEX
  5
2B69
  8
0
 10
95.9998382167374871
 20
96.9977286192994939
 30
0.0
  0
VERTEX
  5
2B6A
  8
0
 10
95.9999176453740546
 20
96.9988960287397362
 30
0.0
  0
VERTEX
  5
2B6B
  8
0
 10
96.0000000000513865
 20
96.9999999999653255
 30
0.0
  0
SEQEND
  5
2B6C
  8
0
  0
POLYLINE
  5
2A32
  8
0
 66
     1
 10
0.0
 20
0.0
 30
0.0
  0
VERTEX
  5
2B6D
  8
0
 10
87.0000000000513865
 20
96.9999999999653255
 30
0.0
  0
VERTEX
  5
2B6E
  8
0
 10
87.0734371490309371
 20
96.9995264585804051
 30
0.0
  0
VERTEX
  5
2B6F
  8
0
 10
87.1468732601207989
 20
96.9989734615918735
 30
0.0
  0
VERTEX
  5
2B70
  8
0
 10
87.2203072954314393
 20
96.9982615533961052
 30
0.0
  0
VERTEX
  5
2B71
  8
0
 10
87.2937382170730274
 20
96.9973112783895033
 30
0.0
  0
VERTEX
  5
2B72
  8
0
 10
87.3671649871560589
 20
96.996043180968428
 30
0.0
  0
VERTEX
  5
2B73
  8
0
 10
87.4405862888450542
 20
96.9943901105448845
 30
0.0
  0
VERTEX
  5
2B74
  8
0
 10
87.5139992913479432
 20
96.9923517010712857
 30
0.0
  0
VERTEX
  5
2B75
  8
0
 10
87.5874006526732956
 20
96.9899501368182939
 30
0.0
  0
VERTEX
  5
2B76
  8
0
 10
87.6607870304326156
 20
96.9872076195789958
 30
0.0
  0
VERTEX
  5
2B77
  8
0
 10
87.7341550822371943
 20
96.9841463511464781
 30
0.0
  0
VERTEX
  5
2B78
  8
0
 10
87.8075019164119794
 20
96.9807861692958824
 30
0.0
  0
VERTEX
  5
2B79
  8
0
 10
87.8808277261003354
 20
96.9771307317493836
 30
0.0
  0
VERTEX
  5
2B7A
  8
0
 10
87.9541339962721622
 20
96.9731769205255034
 30
0.0
  0
VERTEX
  5
2B7B
  8
0
 10
88.0274222162796605
 20
96.9689215946568623
 30
0.0
  0
VERTEX
  5
2B7C
  8
0
 10
88.100693875474974
 20
96.964361613176095
 30
0.0
  0
VERTEX
  5
2B7D
  8
0
 10
88.173950468602186
 20
96.9594946614330695
 30
0.0
  0
VERTEX
  5
2B7E
  8
0
 10
88.247193541699616
 20
96.9543262856870314
 30
0.0
  0
VERTEX
  5
2B7F
  8
0
 10
88.3204246691882418
 20
96.9488663819076066
 30
0.0
  0
VERTEX
  5
2B80
  8
0
 10
88.3936454257893729
 20
96.9431248920811441
 30
0.0
  0
VERTEX
  5
2B81
  8
0
 10
88.4668573862243051
 20
96.9371117581941064
 30
0.0
  0
VERTEX
  5
2B82
  8
0
 10
88.5400620078725638
 20
96.9308365300767463
 30
0.0
  0
VERTEX
  5
2B83
  8
0
 10
88.6132585710210066
 20
96.9243014817286053
 30
0.0
  0
VERTEX
  5
2B84
  8
0
 10
88.6864444344694789
 20
96.9175024655493047
 30
0.0
  0
VERTEX
  5
2B85
  8
0
 10
88.7596168910470169
 20
96.9104351134643451
 30
0.0
  0
VERTEX
  5
2B86
  8
0
 10
88.8327732335825999
 20
96.9030950573992982
 30
0.0
  0
VERTEX
  5
2B87
  8
0
 10
88.9059107549051646
 20
96.8954779292796644
 30
0.0
  0
VERTEX
  5
2B88
  8
0
 10
88.9790267478437613
 20
96.8875793610309728
 30
0.0
  0
VERTEX
  5
2B89
  8
0
 10
89.0521185052273268
 20
96.8793949845787239
 30
0.0
  0
VERTEX
  5
2B8A
  8
0
 10
89.1251833198849255
 20
96.8709204318484467
 30
0.0
  0
VERTEX
  5
2B8B
  8
0
 10
89.1982184846454516
 20
96.8621513347656844
 30
0.0
  0
VERTEX
  5
2B8C
  8
0
 10
89.2712213694629781
 20
96.8530837559149091
 30
0.0
  0
VERTEX
  5
2B8D
  8
0
 10
89.3441919196895924
 20
96.8437281386587188
 30
0.0
  0
VERTEX
  5
2B8E
  8
0
 10
89.4171332002842547
 20
96.8341123459493076
 30
0.0
  0
VERTEX
  5
2B8F
  8
0
 10
89.4900484634282947
 20
96.8242652861703732
 30
0.0
  0
VERTEX
  5
2B90
  8
0
 10
89.5629409613031271
 20
96.8142158677056131
 30
0.0
  0
VERTEX
  5
2B91
  8
0
 10
89.6358139460899679
 20
96.8039929989386678
 30
0.0
  0
VERTEX
  5
2B92
  8
0
 10
89.7086706699702034
 20
96.7936255882532777
 30
0.0
  0
VERTEX
  5
2B93
  8
0
 10
89.7815143851251491
 20
96.7831425440331259
 30
0.0
  0
VERTEX
  5
2B94
  8
0
 10
89.8543483437360919
 20
96.77257277466191
 30
0.0
  0
VERTEX
  5
2B95
  8
0
 10
89.9271757979843755
 20
96.7619451885232991
 30
0.0
  0
VERTEX
  5
2B96
  8
0
 10
90.0000000000513865
 20
96.7512886940010048
 30
0.0
  0
SEQEND
  5
2B97
  8
0
  0
POLYLINE
  5
2A33
  8
0
 66
     1
 10
0.0
 20
0.0
 30
0.0
  0
VERTEX
  5
2B98
  8
0
 10
84.0000000000513865
 20
96.7512886940010048
 30
0.0
  0
VERTEX
  5
2B99
  8
0
 10
84.0852993643629247
 20
96.7639899966622181
 30
0.0
  0
VERTEX
  5
2B9A
  8
0
 10
84.1706052789257768
 20
96.7766264466045811
 30
0.0
  0
VERTEX
  5
2B9B
  8
0
 10
84.2559242939911996
 20
96.7891331911093147
 30
0.0
  0
VERTEX
  5
2B9C
  8
0
 10
84.341262959810436
 20
96.8014453774575259
 30
0.0
  0
VERTEX
  5
2B9D
  8
0
 10
84.4266278266347285
 20
96.8134981529303928
 30
0.0
  0
VERTEX
  5
2B9E
  8
0
 10
84.5120254446802619
 20
96.8252266650741973
 30
0.0
  0
VERTEX
  5
2B9F
  8
0
 10
84.5974606335793169
 20
96.8365791109588798
 30
0.0
  0
VERTEX
  5
2BA0
  8
0
 10
84.6829318488396439
 20
96.8475516765412578
 30
0.0
  0
VERTEX
  5
2BA1
  8
0
 10
84.7684360834039694
 20
96.8581515762979706
 30
0.0
  0
VERTEX
  5
2BA2
  8
0
 10
84.8539703302149633
 20
96.868386024705643
 30
0.0
  0
VERTEX
  5
2BA3
  8
0
 10
84.9395315822152952
 20
96.8782622362409143
 30
0.0
  0
VERTEX
  5
2BA4
  8
0
 10
85.0251168407385052
 20
96.8877874156097079
 30
0.0
  0
VERTEX
  5
2BA5
  8
0
 10
85.1107248822344644
 20
96.896966700477293
 30
0.0
  0
VERTEX
  5
2BA6
  8
0
 10
85.1963584418353435
 20
96.9058006188076035
 30
0.0
  0
VERTEX
  5
2BA7
  8
0
 10
85.2820207900243048
 20
96.9142890751729738
 30
0.0
  0
VERTEX
  5
2BA8
  8
0
 10
85.3677151972846531
 20
96.9224319741458658
 30
0.0
  0
VERTEX
  5
2BA9
  8
0
 10
85.4534449340996503
 20
96.9302292202986848
 30
0.0
  0
VERTEX
  5
2BAA
  8
0
 10
85.5392131475187938
 20
96.9376803391747757
 30
0.0
  0
VERTEX
  5
2BAB
  8
0
 10
85.6250195070184077
 20
96.9447741776930343
 30
0.0
  0
VERTEX
  5
2BAC
  8
0
 10
85.710859807717668
 20
96.9514876857400765
 30
0.0
  0
VERTEX
  5
2BAD
  8
0
 10
85.7967296416550056
 20
96.9577971895999013
 30
0.0
  0
VERTEX
  5
2BAE
  8
0
 10
85.882624600868894
 20
96.9636790155565365
 30
0.0
  0
VERTEX
  5
2BAF
  8
0
 10
85.9685402773977074
 20
96.9691094898940094
 30
0.0
  0
VERTEX
  5
2BB0
  8
0
 10
86.0544722632799903
 20
96.9740649388963334
 30
0.0
  0
VERTEX
  5
2BB1
  8
0
 10
86.1404161505540742
 20
96.9785216888475361
 30
0.0
  0
VERTEX
  5
2BB2
  8
0
 10
86.2263675312584041
 20
96.982456066031645
 30
0.0
  0
VERTEX
  5
2BB3
  8
0
 10
86.3123222249852802
 20
96.9858491181425819
 30
0.0
  0
VERTEX
  5
2BB4
  8
0
 10
86.398278510950945
 20
96.9887329264797415
 30
0.0
  0
VERTEX
  5
2BB5
  8
0
 10
86.4842361712836691
 20
96.9911707555731653
 30
0.0
  0
VERTEX
  5
2BB6
  8
0
 10
86.5701950096452606
 20
96.9932263167433746
 30
0.0
  0
VERTEX
  5
2BB7
  8
0
 10
86.6561548296975843
 20
96.9949633213109479
 30
0.0
  0
VERTEX
  5
2BB8
  8
0
 10
86.7421154351025052
 20
96.9964454805963925
 30
0.0
  0
VERTEX
  5
2BB9
  8
0
 10
86.8280766295218456
 20
96.9977365059202441
 30
0.0
  0
VERTEX
  5
2BBA
  8
0
 10
86.9140382166175414
 20
96.9989001086030385
 30
0.0
  0
VERTEX
  5
2BBB
  8
0
 10
87.0000000000513154
 20
96.9999999999653255
 30
0.0
  0
SEQEND
  5
2BBC
  8
0
  0
POLYLINE
  5
2A34
  8
0
 66
     1
 10
0.0
 20
0.0
 30
0.0
  0
VERTEX
  5
2BBD
  8
0
 10
87.0000000000513865
 20
91.999999999965155
 30
0.0
  0
VERTEX
  5
2BBE
  8
0
 10
86.926609499141648
 20
92.0004735413500754
 30
0.0
  0
VERTEX
  5
2BBF
  8
0
 10
86.8532200449310494
 20
92.001026538338607
 30
0.0
  0
VERTEX
  5
2BC0
  8
0
 10
86.7798326841185457
 20
92.0017384465344037
 30
0.0
  0
VERTEX
  5
2BC1
  8
0
 10
86.7064484634033192
 20
92.0026887215410341
 30
0.0
  0
VERTEX
  5
2BC2
  8
0
 10
86.6330684294843536
 20
92.0039568189621804
 30
0.0
  0
VERTEX
  5
2BC3
  8
0
 10
86.5596933375759363
 20
92.005609889385795
 30
0.0
  0
VERTEX
  5
2BC4
  8
0
 10
86.4863223608806067
 20
92.0076482988594648
 30
0.0
  0
VERTEX
  5
2BC5
  8
0
 10
86.4129541384223785
 20
92.0100498631125561
 30
0.0
  0
VERTEX
  5
2BC6
  8
0
 10
86.3395873088100956
 20
92.0127923803519252
 30
0.0
  0
VERTEX
  5
2BC7
  8
0
 10
86.2662205106527153
 20
92.0158536487844856
 30
0.0
  0
VERTEX
  5
2BC8
  8
0
 10
86.1928528352032544
 20
92.0192138306351239
 30
0.0
  0
VERTEX
  5
2BC9
  8
0
 10
86.1194864717477913
 20
92.0228692681816653
 30
0.0
  0
VERTEX
  5
2BCA
  8
0
 10
86.0461249069324481
 20
92.0268230794055455
 30
0.0
  0
VERTEX
  5
2BCB
  8
0
 10
85.9727716318043917
 20
92.0310784052741724
 30
0.0
  0
VERTEX
  5
2BCC
  8
0
 10
85.8994301374108886
 20
92.0356383867548971
 30
0.0
  0
VERTEX
  5
2BCD
  8
0
 10
85.8261037892979743
 20
92.0405053384978373
 30
0.0
  0
VERTEX
  5
2BCE
  8
0
 10
85.7527947590949537
 20
92.045673714243776
 30
0.0
  0
VERTEX
  5
2BCF
  8
0
 10
85.6795045577961787
 20
92.0511336180230728
 30
0.0
  0
VERTEX
  5
2BD0
  8
0
 10
85.6062346894070174
 20
92.056875107849379
 30
0.0
  0
VERTEX
  5
2BD1
  8
0
 10
85.5329866579327813
 20
92.062888241736303
 30
0.0
  0
VERTEX
  5
2BD2
  8
0
 10
85.4597619293279536
 20
92.0691634698535637
 30
0.0
  0
VERTEX
  5
2BD3
  8
0
 10
85.386561263575345
 20
92.0756985182016194
 30
0.0
  0
VERTEX
  5
2BD4
  8
0
 10
85.3133847975717003
 20
92.0824975343808347
 30
0.0
  0
VERTEX
  5
2BD5
  8
0
 10
85.2402326468213118
 20
92.0895648864656948
 30
0.0
  0
VERTEX
  5
2BD6
  8
0
 10
85.1671049268283156
 20
92.0969049425306991
 30
0.0
  0
VERTEX
  5
2BD7
  8
0
 10
85.0940017530970181
 20
92.1045220706503045
 30
0.0
  0
VERTEX
  5
2BD8
  8
0
 10
85.0209232411316407
 20
92.1124206388989535
 30
0.0
  0
VERTEX
  5
2BD9
  8
0
 10
84.9478695064364047
 20
92.1206050153512024
 30
0.0
  0
VERTEX
  5
2BDA
  8
0
 10
84.8748406645156024
 20
92.1290795680814654
 30
0.0
  0
VERTEX
  5
2BDB
  8
0
 10
84.8018368308733557
 20
92.1378486651642561
 30
0.0
  0
VERTEX
  5
2BDC
  8
0
 10
84.7288580882524798
 20
92.1469162440150455
 30
0.0
  0
VERTEX
  5
2BDD
  8
0
 10
84.6559034254091074
 20
92.1562718612712644
 30
0.0
  0
VERTEX
  5
2BDE
  8
0
 10
84.5829705059414891
 20
92.1658876539807039
 30
0.0
  0
VERTEX
  5
2BDF
  8
0
 10
84.5100569139190156
 20
92.1757347137596952
 30
0.0
  0
VERTEX
  5
2BE0
  8
0
 10
84.4371602334110065
 20
92.185784132224498
 30
0.0
  0
VERTEX
  5
2BE1
  8
0
 10
84.364278048486895
 20
92.1960070009915
 30
0.0
  0
VERTEX
  5
2BE2
  8
0
 10
84.2914079432159724
 20
92.206374411676947
 30
0.0
  0
VERTEX
  5
2BE3
  8
0
 10
84.2185475016675582
 20
92.2168574558971557
 30
0.0
  0
VERTEX
  5
2BE4
  8
0
 10
84.1456943079110715
 20
92.2274272252684284
 30
0.0
  0
VERTEX
  5
2BE5
  8
0
 10
84.0728459460158888
 20
92.2380548114071104
 30
0.0
  0
VERTEX
  5
2BE6
  8
0
 10
84.0000000000513438
 20
92.2487113059294757
 30
0.0
  0
SEQEND
  5
2BE7
  8
0
  0
POLYLINE
  5
2A35
  8
0
 66
     1
 10
0.0
 20
0.0
 30
0.0
  0
VERTEX
  5
2BE8
  8
0
 10
90.0000000000513865
 20
92.2487113059294757
 30
0.0
  0
VERTEX
  5
2BE9
  8
0
 10
89.9147144777323888
 20
92.236010003268234
 30
0.0
  0
VERTEX
  5
2BEA
  8
0
 10
89.8294219100763485
 20
92.2233735533258425
 30
0.0
  0
VERTEX
  5
2BEB
  8
0
 10
89.7441152517459955
 20
92.2108668088211232
 30
0.0
  0
VERTEX
  5
2BEC
  8
0
 10
89.6587874574042445
 20
92.1985546224729262
 30
0.0
  0
VERTEX
  5
2BED
  8
0
 10
89.5734314817139392
 20
92.1865018470000734
 30
0.0
  0
VERTEX
  5
2BEE
  8
0
 10
89.4880402793698977
 20
92.1747733348562974
 30
0.0
  0
VERTEX
  5
2BEF
  8
0
 10
89.4026083755525178
 20
92.1634208889716433
 30
0.0
  0
VERTEX
  5
2BF0
  8
0
 10
89.3171360708147546
 20
92.1524483233892937
 30
0.0
  0
VERTEX
  5
2BF1
  8
0
 10
89.2316249929710921
 20
92.1418484236326094
 30
0.0
  0
VERTEX
  5
2BF2
  8
0
 10
89.1460767698360996
 20
92.1316139752249654
 30
0.0
  0
VERTEX
  5
2BF3
  8
0
 10
89.0604930292243466
 20
92.1217377636896941
 30
0.0
  0
VERTEX
  5
2BF4
  8
0
 10
88.9748754016675321
 20
92.1122125843209005
 30
0.0
  0
VERTEX
  5
2BF5
  8
0
 10
88.8892260925416053
 20
92.1030332994532728
 30
0.0
  0
VERTEX
  5
2BF6
  8
0
 10
88.8035485891805791
 20
92.094199381122948
 30
0.0
  0
VERTEX
  5
2BF7
  8
0
 10
88.7178465522835609
 20
92.0857109247575352
 30
0.0
  0
VERTEX
  5
2BF8
  8
0
 10
88.6321236425497432
 20
92.0775680257846147
 30
0.0
  0
VERTEX
  5
2BF9
  8
0
 10
88.5463835206783756
 20
92.0697707796317673
 30
0.0
  0
VERTEX
  5
2BFA
  8
0
 10
88.4606297598538163
 20
92.0623196607556338
 30
0.0
  0
VERTEX
  5
2BFB
  8
0
 10
88.3748634676506981
 20
92.0552258222373467
 30
0.0
  0
VERTEX
  5
2BFC
  8
0
 10
88.2890830047135751
 20
92.0485123141902903
 30
0.0
  0
VERTEX
  5
2BFD
  8
0
 10
88.2032865877018821
 20
92.042202810330437
 30
0.0
  0
VERTEX
  5
2BFE
  8
0
 10
88.1174724332751111
 20
92.0363209843737735
 30
0.0
  0
VERTEX
  5
2BFF
  8
0
 10
88.0316387580928676
 20
92.0308905100362864
 30
0.0
  0
VERTEX
  5
2C00
  8
0
 10
87.9457837788146435
 20
92.0259350610339482
 30
0.0
  0
VERTEX
  5
2C01
  8
0
 10
87.8599057120999305
 20
92.0214783110827312
 30
0.0
  0
VERTEX
  5
2C02
  8
0
 10
87.7740027746082632
 20
92.0175439338986365
 30
0.0
  0
VERTEX
  5
2C03
  8
0
 10
87.6880734486048965
 20
92.0141508817876854
 30
0.0
  0
VERTEX
  5
2C04
  8
0
 10
87.6021190872809825
 20
92.0112670734505684
 30
0.0
  0
VERTEX
  5
2C05
  8
0
 10
87.516142798058965
 20
92.0088292443571447
 30
0.0
  0
VERTEX
  5
2C06
  8
0
 10
87.4301477134957281
 20
92.0067736831869354
 30
0.0
  0
VERTEX
  5
2C07
  8
0
 10
87.3441369661480849
 20
92.0050366786194047
 30
0.0
  0
VERTEX
  5
2C08
  8
0
 10
87.258113688572962
 20
92.0035545193339885
 30
0.0
  0
VERTEX
  5
2C09
  8
0
 10
87.1720810133272153
 20
92.0022634940101511
 30
0.0
  0
VERTEX
  5
2C0A
  8
0
 10
87.0860420729677145
 20
92.0010998913273852
 30
0.0
  0
VERTEX
  5
2C0B
  8
0
 10
87.0000000000513865
 20
91.999999999965155
 30
0.0
  0
SEQEND
  5
2C0C
  8
0
  0
POLYLINE
  5
2A36
  8
0
 66
     1
 10
0.0
 20
0.0
 30
0.0
  0
VERTEX
  5
2C0D
  8
0
 10
93.0000000000513865
 20
96.9999999999653255
 30
0.0
  0
VERTEX
  5
2C0E
  8
0
 10
93.0733905009608833
 20
96.9995264585804478
 30
0.0
  0
VERTEX
  5
2C0F
  8
0
 10
93.1467799551713824
 20
96.998973461591973
 30
0.0
  0
VERTEX
  5
2C10
  8
0
 10
93.2201673159837014
 20
96.9982615533962473
 30
0.0
  0
VERTEX
  5
2C11
  8
0
 10
93.2935515366987147
 20
96.9973112783897164
 30
0.0
  0
VERTEX
  5
2C12
  8
0
 10
93.366931570617453
 20
96.996043180968698
 30
0.0
  0
VERTEX
  5
2C13
  8
0
 10
93.440306662525586
 20
96.9943901105452539
 30
0.0
  0
VERTEX
  5
2C14
  8
0
 10
93.5136776392206457
 20
96.9923517010717546
 30
0.0
  0
VERTEX
  5
2C15
  8
0
 10
93.5870458616785754
 20
96.9899501368188481
 30
0.0
  0
VERTEX
  5
2C16
  8
0
 10
93.6604126912905031
 20
96.9872076195796353
 30
0.0
  0
VERTEX
  5
2C17
  8
0
 10
93.7337794894476133
 20
96.9841463511472313
 30
0.0
  0
VERTEX
  5
2C18
  8
0
 10
93.8071471648968185
 20
96.9807861692967066
 30
0.0
  0
VERTEX
  5
2C19
  8
0
 10
93.8805135283520826
 20
96.9771307317502789
 30
0.0
  0
VERTEX
  5
2C1A
  8
0
 10
93.9538750931673263
 20
96.9731769205264413
 30
0.0
  0
VERTEX
  5
2C1B
  8
0
 10
94.0272283682953685
 20
96.9689215946578145
 30
0.0
  0
VERTEX
  5
2C1C
  8
0
 10
94.1005698626889853
 20
96.9643616131770045
 30
0.0
  0
VERTEX
  5
2C1D
  8
0
 10
94.1738962108022264
 20
96.9594946614338937
 30
0.0
  0
VERTEX
  5
2C1E
  8
0
 10
94.2472052410056875
 20
96.9543262856876851
 30
0.0
  0
VERTEX
  5
2C1F
  8
0
 10
94.3204954423049884
 20
96.9488663819080756
 30
0.0
  0
VERTEX
  5
2C20
  8
0
 10
94.3937653106947892
 20
96.9431248920814426
 30
0.0
  0
VERTEX
  5
2C21
  8
0
 10
94.4670133421696647
 20
96.9371117581941917
 30
0.0
  0
VERTEX
  5
2C22
  8
0
 10
94.5402380707750467
 20
96.9308365300766468
 30
0.0
  0
VERTEX
  5
2C23
  8
0
 10
94.6134387365281668
 20
96.9243014817283495
 30
0.0
  0
VERTEX
  5
2C24
  8
0
 10
94.6866152025321952
 20
96.9175024655489068
 30
0.0
  0
VERTEX
  5
2C25
  8
0
 10
94.7597673532829958
 20
96.910435113463862
 30
0.0
  0
VERTEX
  5
2C26
  8
0
 10
94.8328950732762337
 20
96.903095057398744
 30
0.0
  0
VERTEX
  5
2C27
  8
0
 10
94.9059982470078012
 20
96.8954779292790249
 30
0.0
  0
VERTEX
  5
2C28
  8
0
 10
94.9790767589733491
 20
96.8875793610302765
 30
0.0
  0
VERTEX
  5
2C29
  8
0
 10
95.0521304936686988
 20
96.8793949845780134
 30
0.0
  0
VERTEX
  5
2C2A
  8
0
 10
95.1251593355895579
 20
96.8709204318477077
 30
0.0
  0
VERTEX
  5
2C2B
  8
0
 10
95.1981631692318047
 20
96.8621513347649454
 30
0.0
  0
VERTEX
  5
2C2C
  8
0
 10
95.2711419118525669
 20
96.8530837559142128
 30
0.0
  0
VERTEX
  5
2C2D
  8
0
 10
95.344096574695854
 20
96.8437281386580651
 30
0.0
  0
VERTEX
  5
2C2E
  8
0
 10
95.4170294941633301
 20
96.8341123459487108
 30
0.0
  0
VERTEX
  5
2C2F
  8
0
 10
95.4899430861856331
 20
96.8242652861698048
 30
0.0
  0
VERTEX
  5
2C30
  8
0
 10
95.5628397666933864
 20
96.8142158677050872
 30
0.0
  0
VERTEX
  5
2C31
  8
0
 10
95.6357219516172989
 20
96.8039929989382415
 30
0.0
  0
VERTEX
  5
2C32
  8
0
 10
95.7085920568879942
 20
96.7936255882529224
 30
0.0
  0
VERTEX
  5
2C33
  8
0
 10
95.7814524984360531
 20
96.7831425440328843
 30
0.0
  0
VERTEX
  5
2C34
  8
0
 10
95.854305692192213
 20
96.7725727746617252
 30
0.0
  0
VERTEX
  5
2C35
  8
0
 10
95.9271540540870546
 20
96.7619451885232138
 30
0.0
  0
VERTEX
  5
2C36
  8
0
 10
96.0000000000512159
 20
96.7512886940010048
 30
0.0
  0
SEQEND
  5
2C37
  8
0
  0
POLYLINE
  5
2A37
  8
0
 66
     1
 10
0.0
 20
0.0
 30
0.0
  0
VERTEX
  5
2C38
  8
0
 10
90.0000000000513865
 20
96.7512886940010048
 30
0.0
  0
VERTEX
  5
2C39
  8
0
 10
90.0852855223702704
 20
96.7639899966622465
 30
0.0
  0
VERTEX
  5
2C3A
  8
0
 10
90.1705780900262539
 20
96.7766264466046522
 30
0.0
  0
VERTEX
  5
2C3B
  8
0
 10
90.255884748356479
 20
96.7891331911093573
 30
0.0
  0
VERTEX
  5
2C3C
  8
0
 10
90.3412125426981447
 20
96.8014453774576111
 30
0.0
  0
VERTEX
  5
2C3D
  8
0
 10
90.4265685183882653
 20
96.813498152930535
 30
0.0
  0
VERTEX
  5
2C3E
  8
0
 10
90.5119597207321362
 20
96.825226665074382
 30
0.0
  0
VERTEX
  5
2C3F
  8
0
 10
90.5973916245492887
 20
96.8365791109591356
 30
0.0
  0
VERTEX
  5
2C40
  8
0
 10
90.6828639292868957
 20
96.8475516765415847
 30
0.0
  0
VERTEX
  5
2C41
  8
0
 10
90.7683750071303734
 20
96.8581515762983543
 30
0.0
  0
VERTEX
  5
2C42
  8
0
 10
90.8539232302652522
 20
96.8683860247060835
 30
0.0
  0
VERTEX
  5
2C43
  8
0
 10
90.9395069708769483
 20
96.8782622362413974
 30
0.0
  0
VERTEX
  5
2C44
  8
0
 10
91.0251245984337629
 20
96.8877874156101626
 30
0.0
  0
VERTEX
  5
2C45
  8
0
 10
91.1107739075598033
 20
96.8969667004777335
 30
0.0
  0
VERTEX
  5
2C46
  8
0
 10
91.1964514109210569
 20
96.9058006188079446
 30
0.0
  0
VERTEX
  5
2C47
  8
0
 10
91.2821534478183452
 20
96.9142890751732295
 30
0.0
  0
VERTEX
  5
2C48
  8
0
 10
91.3678763575524471
 20
96.9224319741460079
 30
0.0
  0
VERTEX
  5
2C49
  8
0
 10
91.4536164794241699
 20
96.9302292202987132
 30
0.0
  0
VERTEX
  5
2C4A
  8
0
 10
91.5393702402490135
 20
96.9376803391747046
 30
0.0
  0
VERTEX
  5
2C4B
  8
0
 10
91.625136532452359
 20
96.944774177692878
 30
0.0
  0
VERTEX
  5
2C4C
  8
0
 10
91.7109169953897663
 20
96.9514876857398349
 30
0.0
  0
VERTEX
  5
2C4D
  8
0
 10
91.796713412401644
 20
96.9577971895995745
 30
0.0
  0
VERTEX
  5
2C4E
  8
0
 10
91.8825275668285144
 20
96.9636790155561812
 30
0.0
  0
VERTEX
  5
2C4F
  8
0
 10
91.9683612420108716
 20
96.9691094898935972
 30
0.0
  0
VERTEX
  5
2C50
  8
0
 10
92.0542162212892237
 20
96.9740649388959071
 30
0.0
  0
VERTEX
  5
2C51
  8
0
 10
92.1400942880039366
 20
96.9785216888471098
 30
0.0
  0
VERTEX
  5
2C52
  8
0
 10
92.2259972254955755
 20
96.9824560660312045
 30
0.0
  0
VERTEX
  5
2C53
  8
0
 10
92.3119265514989138
 20
96.9858491181421698
 30
0.0
  0
VERTEX
  5
2C54
  8
0
 10
92.3978809128227567
 20
96.9887329264793578
 30
0.0
  0
VERTEX
  5
2C55
  8
0
 10
92.4838572020446463
 20
96.9911707555728242
 30
0.0
  0
VERTEX
  5
2C56
  8
0
 10
92.5698522866077838
 20
96.9932263167431046
 30
0.0
  0
VERTEX
  5
2C57
  8
0
 10
92.6558630339552565
 20
96.9949633213107347
 30
0.0
  0
VERTEX
  5
2C58
  8
0
 10
92.7418863115302656
 20
96.9964454805962362
 30
0.0
  0
VERTEX
  5
2C59
  8
0
 10
92.8279189867758561
 20
96.9977365059201446
 30
0.0
  0
VERTEX
  5
2C5A
  8
0
 10
92.9139579271351863
 20
96.99890010860301
 30
0.0
  0
VERTEX
  5
2C5B
  8
0
 10
93.0000000000513865
 20
96.9999999999653255
 30
0.0
  0
SEQEND
  5
2C5C
  8
0
  0
POLYLINE
  5
2A38
  8
0
 66
     1
 10
0.0
 20
0.0
 30
0.0
  0
VERTEX
  5
2C5D
  8
0
 10
93.0000000000513865
 20
91.999999999965155
 30
0.0
  0
VERTEX
  5
2C5E
  8
0
 10
92.9265628510718358
 20
92.0004735413500043
 30
0.0
  0
VERTEX
  5
2C5F
  8
0
 10
92.8531267399819029
 20
92.0010265383385217
 30
0.0
  0
VERTEX
  5
2C60
  8
0
 10
92.7796927046713336
 20
92.0017384465342758
 30
0.0
  0
VERTEX
  5
2C61
  8
0
 10
92.7062617830296745
 20
92.0026887215409062
 30
0.0
  0
VERTEX
  5
2C62
  8
0
 10
92.632835012946714
 20
92.003956818962024
 30
0.0
  0
VERTEX
  5
2C63
  8
0
 10
92.5594137112576618
 20
92.0056098893855818
 30
0.0
  0
VERTEX
  5
2C64
  8
0
 10
92.4860007087547729
 20
92.007648298859209
 30
0.0
  0
VERTEX
  5
2C65
  8
0
 10
92.4125993474294205
 20
92.010049863112215
 30
0.0
  0
VERTEX
  5
2C66
  8
0
 10
92.3392129696701431
 20
92.0127923803515273
 30
0.0
  0
VERTEX
  5
2C67
  8
0
 10
92.2658449178655786
 20
92.0158536487840166
 30
0.0
  0
VERTEX
  5
2C68
  8
0
 10
92.1924980836908929
 20
92.0192138306346266
 30
0.0
  0
VERTEX
  5
2C69
  8
0
 10
92.1191722740025369
 20
92.0228692681811253
 30
0.0
  0
VERTEX
  5
2C6A
  8
0
 10
92.0458660038307244
 20
92.0268230794049913
 30
0.0
  0
VERTEX
  5
2C6B
  8
0
 10
91.9725777838232688
 20
92.0310784052736466
 30
0.0
  0
VERTEX
  5
2C6C
  8
0
 10
91.8993061246279126
 20
92.0356383867543855
 30
0.0
  0
VERTEX
  5
2C6D
  8
0
 10
91.8260495315006438
 20
92.0405053384973826
 30
0.0
  0
VERTEX
  5
2C6E
  8
0
 10
91.7528064584031995
 20
92.0456737142434065
 30
0.0
  0
VERTEX
  5
2C6F
  8
0
 10
91.6795753309145312
 20
92.0511336180228312
 30
0.0
  0
VERTEX
  5
2C70
  8
0
 10
91.6063545743134
 20
92.0568751078492369
 30
0.0
  0
VERTEX
  5
2C71
  8
0
 10
91.5331426138783968
 20
92.0628882417362888
 30
0.0
  0
VERTEX
  5
2C72
  8
0
 10
91.4599379922301949
 20
92.0691634698536632
 30
0.0
  0
VERTEX
  5
2C73
  8
0
 10
91.3867414290817663
 20
92.0756985182018042
 30
0.0
  0
VERTEX
  5
2C74
  8
0
 10
91.3135555656332372
 20
92.0824975343810763
 30
0.0
  0
VERTEX
  5
2C75
  8
0
 10
91.2403831090556992
 20
92.0895648864660075
 30
0.0
  0
VERTEX
  5
2C76
  8
0
 10
91.1672267665201161
 20
92.0969049425310544
 30
0.0
  0
VERTEX
  5
2C77
  8
0
 10
91.0940892451974946
 20
92.1045220706506882
 30
0.0
  0
VERTEX
  5
2C78
  8
0
 10
91.0209732522588837
 20
92.112420638899394
 30
0.0
  0
VERTEX
  5
2C79
  8
0
 10
90.9478814948753183
 20
92.1206050153516145
 30
0.0
  0
VERTEX
  5
2C7A
  8
0
 10
90.8748166802177479
 20
92.1290795680818917
 30
0.0
  0
VERTEX
  5
2C7B
  8
0
 10
90.8017815154572077
 20
92.1378486651646682
 30
0.0
  0
VERTEX
  5
2C7C
  8
0
 10
90.7287786306396242
 20
92.1469162440154292
 30
0.0
  0
VERTEX
  5
2C7D
  8
0
 10
90.6558080804130242
 20
92.1562718612716338
 30
0.0
  0
VERTEX
  5
2C7E
  8
0
 10
90.5828667998183619
 20
92.165887653981045
 30
0.0
  0
VERTEX
  5
2C7F
  8
0
 10
90.5099515366742935
 20
92.1757347137600078
 30
0.0
  0
VERTEX
  5
2C80
  8
0
 10
90.4370590387995321
 20
92.1857841322247964
 30
0.0
  0
VERTEX
  5
2C81
  8
0
 10
90.3641860540126913
 20
92.1960070009917416
 30
0.0
  0
VERTEX
  5
2C82
  8
0
 10
90.2913293301324416
 20
92.2063744116771318
 30
0.0
  0
VERTEX
  5
2C83
  8
0
 10
90.2184856149775101
 20
92.2168574558972836
 30
0.0
  0
VERTEX
  5
2C84
  8
0
 10
90.1456516563666241
 20
92.2274272252685421
 30
0.0
  0
VERTEX
  5
2C85
  8
0
 10
90.0728242021183547
 20
92.2380548114071672
 30
0.0
  0
VERTEX
  5
2C86
  8
0
 10
90.0000000000513296
 20
92.2487113059294757
 30
0.0
  0
SEQEND
  5
2C87
  8
0
  0
POLYLINE
  5
2A39
  8
0
 66
     1
 10
0.0
 20
0.0
 30
0.0
  0
VERTEX
  5
2C88
  8
0
 10
96.0000000000512728
 20
92.2487113059294757
 30
0.0
  0
VERTEX
  5
2C89
  8
0
 10
95.9147006357396776
 20
92.2360100032682055
 30
0.0
  0
VERTEX
  5
2C8A
  8
0
 10
95.8293947211767545
 20
92.2233735533257857
 30
0.0
  0
VERTEX
  5
2C8B
  8
0
 10
95.7440757061112748
 20
92.2108668088210237
 30
0.0
  0
VERTEX
  5
2C8C
  8
0
 10
95.6587370402920101
 20
92.1985546224727699
 30
0.0
  0
VERTEX
  5
2C8D
  8
0
 10
95.573372173467547
 20
92.1865018469998461
 30
0.0
  0
VERTEX
  5
2C8E
  8
0
 10
95.4879745554218857
 20
92.1747733348559706
 30
0.0
  0
VERTEX
  5
2C8F
  8
0
 10
95.4025393665226602
 20
92.163420888971217
 30
0.0
  0
VERTEX
  5
2C90
  8
0
 10
95.3170681512621627
 20
92.1524483233887253
 30
0.0
  0
VERTEX
  5
2C91
  8
0
 10
95.2315639166977235
 20
92.1418484236319557
 30
0.0
  0
VERTEX
  5
2C92
  8
0
 10
95.1460296698866159
 20
92.1316139752242123
 30
0.0
  0
VERTEX
  5
2C93
  8
0
 10
95.0604684178862129
 20
92.1217377636888983
 30
0.0
  0
VERTEX
  5
2C94
  8
0
 10
94.9748831593631166
 20
92.1122125843201331
 30
0.0
  0
VERTEX
  5
2C95
  8
0
 10
94.8892751178672711
 20
92.1030332994526049
 30
0.0
  0
VERTEX
  5
2C96
  8
0
 10
94.8036415582666336
 20
92.0941993811223938
 30
0.0
  0
VERTEX
  5
2C97
  8
0
 10
94.7179792100778144
 20
92.0857109247571088
 30
0.0
  0
VERTEX
  5
2C98
  8
0
 10
94.6322848028176935
 20
92.0775680257843305
 30
0.0
  0
VERTEX
  5
2C99
  8
0
 10
94.546555066003009
 20
92.0697707796316536
 30
0.0
  0
VERTEX
  5
2C9A
  8
0
 10
94.4607868525839649
 20
92.0623196607556764
 30
0.0
  0
VERTEX
  5
2C9B
  8
0
 10
94.3749804930845926
 20
92.0552258222375315
 30
0.0
  0
VERTEX
  5
2C9C
  8
0
 10
94.2891401923855597
 20
92.048512314190603
 30
0.0
  0
VERTEX
  5
2C9D
  8
0
 10
94.2032703584483357
 20
92.0422028103308634
 30
0.0
  0
VERTEX
  5
2C9E
  8
0
 10
94.1173753992346178
 20
92.0363209843743135
 30
0.0
  0
VERTEX
  5
2C9F
  8
0
 10
94.0314597227058471
 20
92.0308905100368975
 30
0.0
  0
VERTEX
  5
2CA0
  8
0
 10
93.9455277368236779
 20
92.0259350610345876
 30
0.0
  0
VERTEX
  5
2CA1
  8
0
 10
93.859583849549594
 20
92.0214783110834134
 30
0.0
  0
VERTEX
  5
2CA2
  8
0
 10
93.773632468845264
 20
92.0175439338993044
 30
0.0
  0
VERTEX
  5
2CA3
  8
0
 10
93.6876777751183454
 20
92.0141508817883249
 30
0.0
  0
VERTEX
  5
2CA4
  8
0
 10
93.6017214891526237
 20
92.0112670734511653
 30
0.0
  0
VERTEX
  5
2CA5
  8
0
 10
93.5157638288198569
 20
92.0088292443576847
 30
0.0
  0
VERTEX
  5
2CA6
  8
0
 10
93.4298049904581234
 20
92.0067736831874043
 30
0.0
  0
VERTEX
  5
2CA7
  8
0
 10
93.3438451704057002
 20
92.0050366786197742
 30
0.0
  0
VERTEX
  5
2CA8
  8
0
 10
93.2578845650006087
 20
92.0035545193342728
 30
0.0
  0
VERTEX
  5
2CA9
  8
0
 10
93.1719233705811121
 20
92.0022634940103501
 30
0.0
  0
VERTEX
  5
2CAA
  8
0
 10
93.0859617834852742
 20
92.0010998913274989
 30
0.0
  0
VERTEX
  5
2CAB
  8
0
 10
93.0000000000513154
 20
91.999999999965155
 30
0.0
  0
SEQEND
  5
2CAC
  8
0
  0
POLYLINE
  5
2A3A
  8
0
 66
     1
 10
0.0
 20
0.0
 30
0.0
  0
VERTEX
  5
2CAD
  8
0
 10
43.0717967696963626
 20
96.751288694036532
 30
0.0
  0
VERTEX
  5
2CAE
  8
0
 10
43.1210523723215715
 20
96.7639899966977737
 30
0.0
  0
VERTEX
  5
2CAF
  8
0
 10
43.1703114708981772
 20
96.7766264466401651
 30
0.0
  0
VERTEX
  5
2CB0
  8
0
 10
43.2195775613775481
 20
96.7891331911449271
 30
0.0
  0
VERTEX
  5
2CB1
  8
0
 10
43.2688541397110882
 20
96.8014453774931241
 30
0.0
  0
VERTEX
  5
2CB2
  8
0
 10
43.3181447018501729
 20
96.8134981529660621
 30
0.0
  0
VERTEX
  5
2CB3
  8
0
 10
43.3674527437240371
 20
96.825226665109895
 30
0.0
  0
VERTEX
  5
2CB4
  8
0
 10
43.4167806696761076
 20
96.8365791109945917
 30
0.0
  0
VERTEX
  5
2CB5
  8
0
 10
43.4661268698046612
 20
96.8475516765769981
 30
0.0
  0
VERTEX
  5
2CB6
  8
0
 10
43.5154888116782104
 20
96.8581515763337393
 30
0.0
  0
VERTEX
  5
2CB7
  8
0
 10
43.5648639628651324
 20
96.8683860247414259
 30
0.0
  0
VERTEX
  5
2CB8
  8
0
 10
43.6142497909338474
 20
96.8782622362767256
 30
0.0
  0
VERTEX
  5
2CB9
  8
0
 10
43.6636437747105717
 20
96.8877874156454908
 30
0.0
  0
VERTEX
  5
2CBA
  8
0
 10
43.7130457746357024
 20
96.8969667005130759
 30
0.0
  0
VERTEX
  5
2CBB
  8
0
 10
43.7624609623809704
 20
96.9058006188433154
 30
0.0
  0
VERTEX
  5
2CBC
  8
0
 10
43.8118952278808464
 20
96.9142890752086714
 30
0.0
  0
VERTEX
  5
2CBD
  8
0
 10
43.8613544610697588
 20
96.9224319741815066
 30
0.0
  0
VERTEX
  5
2CBE
  8
0
 10
43.9108445518820929
 20
96.930229220334283
 30
0.0
  0
VERTEX
  5
2CBF
  8
0
 10
43.960371197196757
 20
96.937680339210317
 30
0.0
  0
VERTEX
  5
2CC0
  8
0
 10
44.0099346548162771
 20
96.944774177728533
 30
0.0
  0
VERTEX
  5
2CC1
  8
0
 10
44.0595291228801713
 20
96.9514876857755326
 30
0.0
  0
VERTEX
  5
2CC2
  8
0
 10
44.1091484819008315
 20
96.9577971896353148
 30
0.0
  0
VERTEX
  5
2CC3
  8
0
 10
44.1587866123904789
 20
96.9636790155919357
 30
0.0
  0
VERTEX
  5
2CC4
  8
0
 10
44.2084373948614697
 20
96.9691094899293802
 30
0.0
  0
VERTEX
  5
2CC5
  8
0
 10
44.2580947098261106
 20
96.9740649389317042
 30
0.0
  0
VERTEX
  5
2CC6
  8
0
 10
44.3077524377966299
 20
96.9785216888828927
 30
0.0
  0
VERTEX
  5
2CC7
  8
0
 10
44.3574044592854193
 20
96.9824560660670016
 30
0.0
  0
VERTEX
  5
2CC8
  8
0
 10
44.4070450709087865
 20
96.9858491181779669
 30
0.0
  0
VERTEX
  5
2CC9
  8
0
 10
44.4566730669421304
 20
96.9887329265151266
 30
0.0
  0
VERTEX
  5
2CCA
  8
0
 10
44.5062899898799387
 20
96.9911707556085787
 30
0.0
  0
VERTEX
  5
2CCB
  8
0
 10
44.5558974215930093
 20
96.9932263167788165
 30
0.0
  0
VERTEX
  5
2CCC
  8
0
 10
44.6054969439521827
 20
96.994963321346404
 30
0.0
  0
VERTEX
  5
2CCD
  8
0
 10
44.6550901388282
 20
96.9964454806318628
 30
0.0
  0
VERTEX
  5
2CCE
  8
0
 10
44.7046785880918307
 20
96.9977365059557144
 30
0.0
  0
VERTEX
  5
2CCF
  8
0
 10
44.7542638736139224
 20
96.998900108638523
 30
0.0
  0
VERTEX
  5
2CD0
  8
0
 10
44.8038475772652305
 20
97.0000000000007958
 30
0.0
  0
SEQEND
  5
2CD1
  8
0
  0
POLYLINE
  5
2A3B
  8
0
 66
     1
 10
0.0
 20
0.0
 30
0.0
  0
VERTEX
  5
2CD2
  8
0
 10
44.8038475772652305
 20
92.0000000000007532
 30
0.0
  0
VERTEX
  5
2CD3
  8
0
 10
44.7615024840848079
 20
92.0004735413856309
 30
0.0
  0
VERTEX
  5
2CD4
  8
0
 10
44.7191580003025422
 20
92.0010265383741341
 30
0.0
  0
VERTEX
  5
2CD5
  8
0
 10
44.6768147353164977
 20
92.0017384465698456
 30
0.0
  0
VERTEX
  5
2CD6
  8
0
 10
44.6344732985247887
 20
92.0026887215764617
 30
0.0
  0
VERTEX
  5
2CD7
  8
0
 10
44.5921342993255507
 20
92.003956818997537
 30
0.0
  0
VERTEX
  5
2CD8
  8
0
 10
44.5497978494898277
 20
92.0056098894210805
 30
0.0
  0
VERTEX
  5
2CD9
  8
0
 10
44.5074613599555491
 20
92.0076482988946793
 30
0.0
  0
VERTEX
  5
2CDA
  8
0
 10
44.4651213297033507
 20
92.0100498631476853
 30
0.0
  0
VERTEX
  5
2CDB
  8
0
 10
44.4227742570052087
 20
92.0127923803869692
 30
0.0
  0
VERTEX
  5
2CDC
  8
0
 10
44.3804166401331983
 20
92.0158536488194869
 30
0.0
  0
VERTEX
  5
2CDD
  8
0
 10
44.338045760247212
 20
92.0192138306700542
 30
0.0
  0
VERTEX
  5
2CDE
  8
0
 10
44.2956642568285233
 20
92.0228692682165388
 30
0.0
  0
VERTEX
  5
2CDF
  8
0
 10
44.2532770132569269
 20
92.026823079440419
 30
0.0
  0
VERTEX
  5
2CE0
  8
0
 10
44.2108889205244395
 20
92.0310784053090742
 30
0.0
  0
VERTEX
  5
2CE1
  8
0
 10
44.1685048696230282
 20
92.0356383867898273
 30
0.0
  0
VERTEX
  5
2CE2
  8
0
 10
44.1261296097414402
 20
92.0405053385328529
 30
0.0
  0
VERTEX
  5
2CE3
  8
0
 10
44.0837665410667725
 20
92.0456737142789052
 30
0.0
  0
VERTEX
  5
2CE4
  8
0
 10
44.0414183173374667
 20
92.0511336180583442
 30
0.0
  0
VERTEX
  5
2CE5
  8
0
 10
43.999087584395113
 20
92.0568751078847924
 30
0.0
  0
VERTEX
  5
2CE6
  8
0
 10
43.9567769880812307
 20
92.0628882417718728
 30
0.0
  0
VERTEX
  5
2CE7
  8
0
 10
43.914489062552768
 20
92.0691634698892614
 30
0.0
  0
VERTEX
  5
2CE8
  8
0
 10
43.8722242698357192
 20
92.0756985182374308
 30
0.0
  0
VERTEX
  5
2CE9
  8
0
 10
43.8299812431072766
 20
92.0824975344167314
 30
0.0
  0
VERTEX
  5
2CEA
  8
0
 10
43.7877585527542692
 20
92.0895648865016767
 30
0.0
  0
VERTEX
  5
2CEB
  8
0
 10
43.7455547691636184
 20
92.0969049425667237
 30
0.0
  0
VERTEX
  5
2CEC
  8
0
 10
43.7033684627221817
 20
92.1045220706863574
 30
0.0
  0
VERTEX
  5
2CED
  8
0
 10
43.6611982038168875
 20
92.1124206389350491
 30
0.0
  0
VERTEX
  5
2CEE
  8
0
 10
43.6190425628345793
 20
92.1206050153873122
 30
0.0
  0
VERTEX
  5
2CEF
  8
0
 10
43.5769001101621711
 20
92.1290795681176036
 30
0.0
  0
VERTEX
  5
2CF0
  8
0
 10
43.5347694161865419
 20
92.1378486652003375
 30
0.0
  0
VERTEX
  5
2CF1
  8
0
 10
43.4926490579930771
 20
92.1469162440510985
 30
0.0
  0
VERTEX
  5
2CF2
  8
0
 10
43.4505378363468466
 20
92.1562718613072889
 30
0.0
  0
VERTEX
  5
2CF3
  8
0
 10
43.4084348229584691
 20
92.1658876540167
 30
0.0
  0
VERTEX
  5
2CF4
  8
0
 10
43.3663391057993124
 20
92.1757347137956344
 30
0.0
  0
VERTEX
  5
2CF5
  8
0
 10
43.3242497728407088
 20
92.1857841322603946
 30
0.0
  0
VERTEX
  5
2CF6
  8
0
 10
43.2821659120540119
 20
92.1960070010273398
 30
0.0
  0
VERTEX
  5
2CF7
  8
0
 10
43.2400866114105895
 20
92.2063744117127158
 30
0.0
  0
VERTEX
  5
2CF8
  8
0
 10
43.1980109588817527
 20
92.216857455932896
 30
0.0
  0
VERTEX
  5
2CF9
  8
0
 10
43.1559380424388621
 20
92.2274272253040976
 30
0.0
  0
VERTEX
  5
2CFA
  8
0
 10
43.1138669500532714
 20
92.2380548114427086
 30
0.0
  0
VERTEX
  5
2CFB
  8
0
 10
43.0717967696963271
 20
92.248711305965017
 30
0.0
  0
SEQEND
  5
2CFC
  8
0
  0
POLYLINE
  5
2A3C
  8
0
 66
     1
 10
0.0
 20
0.0
 30
0.0
  0
VERTEX
  5
2CFD
  8
0
 10
55.1961524226784306
 20
97.0000000000007958
 30
0.0
  0
VERTEX
  5
2CFE
  8
0
 10
55.2384975158588531
 20
96.9995264586159323
 30
0.0
  0
VERTEX
  5
2CFF
  8
0
 10
55.2808419996411615
 20
96.9989734616274148
 30
0.0
  0
VERTEX
  5
2D00
  8
0
 10
55.3231852646272273
 20
96.9982615534316892
 30
0.0
  0
VERTEX
  5
2D01
  8
0
 10
55.3655267014189576
 20
96.9973112784250873
 30
0.0
  0
VERTEX
  5
2D02
  8
0
 10
55.4078657006182311
 20
96.9960431810039836
 30
0.0
  0
VERTEX
  5
2D03
  8
0
 10
55.45020215045394
 20
96.9943901105804542
 30
0.0
  0
VERTEX
  5
2D04
  8
0
 10
55.492538639988247
 20
96.992351701106827
 30
0.0
  0
VERTEX
  5
2D05
  8
0
 10
55.5348786702404524
 20
96.9899501368538353
 30
0.0
  0
VERTEX
  5
2D06
  8
0
 10
55.5772257429385874
 20
96.987207619614523
 30
0.0
  0
VERTEX
  5
2D07
  8
0
 10
55.6195833598106404
 20
96.9841463511820336
 30
0.0
  0
VERTEX
  5
2D08
  8
0
 10
55.6619542396966267
 20
96.9807861693314095
 30
0.0
  0
VERTEX
  5
2D09
  8
0
 10
55.7043357431153296
 20
96.9771307317849107
 30
0.0
  0
VERTEX
  5
2D0A
  8
0
 10
55.7467229866869616
 20
96.9731769205610306
 30
0.0
  0
VERTEX
  5
2D0B
  8
0
 10
55.7891110794194489
 20
96.9689215946924037
 30
0.0
  0
VERTEX
  5
2D0C
  8
0
 10
55.8314951303208318
 20
96.9643616132116648
 30
0.0
  0
VERTEX
  5
2D0D
  8
0
 10
55.8738703902023985
 20
96.9594946614686251
 30
0.0
  0
VERTEX
  5
2D0E
  8
0
 10
55.9162334588770591
 20
96.9543262857225727
 30
0.0
  0
VERTEX
  5
2D0F
  8
0
 10
55.9585816826062796
 20
96.9488663819431764
 30
0.0
  0
VERTEX
  5
2D10
  8
0
 10
56.0009124155485623
 20
96.9431248921167139
 30
0.0
  0
VERTEX
  5
2D11
  8
0
 10
56.0432230118623806
 20
96.9371117582296762
 30
0.0
  0
VERTEX
  5
2D12
  8
0
 10
56.0855109373908434
 20
96.9308365301122734
 30
0.0
  0
VERTEX
  5
2D13
  8
0
 10
56.1277757301078282
 20
96.9243014817641466
 30
0.0
  0
VERTEX
  5
2D14
  8
0
 10
56.1700187568362708
 20
96.917502465584846
 30
0.0
  0
VERTEX
  5
2D15
  8
0
 10
56.2122414471892213
 20
96.9104351134999149
 30
0.0
  0
VERTEX
  5
2D16
  8
0
 10
56.2544452307798721
 20
96.903095057434868
 30
0.0
  0
VERTEX
  5
2D17
  8
0
 10
56.2966315372212307
 20
96.8954779293152342
 30
0.0
  0
VERTEX
  5
2D18
  8
0
 10
56.3388017961265177
 20
96.8875793610665426
 30
0.0
  0
VERTEX
  5
2D19
  8
0
 10
56.3809574371088118
 20
96.8793949846142937
 30
0.0
  0
VERTEX
  5
2D1A
  8
0
 10
56.4230998897812128
 20
96.8709204318840307
 30
0.0
  0
VERTEX
  5
2D1B
  8
0
 10
56.4652305837568633
 20
96.8621513348012542
 30
0.0
  0
VERTEX
  5
2D1C
  8
0
 10
56.5073509419503424
 20
96.8530837559504931
 30
0.0
  0
VERTEX
  5
2D1D
  8
0
 10
56.5494621635965586
 20
96.8437281386943027
 30
0.0
  0
VERTEX
  5
2D1E
  8
0
 10
56.5915651769849504
 20
96.8341123459848916
 30
0.0
  0
VERTEX
  5
2D1F
  8
0
 10
56.6336608941440929
 20
96.824265286205943
 30
0.0
  0
VERTEX
  5
2D20
  8
0
 10
56.6757502271027533
 20
96.8142158677411544
 30
0.0
  0
VERTEX
  5
2D21
  8
0
 10
56.7178340878894574
 20
96.8039929989742234
 30
0.0
  0
VERTEX
  5
2D22
  8
0
 10
56.7599133885329294
 20
96.7936255882888332
 30
0.0
  0
VERTEX
  5
2D23
  8
0
 10
56.8019890410618018
 20
96.7831425440686957
 30
0.0
  0
VERTEX
  5
2D24
  8
0
 10
56.8440619575046568
 20
96.7725727746974513
 30
0.0
  0
VERTEX
  5
2D25
  8
0
 10
56.8861330498902973
 20
96.7619451885588546
 30
0.0
  0
VERTEX
  5
2D26
  8
0
 10
56.9282032302472771
 20
96.751288694036532
 30
0.0
  0
SEQEND
  5
2D27
  8
0
  0
POLYLINE
  5
2A3D
  8
0
 66
     1
 10
0.0
 20
0.0
 30
0.0
  0
VERTEX
  5
2D28
  8
0
 10
56.9282032302472203
 20
92.248711305965017
 30
0.0
  0
VERTEX
  5
2D29
  8
0
 10
56.8789476276220896
 20
92.2360100033037895
 30
0.0
  0
VERTEX
  5
2D2A
  8
0
 10
56.8296885290456473
 20
92.2233735533614265
 30
0.0
  0
VERTEX
  5
2D2B
  8
0
 10
56.7804224385664114
 20
92.2108668088567072
 30
0.0
  0
VERTEX
  5
2D2C
  8
0
 10
56.7311458602329708
 20
92.198554622508496
 30
0.0
  0
VERTEX
  5
2D2D
  8
0
 10
56.6818552980940282
 20
92.1865018470356148
 30
0.0
  0
VERTEX
  5
2D2E
  8
0
 10
56.6325472562203274
 20
92.174773334891853
 30
0.0
  0
VERTEX
  5
2D2F
  8
0
 10
56.5832193302684416
 20
92.1634208890071989
 30
0.0
  0
VERTEX
  5
2D30
  8
0
 10
56.5338731301400728
 20
92.1524483234248635
 30
0.0
  0
VERTEX
  5
2D31
  8
0
 10
56.4845111882667013
 20
92.141848423668165
 30
0.0
  0
VERTEX
  5
2D32
  8
0
 10
56.4351360370798716
 20
92.1316139752605068
 30
0.0
  0
VERTEX
  5
2D33
  8
0
 10
56.385750209011178
 20
92.1217377637252355
 30
0.0
  0
VERTEX
  5
2D34
  8
0
 10
56.3363562252344607
 20
92.1122125843564561
 30
0.0
  0
VERTEX
  5
2D35
  8
0
 10
56.2869542253092092
 20
92.1030332994888283
 30
0.0
  0
VERTEX
  5
2D36
  8
0
 10
56.2375390375636925
 20
92.0941993811585178
 30
0.0
  0
VERTEX
  5
2D37
  8
0
 10
56.1881047720635181
 20
92.0857109247930765
 30
0.0
  0
VERTEX
  5
2D38
  8
0
 10
56.1386455388743002
 20
92.0775680258201561
 30
0.0
  0
VERTEX
  5
2D39
  8
0
 10
56.0891554480616605
 20
92.0697707796673086
 30
0.0
  0
VERTEX
  5
2D3A
  8
0
 10
56.0396288027467335
 20
92.0623196607911609
 30
0.0
  0
VERTEX
  5
2D3B
  8
0
 10
55.9900653451270003
 20
92.0552258222728739
 30
0.0
  0
VERTEX
  5
2D3C
  8
0
 10
55.9404708770628574
 20
92.0485123142258175
 30
0.0
  0
VERTEX
  5
2D3D
  8
0
 10
55.8908515180420409
 20
92.0422028103659642
 30
0.0
  0
VERTEX
  5
2D3E
  8
0
 10
55.8412133875522088
 20
92.0363209844093149
 30
0.0
  0
VERTEX
  5
2D3F
  8
0
 10
55.7915626050810829
 20
92.0308905100718135
 30
0.0
  0
VERTEX
  5
2D40
  8
0
 10
55.7419052901163923
 20
92.0259350610694753
 30
0.0
  0
VERTEX
  5
2D41
  8
0
 10
55.6922475621458375
 20
92.0214783111182868
 30
0.0
  0
VERTEX
  5
2D42
  8
0
 10
55.6425955406570623
 20
92.0175439339341779
 30
0.0
  0
VERTEX
  5
2D43
  8
0
 10
55.5929549290336809
 20
92.014150881823241
 30
0.0
  0
VERTEX
  5
2D44
  8
0
 10
55.5433269330004009
 20
92.011267073486124
 30
0.0
  0
VERTEX
  5
2D45
  8
0
 10
55.4937100100627276
 20
92.0088292443927003
 30
0.0
  0
VERTEX
  5
2D46
  8
0
 10
55.4441025783497707
 20
92.0067736832224909
 30
0.0
  0
VERTEX
  5
2D47
  8
0
 10
55.3945030559907465
 20
92.0050366786549461
 30
0.0
  0
VERTEX
  5
2D48
  8
0
 10
55.3449098611148997
 20
92.0035545193695299
 30
0.0
  0
VERTEX
  5
2D49
  8
0
 10
55.2953214118514325
 20
92.0022634940457067
 30
0.0
  0
VERTEX
  5
2D4A
  8
0
 10
55.2457361263295681
 20
92.0010998913629692
 30
0.0
  0
VERTEX
  5
2D4B
  8
0
 10
55.1961524226784306
 20
92.0000000000007532
 30
0.0
  0
SEQEND
  5
2D4C
  8
0
  0
POLYLINE
  5
2A3E
  8
0
 66
     1
 10
0.0
 20
0.0
 30
0.0
  0
VERTEX
  5
2D4D
  8
0
 10
55.1961524226784306
 20
92.0000000000007532
 30
0.0
  0
VERTEX
  5
2D4E
  8
0
 10
55.1537265326709871
 20
92.0004735413856451
 30
0.0
  0
VERTEX
  5
2D4F
  8
0
 10
55.1113012368032287
 20
92.0010265383741768
 30
0.0
  0
VERTEX
  5
2D50
  8
0
 10
55.0688771292150321
 20
92.0017384465699166
 30
0.0
  0
VERTEX
  5
2D51
  8
0
 10
55.0264548040460113
 20
92.0026887215765896
 30
0.0
  0
VERTEX
  5
2D52
  8
0
 10
54.9840348554360503
 20
92.0039568189977217
 30
0.0
  0
VERTEX
  5
2D53
  8
0
 10
54.9416183679124899
 20
92.0056098894213363
 30
0.0
  0
VERTEX
  5
2D54
  8
0
 10
54.89920908754425
 20
92.0076482988950488
 30
0.0
  0
VERTEX
  5
2D55
  8
0
 10
54.8568116590904609
 20
92.0100498631481258
 30
0.0
  0
VERTEX
  5
2D56
  8
0
 10
54.8144307280085172
 20
92.012792380387495
 30
0.0
  0
VERTEX
  5
2D57
  8
0
 10
54.7720709397557926
 20
92.0158536488200838
 30
0.0
  0
VERTEX
  5
2D58
  8
0
 10
54.7297361580165216
 20
92.0192138306707363
 30
0.0
  0
VERTEX
  5
2D59
  8
0
 10
54.6874248957828399
 20
92.0228692682172493
 30
0.0
  0
VERTEX
  5
2D5A
  8
0
 10
54.6451334253432606
 20
92.0268230794411437
 30
0.0
  0
VERTEX
  5
2D5B
  8
0
 10
54.6028580113848605
 20
92.0310784053097848
 30
0.0
  0
VERTEX
  5
2D5C
  8
0
 10
54.5605949185948589
 20
92.0356383867904952
 30
0.0
  0
VERTEX
  5
2D5D
  8
0
 10
54.5183404778925933
 20
92.0405053385334639
 30
0.0
  0
VERTEX
  5
2D5E
  8
0
 10
54.4760916502759684
 20
92.0456737142794168
 30
0.0
  0
VERTEX
  5
2D5F
  8
0
 10
54.4338457453872522
 20
92.0511336180587136
 30
0.0
  0
VERTEX
  5
2D60
  8
0
 10
54.3916000765570402
 20
92.0568751078850198
 30
0.0
  0
VERTEX
  5
2D61
  8
0
 10
54.3493519571159709
 20
92.0628882417719439
 30
0.0
  0
VERTEX
  5
2D62
  8
0
 10
54.3070988578580227
 20
92.0691634698891903
 30
0.0
  0
VERTEX
  5
2D63
  8
0
 10
54.2648411710599134
 20
92.0756985182372318
 30
0.0
  0
VERTEX
  5
2D64
  8
0
 10
54.2225818674794979
 20
92.0824975344164756
 30
0.0
  0
VERTEX
  5
2D65
  8
0
 10
54.1803240064022589
 20
92.089564886501293
 30
0.0
  0
VERTEX
  5
2D66
  8
0
 10
54.1380706471136293
 20
92.0969049425662973
 30
0.0
  0
VERTEX
  5
2D67
  8
0
 10
54.0958248488989923
 20
92.1045220706858743
 30
0.0
  0
VERTEX
  5
2D68
  8
0
 10
54.0535896710437598
 20
92.1124206389345659
 30
0.0
  0
VERTEX
  5
2D69
  8
0
 10
54.0113681728333788
 20
92.1206050153867864
 30
0.0
  0
VERTEX
  5
2D6A
  8
0
 10
53.9691634135532965
 20
92.1290795681170351
 30
0.0
  0
VERTEX
  5
2D6B
  8
0
 10
53.9269784524888607
 20
92.1378486651998259
 30
0.0
  0
VERTEX
  5
2D6C
  8
0
 10
53.8848162787841218
 20
92.1469162440506153
 30
0.0
  0
VERTEX
  5
2D6D
  8
0
 10
53.8426775393829686
 20
92.1562718613068341
 30
0.0
  0
VERTEX
  5
2D6E
  8
0
 10
53.8005600440977219
 20
92.1658876540162737
 30
0.0
  0
VERTEX
  5
2D6F
  8
0
 10
53.7584614324710515
 20
92.175734713795265
 30
0.0
  0
VERTEX
  5
2D70
  8
0
 10
53.716379344045599
 20
92.1857841322600819
 30
0.0
  0
VERTEX
  5
2D71
  8
0
 10
53.674311418364141
 20
92.1960070010270556
 30
0.0
  0
VERTEX
  5
2D72
  8
0
 10
53.6322552949692906
 20
92.2063744117125026
 30
0.0
  0
VERTEX
  5
2D73
  8
0
 10
53.5902086134037177
 20
92.2168574559327112
 30
0.0
  0
VERTEX
  5
2D74
  8
0
 10
53.5481690132101491
 20
92.227427225303984
 30
0.0
  0
VERTEX
  5
2D75
  8
0
 10
53.5061341339311909
 20
92.2380548114426659
 30
0.0
  0
VERTEX
  5
2D76
  8
0
 10
53.4641016151095911
 20
92.248711305965017
 30
0.0
  0
SEQEND
  5
2D77
  8
0
  0
POLYLINE
  5
2A3F
  8
0
 66
     1
 10
0.0
 20
0.0
 30
0.0
  0
VERTEX
  5
2D78
  8
0
 10
44.8038475772652305
 20
97.0000000000007958
 30
0.0
  0
VERTEX
  5
2D79
  8
0
 10
44.8462734672728516
 20
96.9995264586159323
 30
0.0
  0
VERTEX
  5
2D7A
  8
0
 10
44.8886987631406598
 20
96.9989734616274148
 30
0.0
  0
VERTEX
  5
2D7B
  8
0
 10
44.9311228707290411
 20
96.9982615534316892
 30
0.0
  0
VERTEX
  5
2D7C
  8
0
 10
44.9735451958981116
 20
96.9973112784250873
 30
0.0
  0
VERTEX
  5
2D7D
  8
0
 10
45.0159651445082432
 20
96.9960431810039978
 30
0.0
  0
VERTEX
  5
2D7E
  8
0
 10
45.0583816320319599
 20
96.9943901105804542
 30
0.0
  0
VERTEX
  5
2D7F
  8
0
 10
45.1007909124004414
 20
96.9923517011068554
 30
0.0
  0
VERTEX
  5
2D80
  8
0
 10
45.1431883408544579
 20
96.9899501368538637
 30
0.0
  0
VERTEX
  5
2D81
  8
0
 10
45.1855692719366786
 20
96.9872076196145656
 30
0.0
  0
VERTEX
  5
2D82
  8
0
 10
45.2279290601896307
 20
96.9841463511820621
 30
0.0
  0
VERTEX
  5
2D83
  8
0
 10
45.2702638419291929
 20
96.9807861693314806
 30
0.0
  0
VERTEX
  5
2D84
  8
0
 10
45.312575104163038
 20
96.977130731784996
 30
0.0
  0
VERTEX
  5
2D85
  8
0
 10
45.3548665746027382
 20
96.9731769205611158
 30
0.0
  0
VERTEX
  5
2D86
  8
0
 10
45.3971419885610885
 20
96.9689215946924747
 30
0.0
  0
VERTEX
  5
2D87
  8
0
 10
45.4394050813509622
 20
96.9643616132117074
 30
0.0
  0
VERTEX
  5
2D88
  8
0
 10
45.4816595220530075
 20
96.9594946614686961
 30
0.0
  0
VERTEX
  5
2D89
  8
0
 10
45.5239083496692771
 20
96.9543262857226154
 30
0.0
  0
VERTEX
  5
2D8A
  8
0
 10
45.5661542545575386
 20
96.9488663819431906
 30
0.0
  0
VERTEX
  5
2D8B
  8
0
 10
45.6083999233872035
 20
96.9431248921167565
 30
0.0
  0
VERTEX
  5
2D8C
  8
0
 10
45.650648042827811
 20
96.9371117582296904
 30
0.0
  0
VERTEX
  5
2D8D
  8
0
 10
45.6929011420853612
 20
96.930836530112316
 30
0.0
  0
VERTEX
  5
2D8E
  8
0
 10
45.7351588288830726
 20
96.9243014817641608
 30
0.0
  0
VERTEX
  5
2D8F
  8
0
 10
45.77741813246314
 20
96.917502465584846
 30
0.0
  0
VERTEX
  5
2D90
  8
0
 10
45.819675993540038
 20
96.9104351134998865
 30
0.0
  0
VERTEX
  5
2D91
  8
0
 10
45.8619293528284899
 20
96.9030950574348537
 30
0.0
  0
VERTEX
  5
2D92
  8
0
 10
45.9041751510429776
 20
96.8954779293152058
 30
0.0
  0
VERTEX
  5
2D93
  8
0
 10
45.9464103288980326
 20
96.8875793610664999
 30
0.0
  0
VERTEX
  5
2D94
  8
0
 10
45.9886318271082928
 20
96.879394984614251
 30
0.0
  0
VERTEX
  5
2D95
  8
0
 10
46.0308365863883679
 20
96.8709204318839738
 30
0.0
  0
VERTEX
  5
2D96
  8
0
 10
46.0730215474527469
 20
96.8621513348011973
 30
0.0
  0
VERTEX
  5
2D97
  8
0
 10
46.1151837211575568
 20
96.8530837559504221
 30
0.0
  0
VERTEX
  5
2D98
  8
0
 10
46.1573224605588095
 20
96.8437281386942317
 30
0.0
  0
VERTEX
  5
2D99
  8
0
 10
46.1994399558441771
 20
96.8341123459848347
 30
0.0
  0
VERTEX
  5
2D9A
  8
0
 10
46.2415385674709682
 20
96.8242652862058861
 30
0.0
  0
VERTEX
  5
2D9B
  8
0
 10
46.283620655896577
 20
96.8142158677410976
 30
0.0
  0
VERTEX
  5
2D9C
  8
0
 10
46.3256885815782198
 20
96.8039929989741808
 30
0.0
  0
VERTEX
  5
2D9D
  8
0
 10
46.3677447049732905
 20
96.7936255882887906
 30
0.0
  0
VERTEX
  5
2D9E
  8
0
 10
46.4097913865390979
 20
96.783142544068653
 30
0.0
  0
VERTEX
  5
2D9F
  8
0
 10
46.4518309867329435
 20
96.7725727746974229
 30
0.0
  0
VERTEX
  5
2DA0
  8
0
 10
46.4938658660121789
 20
96.7619451885588262
 30
0.0
  0
VERTEX
  5
2DA1
  8
0
 10
46.5358983848340699
 20
96.751288694036532
 30
0.0
  0
SEQEND
  5
2DA2
  8
0
  0
POLYLINE
  5
2A40
  8
0
 66
     1
 10
0.0
 20
0.0
 30
0.0
  0
VERTEX
  5
2DA3
  8
0
 10
46.5358983848341197
 20
92.248711305965017
 30
0.0
  0
VERTEX
  5
2DA4
  8
0
 10
46.4866667572435901
 20
92.2360100033037611
 30
0.0
  0
VERTEX
  5
2DA5
  8
0
 10
46.4374307761878526
 20
92.2233735533613554
 30
0.0
  0
VERTEX
  5
2DA6
  8
0
 10
46.3881860882016781
 20
92.2108668088565935
 30
0.0
  0
VERTEX
  5
2DA7
  8
0
 10
46.3389283398197378
 20
92.1985546225083255
 30
0.0
  0
VERTEX
  5
2DA8
  8
0
 10
46.2896531775768878
 20
92.1865018470353732
 30
0.0
  0
VERTEX
  5
2DA9
  8
0
 10
46.2403562480244474
 20
92.1747733348914693
 30
0.0
  0
VERTEX
  5
2DAA
  8
0
 10
46.1910340120012322
 20
92.1634208890067157
 30
0.0
  0
VERTEX
  5
2DAB
  8
0
 10
46.1416859248428679
 20
92.1524483234242666
 30
0.0
  0
VERTEX
  5
2DAC
  8
0
 10
46.0923121300622824
 20
92.1418484236674828
 30
0.0
  0
VERTEX
  5
2DAD
  8
0
 10
46.0429127711723822
 20
92.1316139752597394
 30
0.0
  0
VERTEX
  5
2DAE
  8
0
 10
45.9934879916861519
 20
92.1217377637244255
 30
0.0
  0
VERTEX
  5
2DAF
  8
0
 10
45.9440379430985217
 20
92.1122125843556887
 30
0.0
  0
VERTEX
  5
2DB0
  8
0
 10
45.8945644655412295
 20
92.1030332994881462
 30
0.0
  0
VERTEX
  5
2DB1
  8
0
 10
45.8450731649700671
 20
92.0941993811579493
 30
0.0
  0
VERTEX
  5
2DB2
  8
0
 10
45.7955701566107223
 20
92.0857109247926644
 30
0.0
  0
VERTEX
  5
2DB3
  8
0
 10
45.746061555688982
 20
92.0775680258199145
 30
0.0
  0
VERTEX
  5
2DB4
  8
0
 10
45.6965534774304771
 20
92.0697707796672375
 30
0.0
  0
VERTEX
  5
2DB5
  8
0
 10
45.6470518647431618
 20
92.0623196607912462
 30
0.0
  0
VERTEX
  5
2DB6
  8
0
 10
45.5975578057162281
 20
92.0552258222731155
 30
0.0
  0
VERTEX
  5
2DB7
  8
0
 10
45.5480669796959319
 20
92.0485123142262154
 30
0.0
  0
VERTEX
  5
2DB8
  8
0
 10
45.4985747825201585
 20
92.0422028103664474
 30
0.0
  0
VERTEX
  5
2DB9
  8
0
 10
45.449076610026907
 20
92.0363209844098833
 30
0.0
  0
VERTEX
  5
2DBA
  8
0
 10
45.3995678580542403
 20
92.0308905100724388
 30
0.0
  0
VERTEX
  5
2DBB
  8
0
 10
45.3500439224400722
 20
92.0259350610701574
 30
0.0
  0
VERTEX
  5
2DBC
  8
0
 10
45.3005001990224514
 20
92.0214783111189689
 30
0.0
  0
VERTEX
  5
2DBD
  8
0
 10
45.2509320836393769
 20
92.0175439339348458
 30
0.0
  0
VERTEX
  5
2DBE
  8
0
 10
45.201335410202141
 20
92.0141508818238805
 30
0.0
  0
VERTEX
  5
2DBF
  8
0
 10
45.1517107477463426
 20
92.0112670734866782
 30
0.0
  0
VERTEX
  5
2DC0
  8
0
 10
45.1020615586260192
 20
92.0088292443932119
 30
0.0
  0
VERTEX
  5
2DC1
  8
0
 10
45.0523913466503814
 20
92.0067736832229457
 30
0.0
  0
VERTEX
  5
2DC2
  8
0
 10
45.0027036156286613
 20
92.0050366786553155
 30
0.0
  0
VERTEX
  5
2DC3
  8
0
 10
44.9530018693700981
 20
92.0035545193697999
 30
0.0
  0
VERTEX
  5
2DC4
  8
0
 10
44.9032896116838174
 20
92.0022634940458914
 30
0.0
  0
VERTEX
  5
2DC5
  8
0
 10
44.853570346379108
 20
92.0010998913630544
 30
0.0
  0
VERTEX
  5
2DC6
  8
0
 10
44.8038475772651665
 20
92.0000000000007248
 30
0.0
  0
SEQEND
  5
2DC7
  8
0
  0
POLYLINE
  5
2A41
  8
0
 66
     1
 10
0.0
 20
0.0
 30
0.0
  0
VERTEX
  5
2DC8
  8
0
 10
53.4641016151095414
 20
96.751288694036532
 30
0.0
  0
VERTEX
  5
2DC9
  8
0
 10
53.5133332427001918
 20
96.7639899966977453
 30
0.0
  0
VERTEX
  5
2DCA
  8
0
 10
53.5625692237560997
 20
96.7766264466401367
 30
0.0
  0
VERTEX
  5
2DCB
  8
0
 10
53.6118139117424519
 20
96.7891331911448702
 30
0.0
  0
VERTEX
  5
2DCC
  8
0
 10
53.6610716601245414
 20
96.8014453774930814
 30
0.0
  0
VERTEX
  5
2DCD
  8
0
 10
53.7103468223675691
 20
96.8134981529659768
 30
0.0
  0
VERTEX
  5
2DCE
  8
0
 10
53.7596437519203505
 20
96.8252266651097671
 30
0.0
  0
VERTEX
  5
2DCF
  8
0
 10
53.80896598794385
 20
96.8365791109944354
 30
0.0
  0
VERTEX
  5
2DD0
  8
0
 10
53.8583140751024985
 20
96.8475516765768134
 30
0.0
  0
VERTEX
  5
2DD1
  8
0
 10
53.9076878698833113
 20
96.8581515763335119
 30
0.0
  0
VERTEX
  5
2DD2
  8
0
 10
53.9570872287734389
 20
96.8683860247411985
 30
0.0
  0
VERTEX
  5
2DD3
  8
0
 10
54.0065120082597332
 20
96.8782622362764698
 30
0.0
  0
VERTEX
  5
2DD4
  8
0
 10
54.0559620568471928
 20
96.8877874156452634
 30
0.0
  0
VERTEX
  5
2DD5
  8
0
 10
54.1054355344042506
 20
96.8969667005128485
 30
0.0
  0
VERTEX
  5
2DD6
  8
0
 10
54.1549268349750719
 20
96.9058006188431449
 30
0.0
  0
VERTEX
  5
2DD7
  8
0
 10
54.2044298433340188
 20
96.9142890752085293
 30
0.0
  0
VERTEX
  5
2DD8
  8
0
 10
54.2539384442553114
 20
96.9224319741814355
 30
0.0
  0
VERTEX
  5
2DD9
  8
0
 10
54.3034465225133474
 20
96.9302292203342404
 30
0.0
  0
VERTEX
  5
2DDA
  8
0
 10
54.3529481352002222
 20
96.9376803392103454
 30
0.0
  0
VERTEX
  5
2DDB
  8
0
 10
54.4024421942267509
 20
96.9447741777286183
 30
0.0
  0
VERTEX
  5
2DDC
  8
0
 10
54.4519330202467131
 20
96.9514876857756462
 30
0.0
  0
VERTEX
  5
2DDD
  8
0
 10
54.501425217422188
 20
96.9577971896354853
 30
0.0
  0
VERTEX
  5
2DDE
  8
0
 10
54.5509233899151695
 20
96.9636790155921062
 30
0.0
  0
VERTEX
  5
2DDF
  8
0
 10
54.6004321418876586
 20
96.9691094899295933
 30
0.0
  0
VERTEX
  5
2DE0
  8
0
 10
54.6499560775017201
 20
96.9740649389319174
 30
0.0
  0
VERTEX
  5
2DE1
  8
0
 10
54.6994998009192201
 20
96.9785216888831201
 30
0.0
  0
VERTEX
  5
2DE2
  8
0
 10
54.7490679163023515
 20
96.9824560660672148
 30
0.0
  0
VERTEX
  5
2DE3
  8
0
 10
54.7986645897395803
 20
96.9858491181781801
 30
0.0
  0
VERTEX
  5
2DE4
  8
0
 10
54.8482892521954497
 20
96.9887329265153255
 30
0.0
  0
VERTEX
  5
2DE5
  8
0
 10
54.8979384413159366
 20
96.991170755608735
 30
0.0
  0
VERTEX
  5
2DE6
  8
0
 10
54.9476086532918089
 20
96.9932263167789586
 30
0.0
  0
VERTEX
  5
2DE7
  8
0
 10
54.9972963843137492
 20
96.9949633213465177
 30
0.0
  0
VERTEX
  5
2DE8
  8
0
 10
55.0469981305726108
 20
96.9964454806319765
 30
0.0
  0
VERTEX
  5
2DE9
  8
0
 10
55.0967103882591687
 20
96.9977365059558139
 30
0.0
  0
VERTEX
  5
2DEA
  8
0
 10
55.1464296535641481
 20
96.9989001086385656
 30
0.0
  0
VERTEX
  5
2DEB
  8
0
 10
55.1961524226783808
 20
97.00000000000081
 30
0.0
  0
SEQEND
  5
2DEC
  8
0
  0
POLYLINE
  5
2A42
  8
0
 66
     1
 10
0.0
 20
0.0
 30
0.0
  0
VERTEX
  5
2DED
  8
0
 10
49.9999999999717488
 20
97.00000000000081
 30
0.0
  0
VERTEX
  5
2DEE
  8
0
 10
50.0847709563858601
 20
96.9995260862944804
 30
0.0
  0
VERTEX
  5
2DEF
  8
0
 10
50.1695407078250923
 20
96.9989726663578011
 30
0.0
  0
VERTEX
  5
2DF0
  8
0
 10
50.254308049314659
 20
96.9982602339603091
 30
0.0
  0
VERTEX
  5
2DF1
  8
0
 10
50.3390717758795674
 20
96.9973092828716972
 30
0.0
  0
VERTEX
  5
2DF2
  8
0
 10
50.4238306825450806
 20
96.9960403068615449
 30
0.0
  0
VERTEX
  5
2DF3
  8
0
 10
50.5085835717715099
 20
96.9943861425610407
 30
0.0
  0
VERTEX
  5
2DF4
  8
0
 10
50.5933292862959476
 20
96.9923464873152454
 30
0.0
  0
VERTEX
  5
2DF5
  8
0
 10
50.6780666824299075
 20
96.989943572766677
 30
0.0
  0
VERTEX
  5
2DF6
  8
0
 10
50.7627946164953414
 20
96.9871996477699554
 30
0.0
  0
VERTEX
  5
2DF7
  8
0
 10
50.8475119448141868
 20
96.9841369611798143
 30
0.0
  0
VERTEX
  5
2DF8
  8
0
 10
50.932217522862679
 20
96.9807753923328733
 30
0.0
  0
VERTEX
  5
2DF9
  8
0
 10
51.0169102003372927
 20
96.9771186266278846
 30
0.0
  0
VERTEX
  5
2DFA
  8
0
 10
51.1015888245173571
 20
96.9731635768481937
 30
0.0
  0
VERTEX
  5
2DFB
  8
0
 10
51.1862522426740085
 20
96.9689071329581509
 30
0.0
  0
VERTEX
  5
2DFC
  8
0
 10
51.2708993020783623
 20
96.9643461849220785
 30
0.0
  0
VERTEX
  5
2DFD
  8
0
 10
51.3555289253512228
 20
96.9594784457142111
 30
0.0
  0
VERTEX
  5
2DFE
  8
0
 10
51.4401407532625967
 20
96.9543094723224215
 30
0.0
  0
VERTEX
  5
2DFF
  8
0
 10
51.5247348245471315
 20
96.9488491685212637
 30
0.0
  0
VERTEX
  5
2E00
  8
0
 10
51.6093111821700674
 20
96.9431074842932361
 30
0.0
  0
VERTEX
  5
2E01
  8
0
 10
51.6938698690965381
 20
96.9370943696207519
 30
0.0
  0
VERTEX
  5
2E02
  8
0
 10
51.7784108829982799
 20
96.9308193864240053
 30
0.0
  0
VERTEX
  5
2E03
  8
0
 10
51.8629333723741297
 20
96.9242848211393238
 30
0.0
  0
VERTEX
  5
2E04
  8
0
 10
51.9474357314851432
 20
96.9174864980987252
 30
0.0
  0
VERTEX
  5
2E05
  8
0
 10
52.0319163283696824
 20
96.9104200169648209
 30
0.0
  0
VERTEX
  5
2E06
  8
0
 10
52.1163735310661878
 20
96.9030809774002648
 30
0.0
  0
VERTEX
  5
2E07
  8
0
 10
52.2008057076129077
 20
96.8954649790676967
 30
0.0
  0
VERTEX
  5
2E08
  8
0
 10
52.2852112260483821
 20
96.8875676216297563
 30
0.0
  0
VERTEX
  5
2E09
  8
0
 10
52.3695884544108026
 20
96.8793845047490834
 30
0.0
  0
VERTEX
  5
2E0A
  8
0
 10
52.4539357607386023
 20
96.870911228088346
 30
0.0
  0
VERTEX
  5
2E0B
  8
0
 10
52.538251513070179
 20
96.8621433913101413
 30
0.0
  0
VERTEX
  5
2E0C
  8
0
 10
52.6225341418465291
 20
96.8530770179620362
 30
0.0
  0
VERTEX
  5
2E0D
  8
0
 10
52.7067841896967977
 20
96.8437224791447875
 30
0.0
  0
VERTEX
  5
2E0E
  8
0
 10
52.7910047742237225
 20
96.8341076370932541
 30
0.0
  0
VERTEX
  5
2E0F
  8
0
 10
52.8751991691298713
 20
96.8242614143889568
 30
0.0
  0
VERTEX
  5
2E10
  8
0
 10
52.9593706481178401
 20
96.8142127336135587
 30
0.0
  0
VERTEX
  5
2E11
  8
0
 10
53.043522484890282
 20
96.8039905173486233
 30
0.0
  0
VERTEX
  5
2E12
  8
0
 10
53.1276579531497006
 20
96.7936236881757424
 30
0.0
  0
VERTEX
  5
2E13
  8
0
 10
53.2117803265987774
 20
96.7831411686764937
 30
0.0
  0
VERTEX
  5
2E14
  8
0
 10
53.2958928789400375
 20
96.7725718814324836
 30
0.0
  0
VERTEX
  5
2E15
  8
0
 10
53.3799988838761124
 20
96.7619447490253037
 30
0.0
  0
VERTEX
  5
2E16
  8
0
 10
53.4641016151095414
 20
96.7512886940365036
 30
0.0
  0
SEQEND
  5
2E17
  8
0
  0
POLYLINE
  5
2A43
  8
0
 66
     1
 10
0.0
 20
0.0
 30
0.0
  0
VERTEX
  5
2E18
  8
0
 10
46.5358983848340699
 20
96.7512886940365036
 30
0.0
  0
VERTEX
  5
2E19
  8
0
 10
46.6343853158247725
 20
96.7639920342367645
 30
0.0
  0
VERTEX
  5
2E1A
  8
0
 10
46.7328801287703683
 20
96.7766302907802896
 30
0.0
  0
VERTEX
  5
2E1B
  8
0
 10
46.8313907056257221
 20
96.7891383800103284
 30
0.0
  0
VERTEX
  5
2E1C
  8
0
 10
46.9299249283458266
 20
96.8014512182701452
 30
0.0
  0
VERTEX
  5
2E1D
  8
0
 10
47.0284906788854684
 20
96.8135037219030039
 30
0.0
  0
VERTEX
  5
2E1E
  8
0
 10
47.1270958389364267
 20
96.8252308090537781
 30
0.0
  0
VERTEX
  5
2E1F
  8
0
 10
47.2257462353254596
 20
96.8365814681099124
 30
0.0
  0
VERTEX
  5
2E20
  8
0
 10
47.3244406818443508
 20
96.8475527076905678
 30
0.0
  0
VERTEX
  5
2E21
  8
0
 10
47.4231764974573977
 20
96.8581517719226213
 30
0.0
  0
VERTEX
  5
2E22
  8
0
 10
47.521951001128798
 20
96.868385904932822
 30
0.0
  0
VERTEX
  5
2E23
  8
0
 10
47.6207615118228205
 20
96.8782623508480185
 30
0.0
  0
VERTEX
  5
2E24
  8
0
 10
47.7196053548803434
 20
96.8877883349152853
 30
0.0
  0
VERTEX
  5
2E25
  8
0
 10
47.8184806318965769
 20
96.8969687840817357
 30
0.0
  0
VERTEX
  5
2E26
  8
0
 10
47.9173869545915068
 20
96.9058041541830306
 30
0.0
  0
VERTEX
  5
2E27
  8
0
 10
48.0163241085416033
 20
96.9142943863083701
 30
0.0
  0
VERTEX
  5
2E28
  8
0
 10
48.1152918793231876
 20
96.9224394215471108
 30
0.0
  0
VERTEX
  5
2E29
  8
0
 10
48.2142900525126379
 20
96.930239200988467
 30
0.0
  0
VERTEX
  5
2E2A
  8
0
 10
48.3133183810934383
 20
96.9376930743858338
 30
0.0
  0
VERTEX
  5
2E2B
  8
0
 10
48.4123759701389034
 20
96.9447886363923317
 30
0.0
  0
VERTEX
  5
2E2C
  8
0
 10
48.5114613287436214
 20
96.9515026687626147
 30
0.0
  0
VERTEX
  5
2E2D
  8
0
 10
48.6105729438185108
 20
96.9578115507682412
 30
0.0
  0
VERTEX
  5
2E2E
  8
0
 10
48.7097093022743977
 20
96.9636916616809117
 30
0.0
  0
VERTEX
  5
2E2F
  8
0
 10
48.8088688910220867
 20
96.9691193807721703
 30
0.0
  0
VERTEX
  5
2E30
  8
0
 10
48.9080501969725105
 20
96.9740710873136464
 30
0.0
  0
VERTEX
  5
2E31
  8
0
 10
49.0072517070364597
 20
96.9785231605769553
 30
0.0
  0
VERTEX
  5
2E32
  8
0
 10
49.1064719081247674
 20
96.9824519798337121
 30
0.0
  0
VERTEX
  5
2E33
  8
0
 10
49.2057092613856568
 20
96.9858394201633445
 30
0.0
  0
VERTEX
  5
2E34
  8
0
 10
49.3049619827776908
 20
96.9887196613999549
 30
0.0
  0
VERTEX
  5
2E35
  8
0
 10
49.4042281525422595
 20
96.9911558351337817
 30
0.0
  0
VERTEX
  5
2E36
  8
0
 10
49.5035058494831901
 20
96.9932113795795487
 30
0.0
  0
VERTEX
  5
2E37
  8
0
 10
49.6027931524045016
 20
96.9949497329518806
 30
0.0
  0
VERTEX
  5
2E38
  8
0
 10
49.7020881401101065
 20
96.996434333465487
 30
0.0
  0
VERTEX
  5
2E39
  8
0
 10
49.80138889140391
 20
96.9977286193350636
 30
0.0
  0
VERTEX
  5
2E3A
  8
0
 10
49.9006934850898531
 20
96.9988960287752633
 30
0.0
  0
VERTEX
  5
2E3B
  8
0
 10
49.9999999999718625
 20
97.00000000000081
 30
0.0
  0
SEQEND
  5
2E3C
  8
0
  0
POLYLINE
  5
2A44
  8
0
 66
     1
 10
0.0
 20
0.0
 30
0.0
  0
VERTEX
  5
2E3D
  8
0
 10
49.9999999999718625
 20
92.0000000000007532
 30
0.0
  0
VERTEX
  5
2E3E
  8
0
 10
49.9152290435577015
 20
92.0004739137070544
 30
0.0
  0
VERTEX
  5
2E3F
  8
0
 10
49.8304592921184621
 20
92.0010273336437336
 30
0.0
  0
VERTEX
  5
2E40
  8
0
 10
49.7456919506289523
 20
92.0017397660411831
 30
0.0
  0
VERTEX
  5
2E41
  8
0
 10
49.6609282240640368
 20
92.002690717129795
 30
0.0
  0
VERTEX
  5
2E42
  8
0
 10
49.5761693173985307
 20
92.0039596931399188
 30
0.0
  0
VERTEX
  5
2E43
  8
0
 10
49.4914164281721014
 20
92.0056138574403803
 30
0.0
  0
VERTEX
  5
2E44
  8
0
 10
49.4066707136476566
 20
92.0076535126861188
 30
0.0
  0
VERTEX
  5
2E45
  8
0
 10
49.3219333175136967
 20
92.010056427234673
 30
0.0
  0
VERTEX
  5
2E46
  8
0
 10
49.2372053834482699
 20
92.0128003522313236
 30
0.0
  0
VERTEX
  5
2E47
  8
0
 10
49.1524880551294174
 20
92.0158630388214647
 30
0.0
  0
VERTEX
  5
2E48
  8
0
 10
49.0677824770809323
 20
92.0192246076683489
 30
0.0
  0
VERTEX
  5
2E49
  8
0
 10
48.9830897996063115
 20
92.0228813733733233
 30
0.0
  0
VERTEX
  5
2E4A
  8
0
 10
48.8984111754262472
 20
92.0268364231530143
 30
0.0
  0
VERTEX
  5
2E4B
  8
0
 10
48.8137477572696028
 20
92.031092867043057
 30
0.0
  0
VERTEX
  5
2E4C
  8
0
 10
48.729100697865249
 20
92.0356538150791437
 30
0.0
  0
VERTEX
  5
2E4D
  8
0
 10
48.6444710745923885
 20
92.0405215542870252
 30
0.0
  0
VERTEX
  5
2E4E
  8
0
 10
48.5598592466810075
 20
92.0456905276788859
 30
0.0
  0
VERTEX
  5
2E4F
  8
0
 10
48.4752651753964798
 20
92.0511508314801006
 30
0.0
  0
VERTEX
  5
2E50
  8
0
 10
48.3906888177735865
 20
92.0568925157082134
 30
0.0
  0
VERTEX
  5
2E51
  8
0
 10
48.3061301308471229
 20
92.0629056303807687
 30
0.0
  0
VERTEX
  5
2E52
  8
0
 10
48.2215891169453315
 20
92.0691806135775863
 30
0.0
  0
VERTEX
  5
2E53
  8
0
 10
48.1370666275694816
 20
92.0757151788623105
 30
0.0
  0
VERTEX
  5
2E54
  8
0
 10
48.0525642684584682
 20
92.0825135019029801
 30
0.0
  0
VERTEX
  5
2E55
  8
0
 10
47.9680836715739289
 20
92.0895799830369128
 30
0.0
  0
VERTEX
  5
2E56
  8
0
 10
47.8836264688774165
 20
92.0969190226014973
 30
0.0
  0
VERTEX
  5
2E57
  8
0
 10
47.7991942923306965
 20
92.1045350209340938
 30
0.0
  0
VERTEX
  5
2E58
  8
0
 10
47.7147887738952932
 20
92.1124323783720769
 30
0.0
  0
VERTEX
  5
2E59
  8
0
 10
47.6304115455328585
 20
92.1206154952527356
 30
0.0
  0
VERTEX
  5
2E5A
  8
0
 10
47.546064239205009
 20
92.129088771913473
 30
0.0
  0
VERTEX
  5
2E5B
  8
0
 10
47.4617484868734323
 20
92.1378566086916635
 30
0.0
  0
VERTEX
  5
2E5C
  8
0
 10
47.3774658580971391
 20
92.1469229820397544
 30
0.0
  0
VERTEX
  5
2E5D
  8
0
 10
47.2932158102468634
 20
92.1562775208569889
 30
0.0
  0
VERTEX
  5
2E5E
  8
0
 10
47.2089952257199386
 20
92.1658923629085223
 30
0.0
  0
VERTEX
  5
2E5F
  8
0
 10
47.1248008308137969
 20
92.1757385856127769
 30
0.0
  0
VERTEX
  5
2E60
  8
0
 10
47.0406293518258281
 20
92.1857872663881466
 30
0.0
  0
VERTEX
  5
2E61
  8
0
 10
46.9564775150533933
 20
92.1960094826530678
 30
0.0
  0
VERTEX
  5
2E62
  8
0
 10
46.8723420467939604
 20
92.2063763118259203
 30
0.0
  0
VERTEX
  5
2E63
  8
0
 10
46.7882196733448765
 20
92.2168588313251263
 30
0.0
  0
VERTEX
  5
2E64
  8
0
 10
46.7041071210036307
 20
92.2274281185691223
 30
0.0
  0
VERTEX
  5
2E65
  8
0
 10
46.6200011160675487
 20
92.2380552509762737
 30
0.0
  0
VERTEX
  5
2E66
  8
0
 10
46.5358983848340699
 20
92.248711305965017
 30
0.0
  0
SEQEND
  5
2E67
  8
0
  0
POLYLINE
  5
2A45
  8
0
 66
     1
 10
0.0
 20
0.0
 30
0.0
  0
VERTEX
  5
2E68
  8
0
 10
53.4641016151095414
 20
92.248711305965017
 30
0.0
  0
VERTEX
  5
2E69
  8
0
 10
53.3656146841188388
 20
92.236007965764756
 30
0.0
  0
VERTEX
  5
2E6A
  8
0
 10
53.267119871173243
 20
92.2233697092211884
 30
0.0
  0
VERTEX
  5
2E6B
  8
0
 10
53.1686092943178323
 20
92.2108616199911637
 30
0.0
  0
VERTEX
  5
2E6C
  8
0
 10
53.0700750715977776
 20
92.1985487817313043
 30
0.0
  0
VERTEX
  5
2E6D
  8
0
 10
52.9715093210581429
 20
92.1864962780984172
 30
0.0
  0
VERTEX
  5
2E6E
  8
0
 10
52.8729041610071704
 20
92.1747691909475861
 30
0.0
  0
VERTEX
  5
2E6F
  8
0
 10
52.7742537646181518
 20
92.163418531891395
 30
0.0
  0
VERTEX
  5
2E70
  8
0
 10
52.6755593180992605
 20
92.152447292310697
 30
0.0
  0
VERTEX
  5
2E71
  8
0
 10
52.5768235024862065
 20
92.1418482280786293
 30
0.0
  0
VERTEX
  5
2E72
  8
0
 10
52.4780489988148133
 20
92.131614095068386
 30
0.0
  0
VERTEX
  5
2E73
  8
0
 10
52.3792384881207909
 20
92.1217376491531752
 30
0.0
  0
VERTEX
  5
2E74
  8
0
 10
52.2803946450632679
 20
92.1122116650859368
 30
0.0
  0
VERTEX
  5
2E75
  8
0
 10
52.1815193680470202
 20
92.1030312159195148
 30
0.0
  0
VERTEX
  5
2E76
  8
0
 10
52.0826130453520477
 20
92.0941958458182768
 30
0.0
  0
VERTEX
  5
2E77
  8
0
 10
51.9836758914019583
 20
92.0857056136929941
 30
0.0
  0
VERTEX
  5
2E78
  8
0
 10
51.8847081206203526
 20
92.0775605784543245
 30
0.0
  0
VERTEX
  5
2E79
  8
0
 10
51.7857099474309166
 20
92.0697607990130393
 30
0.0
  0
VERTEX
  5
2E7A
  8
0
 10
51.6866816188501232
 20
92.0623069256157436
 30
0.0
  0
VERTEX
  5
2E7B
  8
0
 10
51.5876240298046582
 20
92.0552113636093026
 30
0.0
  0
VERTEX
  5
2E7C
  8
0
 10
51.4885386711999331
 20
92.0484973312390906
 30
0.0
  0
VERTEX
  5
2E7D
  8
0
 10
51.3894270561250366
 20
92.0421884492334783
 30
0.0
  0
VERTEX
  5
2E7E
  8
0
 10
51.2902906976691426
 20
92.0363083383208647
 30
0.0
  0
VERTEX
  5
2E7F
  8
0
 10
51.1911311089214678
 20
92.0308806192296345
 30
0.0
  0
VERTEX
  5
2E80
  8
0
 10
51.0919498029711008
 20
92.0259289126881583
 30
0.0
  0
VERTEX
  5
2E81
  8
0
 10
50.9927482929071516
 20
92.0214768394248637
 30
0.0
  0
VERTEX
  5
2E82
  8
0
 10
50.89352809181878
 20
92.0175480201681069
 30
0.0
  0
VERTEX
  5
2E83
  8
0
 10
50.7942907385579474
 20
92.0141605798384745
 30
0.0
  0
VERTEX
  5
2E84
  8
0
 10
50.6950380171659205
 20
92.0112803386018356
 30
0.0
  0
VERTEX
  5
2E85
  8
0
 10
50.5957718474014086
 20
92.0088441648679947
 30
0.0
  0
VERTEX
  5
2E86
  8
0
 10
50.4964941504604212
 20
92.0067886204221992
 30
0.0
  0
VERTEX
  5
2E87
  8
0
 10
50.3972068475391595
 20
92.0050502670498247
 30
0.0
  0
VERTEX
  5
2E88
  8
0
 10
50.2979118598335617
 20
92.0035656665361472
 30
0.0
  0
VERTEX
  5
2E89
  8
0
 10
50.1986111085398008
 20
92.0022713806665564
 30
0.0
  0
VERTEX
  5
2E8A
  8
0
 10
50.099306514853879
 20
92.0011039712263141
 30
0.0
  0
VERTEX
  5
2E8B
  8
0
 10
49.9999999999718625
 20
92.0000000000007532
 30
0.0
  0
SEQEND
  5
2E8C
  8
0
  0
POLYLINE
  5
2A46
  8
0
 66
     1
 10
0.0
 20
0.0
 30
0.0
  0
VERTEX
  5
2E8D
  8
0
 10
43.0717967696963626
 20
135.0000000000412967
 30
0.0
  0
VERTEX
  5
2E8E
  8
0
 10
43.1210523723215715
 20
134.914714477722498
 30
0.0
  0
VERTEX
  5
2E8F
  8
0
 10
43.1703114708981772
 20
134.8294219100664861
 30
0.0
  0
VERTEX
  5
2E90
  8
0
 10
43.2195775613775481
 20
134.74411525173619
 30
0.0
  0
VERTEX
  5
2E91
  8
0
 10
43.2688541397110882
 20
134.6587874573945101
 30
0.0
  0
VERTEX
  5
2E92
  8
0
 10
43.3181447018501729
 20
134.57343148170429
 30
0.0
  0
VERTEX
  5
2E93
  8
0
 10
43.3674527437240371
 20
134.4880402793602912
 30
0.0
  0
VERTEX
  5
2E94
  8
0
 10
43.4167806696761076
 20
134.4026083755431102
 30
0.0
  0
VERTEX
  5
2E95
  8
0
 10
43.4661268698046612
 20
134.3171360708053896
 30
0.0
  0
VERTEX
  5
2E96
  8
0
 10
43.5154888116782104
 20
134.2316249929619119
 30
0.0
  0
VERTEX
  5
2E97
  8
0
 10
43.5648639628651324
 20
134.146076769826891
 30
0.0
  0
VERTEX
  5
2E98
  8
0
 10
43.6142497909338474
 20
134.0604930292151948
 30
0.0
  0
VERTEX
  5
2E99
  8
0
 10
43.6636437747105717
 20
133.9748754016584087
 30
0.0
  0
VERTEX
  5
2E9A
  8
0
 10
43.7130457746357024
 20
133.8892260925323967
 30
0.0
  0
VERTEX
  5
2E9B
  8
0
 10
43.7624609623809704
 20
133.8035485891712142
 30
0.0
  0
VERTEX
  5
2E9C
  8
0
 10
43.8118952278808464
 20
133.7178465522740112
 30
0.0
  0
VERTEX
  5
2E9D
  8
0
 10
43.8613544610697588
 20
133.6321236425401082
 30
0.0
  0
VERTEX
  5
2E9E
  8
0
 10
43.9108445518820929
 20
133.5463835206683996
 30
0.0
  0
VERTEX
  5
2E9F
  8
0
 10
43.960371197196757
 20
133.4606297598436981
 30
0.0
  0
VERTEX
  5
2EA0
  8
0
 10
44.0099346548162771
 20
133.3748634676404095
 30
0.0
  0
VERTEX
  5
2EA1
  8
0
 10
44.0595291228801713
 20
133.2890830047030875
 30
0.0
  0
VERTEX
  5
2EA2
  8
0
 10
44.1091484819008315
 20
133.2032865876913093
 30
0.0
  0
VERTEX
  5
2EA3
  8
0
 10
44.1587866123904789
 20
133.1174724332645098
 30
0.0
  0
VERTEX
  5
2EA4
  8
0
 10
44.2084373948614697
 20
133.0316387580822095
 30
0.0
  0
VERTEX
  5
2EA5
  8
0
 10
44.2580947098261106
 20
132.9457837788039001
 30
0.0
  0
VERTEX
  5
2EA6
  8
0
 10
44.3077524377966299
 20
132.8599057120891871
 30
0.0
  0
VERTEX
  5
2EA7
  8
0
 10
44.3574044592854193
 20
132.7740027745975908
 30
0.0
  0
VERTEX
  5
2EA8
  8
0
 10
44.4070450709087865
 20
132.6880734485941957
 30
0.0
  0
VERTEX
  5
2EA9
  8
0
 10
44.4566730669421304
 20
132.6021190872704096
 30
0.0
  0
VERTEX
  5
2EAA
  8
0
 10
44.5062899898799387
 20
132.5161427980484063
 30
0.0
  0
VERTEX
  5
2EAB
  8
0
 10
44.5558974215930093
 20
132.4301477134852121
 30
0.0
  0
VERTEX
  5
2EAC
  8
0
 10
44.6054969439521827
 20
132.3441369661377109
 30
0.0
  0
VERTEX
  5
2EAD
  8
0
 10
44.6550901388282
 20
132.2581136885627018
 30
0.0
  0
VERTEX
  5
2EAE
  8
0
 10
44.7046785880918307
 20
132.1720810133170119
 30
0.0
  0
VERTEX
  5
2EAF
  8
0
 10
44.7542638736139224
 20
132.0860420729576106
 30
0.0
  0
VERTEX
  5
2EB0
  8
0
 10
44.8038475772652305
 20
132.0000000000414104
 30
0.0
  0
SEQEND
  5
2EB1
  8
0
  0
POLYLINE
  5
2A47
  8
0
 66
     1
 10
0.0
 20
0.0
 30
0.0
  0
VERTEX
  5
2EB2
  8
0
 10
44.8038475772652305
 20
138.0000000000412967
 30
0.0
  0
VERTEX
  5
2EB3
  8
0
 10
44.7615024840849287
 20
137.9265628510617034
 30
0.0
  0
VERTEX
  5
2EB4
  8
0
 10
44.7191580003027127
 20
137.8531267399717137
 30
0.0
  0
VERTEX
  5
2EB5
  8
0
 10
44.6768147353167535
 20
137.7796927046611017
 30
0.0
  0
VERTEX
  5
2EB6
  8
0
 10
44.6344732985251582
 20
137.7062617830193858
 30
0.0
  0
VERTEX
  5
2EB7
  8
0
 10
44.5921342993260623
 20
137.6328350129363116
 30
0.0
  0
VERTEX
  5
2EB8
  8
0
 10
44.5497978494905169
 20
137.5594137112472026
 30
0.0
  0
VERTEX
  5
2EB9
  8
0
 10
44.5074613599564088
 20
137.4860007087442
 30
0.0
  0
VERTEX
  5
2EBA
  8
0
 10
44.4651213297043668
 20
137.4125993474185918
 30
0.0
  0
VERTEX
  5
2EBB
  8
0
 10
44.4227742570064379
 20
137.3392129696592008
 30
0.0
  0
VERTEX
  5
2EBC
  8
0
 10
44.3804166401345981
 20
137.2658449178545084
 30
0.0
  0
VERTEX
  5
2EBD
  8
0
 10
44.3380457602487468
 20
137.192498083679709
 30
0.0
  0
VERTEX
  5
2EBE
  8
0
 10
44.2956642568301788
 20
137.1191722739912109
 30
0.0
  0
VERTEX
  5
2EBF
  8
0
 10
44.2532770132586393
 20
137.0458660038194125
 30
0.0
  0
VERTEX
  5
2EC0
  8
0
 10
44.2108889205261519
 20
136.9725777838118859
 30
0.0
  0
VERTEX
  5
2EC1
  8
0
 10
44.1685048696246625
 20
136.8993061246166008
 30
0.0
  0
VERTEX
  5
2EC2
  8
0
 10
44.1261296097428826
 20
136.8260495314895024
 30
0.0
  0
VERTEX
  5
2EC3
  8
0
 10
44.083766541067952
 20
136.752806458392314
 30
0.0
  0
VERTEX
  5
2EC4
  8
0
 10
44.0414183173383265
 20
136.6795753309039014
 30
0.0
  0
VERTEX
  5
2EC5
  8
0
 10
43.9990875843956175
 20
136.6063545743029977
 30
0.0
  0
VERTEX
  5
2EC6
  8
0
 10
43.9567769880814012
 20
136.5331426138683071
 30
0.0
  0
VERTEX
  5
2EC7
  8
0
 10
43.914489062552569
 20
136.4599379922204037
 30
0.0
  0
VERTEX
  5
2EC8
  8
0
 10
43.8722242698352431
 20
136.3867414290720887
 30
0.0
  0
VERTEX
  5
2EC9
  8
0
 10
43.8299812431065376
 20
136.3135555656238012
 30
0.0
  0
VERTEX
  5
2ECA
  8
0
 10
43.7877585527533313
 20
136.2403831090464053
 30
0.0
  0
VERTEX
  5
2ECB
  8
0
 10
43.74555476916251
 20
136.1672267665109928
 30
0.0
  0
VERTEX
  5
2ECC
  8
0
 10
43.7033684627209524
 20
136.0940892451885134
 30
0.0
  0
VERTEX
  5
2ECD
  8
0
 10
43.6611982038155304
 20
136.0209732522498882
 30
0.0
  0
VERTEX
  5
2ECE
  8
0
 10
43.6190425628331866
 20
135.947881494866408
 30
0.0
  0
VERTEX
  5
2ECF
  8
0
 10
43.5769001101607216
 20
135.8748166802089088
 30
0.0
  0
VERTEX
  5
2ED0
  8
0
 10
43.5347694161850924
 20
135.8017815154483117
 30
0.0
  0
VERTEX
  5
2ED1
  8
0
 10
43.4926490579916774
 20
135.7287786306306998
 30
0.0
  0
VERTEX
  5
2ED2
  8
0
 10
43.4505378363455108
 20
135.655808080404114
 30
0.0
  0
VERTEX
  5
2ED3
  8
0
 10
43.4084348229572186
 20
135.5828667998092953
 30
0.0
  0
VERTEX
  5
2ED4
  8
0
 10
43.3663391057981471
 20
135.5099515366651985
 30
0.0
  0
VERTEX
  5
2ED5
  8
0
 10
43.3242497728396927
 20
135.4370590387902951
 30
0.0
  0
VERTEX
  5
2ED6
  8
0
 10
43.2821659120531308
 20
135.3641860540033122
 30
0.0
  0
VERTEX
  5
2ED7
  8
0
 10
43.2400866114098505
 20
135.2913293301230055
 30
0.0
  0
VERTEX
  5
2ED8
  8
0
 10
43.1980109588811771
 20
135.2184856149679888
 30
0.0
  0
VERTEX
  5
2ED9
  8
0
 10
43.1559380424384926
 20
135.1456516563569039
 30
0.0
  0
VERTEX
  5
2EDA
  8
0
 10
43.1138669500530796
 20
135.0728242021085066
 30
0.0
  0
VERTEX
  5
2EDB
  8
0
 10
43.0717967696963626
 20
135.0000000000412967
 30
0.0
  0
SEQEND
  5
2EDC
  8
0
  0
POLYLINE
  5
2A48
  8
0
 66
     1
 10
0.0
 20
0.0
 30
0.0
  0
VERTEX
  5
2EDD
  8
0
 10
55.1961524226784306
 20
132.0000000000414104
 30
0.0
  0
VERTEX
  5
2EDE
  8
0
 10
55.2384975158588531
 20
132.07343714902089
 30
0.0
  0
VERTEX
  5
2EDF
  8
0
 10
55.2808419996411615
 20
132.1468732601107945
 30
0.0
  0
VERTEX
  5
2EE0
  8
0
 10
55.3231852646272273
 20
132.2203072954214065
 30
0.0
  0
VERTEX
  5
2EE1
  8
0
 10
55.3655267014189576
 20
132.2937382170630087
 30
0.0
  0
VERTEX
  5
2EE2
  8
0
 10
55.4078657006182311
 20
132.3671649871459977
 30
0.0
  0
VERTEX
  5
2EE3
  8
0
 10
55.45020215045394
 20
132.4405862888351066
 30
0.0
  0
VERTEX
  5
2EE4
  8
0
 10
55.492538639988247
 20
132.5139992913379956
 30
0.0
  0
VERTEX
  5
2EE5
  8
0
 10
55.5348786702404524
 20
132.5874006526632911
 30
0.0
  0
VERTEX
  5
2EE6
  8
0
 10
55.5772257429385874
 20
132.6607870304225969
 30
0.0
  0
VERTEX
  5
2EE7
  8
0
 10
55.6195833598106404
 20
132.734155082227204
 30
0.0
  0
VERTEX
  5
2EE8
  8
0
 10
55.6619542396966267
 20
132.8075019164018897
 30
0.0
  0
VERTEX
  5
2EE9
  8
0
 10
55.7043357431153296
 20
132.8808277260903026
 30
0.0
  0
VERTEX
  5
2EEA
  8
0
 10
55.7467229866869616
 20
132.9541339962621009
 30
0.0
  0
VERTEX
  5
2EEB
  8
0
 10
55.7891110794194489
 20
133.0274222162695992
 30
0.0
  0
VERTEX
  5
2EEC
  8
0
 10
55.8314951303208318
 20
133.1006938754649127
 30
0.0
  0
VERTEX
  5
2EED
  8
0
 10
55.8738703902023985
 20
133.17395046859221
 30
0.0
  0
VERTEX
  5
2EEE
  8
0
 10
55.9162334588770591
 20
133.2471935416895974
 30
0.0
  0
VERTEX
  5
2EEF
  8
0
 10
55.9585816826062796
 20
133.3204246691782089
 30
0.0
  0
VERTEX
  5
2EF0
  8
0
 10
56.0009124155485623
 20
133.3936454257793116
 30
0.0
  0
VERTEX
  5
2EF1
  8
0
 10
56.0432230118623806
 20
133.4668573862142864
 30
0.0
  0
VERTEX
  5
2EF2
  8
0
 10
56.0855109373908434
 20
133.5400620078625025
 30
0.0
  0
VERTEX
  5
2EF3
  8
0
 10
56.1277757301078282
 20
133.6132585710109879
 30
0.0
  0
VERTEX
  5
2EF4
  8
0
 10
56.1700187568362708
 20
133.6864444344593892
 30
0.0
  0
VERTEX
  5
2EF5
  8
0
 10
56.2122414471892213
 20
133.7596168910370125
 30
0.0
  0
VERTEX
  5
2EF6
  8
0
 10
56.2544452307798721
 20
133.8327732335725102
 30
0.0
  0
VERTEX
  5
2EF7
  8
0
 10
56.2966315372212307
 20
133.9059107548951033
 30
0.0
  0
VERTEX
  5
2EF8
  8
0
 10
56.3388017961265177
 20
133.9790267478337
 30
0.0
  0
VERTEX
  5
2EF9
  8
0
 10
56.3809574371088118
 20
134.0521185052172939
 30
0.0
  0
VERTEX
  5
2EFA
  8
0
 10
56.4230998897812128
 20
134.1251833198749068
 30
0.0
  0
VERTEX
  5
2EFB
  8
0
 10
56.4652305837568633
 20
134.1982184846353903
 30
0.0
  0
VERTEX
  5
2EFC
  8
0
 10
56.5073509419503424
 20
134.2712213694530021
 30
0.0
  0
VERTEX
  5
2EFD
  8
0
 10
56.5494621635965586
 20
134.344191919679588
 30
0.0
  0
VERTEX
  5
2EFE
  8
0
 10
56.5915651769849504
 20
134.4171332002742929
 30
0.0
  0
VERTEX
  5
2EFF
  8
0
 10
56.6336608941440929
 20
134.4900484634183044
 30
0.0
  0
VERTEX
  5
2F00
  8
0
 10
56.6757502271027533
 20
134.5629409612930942
 30
0.0
  0
VERTEX
  5
2F01
  8
0
 10
56.7178340878894574
 20
134.6358139460799919
 30
0.0
  0
VERTEX
  5
2F02
  8
0
 10
56.7599133885329294
 20
134.7086706699602132
 30
0.0
  0
VERTEX
  5
2F03
  8
0
 10
56.8019890410618018
 20
134.7815143851152015
 30
0.0
  0
VERTEX
  5
2F04
  8
0
 10
56.8440619575046568
 20
134.8543483437260875
 30
0.0
  0
VERTEX
  5
2F05
  8
0
 10
56.8861330498902973
 20
134.9271757979743995
 30
0.0
  0
VERTEX
  5
2F06
  8
0
 10
56.9282032302472771
 20
135.0000000000414104
 30
0.0
  0
SEQEND
  5
2F07
  8
0
  0
POLYLINE
  5
2A49
  8
0
 66
     1
 10
0.0
 20
0.0
 30
0.0
  0
VERTEX
  5
2F08
  8
0
 10
56.9282032302472203
 20
135.0000000000412967
 30
0.0
  0
VERTEX
  5
2F09
  8
0
 10
56.878947627621983
 20
135.0852855223602091
 30
0.0
  0
VERTEX
  5
2F0A
  8
0
 10
56.8296885290453702
 20
135.1705780900161926
 30
0.0
  0
VERTEX
  5
2F0B
  8
0
 10
56.7804224385659424
 20
135.2558847483464888
 30
0.0
  0
VERTEX
  5
2F0C
  8
0
 10
56.7311458602323526
 20
135.3412125426881119
 30
0.0
  0
VERTEX
  5
2F0D
  8
0
 10
56.6818552980931827
 20
135.4265685183783035
 30
0.0
  0
VERTEX
  5
2F0E
  8
0
 10
56.6325472562192473
 20
135.5119597207221034
 30
0.0
  0
VERTEX
  5
2F0F
  8
0
 10
56.5832193302670703
 20
135.5973916245393127
 30
0.0
  0
VERTEX
  5
2F10
  8
0
 10
56.5338731301383675
 20
135.6828639292768912
 30
0.0
  0
VERTEX
  5
2F11
  8
0
 10
56.4845111882647117
 20
135.7683750071203974
 30
0.0
  0
VERTEX
  5
2F12
  8
0
 10
56.4351360370777684
 20
135.8539232302551909
 30
0.0
  0
VERTEX
  5
2F13
  8
0
 10
56.3857502090089611
 20
135.9395069708670007
 30
0.0
  0
VERTEX
  5
2F14
  8
0
 10
56.3363562252322367
 20
136.0251245984237016
 30
0.0
  0
VERTEX
  5
2F15
  8
0
 10
56.2869542253072197
 20
136.1107739075497989
 30
0.0
  0
VERTEX
  5
2F16
  8
0
 10
56.237539037562037
 20
136.1964514109110951
 30
0.0
  0
VERTEX
  5
2F17
  8
0
 10
56.1881047720623314
 20
136.2821534478082981
 30
0.0
  0
VERTEX
  5
2F18
  8
0
 10
56.1386455388736181
 20
136.3678763575424
 30
0.0
  0
VERTEX
  5
2F19
  8
0
 10
56.08915544806149
 20
136.4536164794141087
 30
0.0
  0
VERTEX
  5
2F1A
  8
0
 10
56.0396288027469609
 20
136.539370240239009
 30
0.0
  0
VERTEX
  5
2F1B
  8
0
 10
55.9900653451276185
 20
136.6251365324424114
 30
0.0
  0
VERTEX
  5
2F1C
  8
0
 10
55.9404708770638308
 20
136.710916995379705
 30
0.0
  0
VERTEX
  5
2F1D
  8
0
 10
55.8908515180432914
 20
136.7967134123915969
 30
0.0
  0
VERTEX
  5
2F1E
  8
0
 10
55.8412133875537506
 20
136.88252756681851
 30
0.0
  0
VERTEX
  5
2F1F
  8
0
 10
55.7915626050827882
 20
136.9683612420008956
 30
0.0
  0
VERTEX
  5
2F20
  8
0
 10
55.741905290118261
 20
137.054216221279205
 30
0.0
  0
VERTEX
  5
2F21
  8
0
 10
55.6922475621477133
 20
137.1400942879940033
 30
0.0
  0
VERTEX
  5
2F22
  8
0
 10
55.642595540658931
 20
137.2259972254855995
 30
0.0
  0
VERTEX
  5
2F23
  8
0
 10
55.5929549290355496
 20
137.3119265514889094
 30
0.0
  0
VERTEX
  5
2F24
  8
0
 10
55.5433269330021631
 20
137.3978809128128091
 30
0.0
  0
VERTEX
  5
2F25
  8
0
 10
55.4937100100643192
 20
137.4838572020346987
 30
0.0
  0
VERTEX
  5
2F26
  8
0
 10
55.4441025783511421
 20
137.5698522865978077
 30
0.0
  0
VERTEX
  5
2F27
  8
0
 10
55.3945030559918905
 20
137.6558630339453089
 30
0.0
  0
VERTEX
  5
2F28
  8
0
 10
55.3449098611158092
 20
137.7418863115202896
 30
0.0
  0
VERTEX
  5
2F29
  8
0
 10
55.2953214118520577
 20
137.8279189867658943
 30
0.0
  0
VERTEX
  5
2F2A
  8
0
 10
55.2457361263298594
 20
137.9139579271252103
 30
0.0
  0
VERTEX
  5
2F2B
  8
0
 10
55.1961524226784306
 20
138.0000000000414104
 30
0.0
  0
SEQEND
  5
2F2C
  8
0
  0
POLYLINE
  5
2A4A
  8
0
 66
     1
 10
0.0
 20
0.0
 30
0.0
  0
VERTEX
  5
2F2D
  8
0
 10
53.4641016151095414
 20
141.0000000000414104
 30
0.0
  0
VERTEX
  5
2F2E
  8
0
 10
53.3656146841188388
 20
140.9999857444699956
 30
0.0
  0
VERTEX
  5
2F2F
  8
0
 10
53.267119871173243
 20
140.9999719361726989
 30
0.0
  0
VERTEX
  5
2F30
  8
0
 10
53.1686092943178323
 20
140.9999590224238943
 30
0.0
  0
VERTEX
  5
2F31
  8
0
 10
53.0700750715977776
 20
140.9999474504977002
 30
0.0
  0
VERTEX
  5
2F32
  8
0
 10
52.9715093210581429
 20
140.9999376676682914
 30
0.0
  0
VERTEX
  5
2F33
  8
0
 10
52.8729041610071135
 20
140.9999301212351099
 30
0.0
  0
VERTEX
  5
2F34
  8
0
 10
52.774253764618102
 20
140.9999254560337079
 30
0.0
  0
VERTEX
  5
2F35
  8
0
 10
52.6755593180991966
 20
140.9999249910686956
 30
0.0
  0
VERTEX
  5
2F36
  8
0
 10
52.5768235024861426
 20
140.9999301890435106
 30
0.0
  0
VERTEX
  5
2F37
  8
0
 10
52.4780489988147565
 20
140.999942512661903
 30
0.0
  0
VERTEX
  5
2F38
  8
0
 10
52.3792384881207269
 20
140.9999634246275093
 30
0.0
  0
VERTEX
  5
2F39
  8
0
 10
52.2803946450632679
 20
140.9999943659695134
 30
0.0
  0
VERTEX
  5
2F3A
  8
0
 10
52.1815193680470202
 20
141.000034139208509
 30
0.0
  0
VERTEX
  5
2F3B
  8
0
 10
52.0826130453520477
 20
141.0000764139124954
 30
0.0
  0
VERTEX
  5
2F3C
  8
0
 10
51.9836758914020081
 20
141.0001142687067954
 30
0.0
  0
VERTEX
  5
2F3D
  8
0
 10
51.8847081206204166
 20
141.0001407822169028
 30
0.0
  0
VERTEX
  5
2F3E
  8
0
 10
51.7857099474309734
 20
141.0001490330681122
 30
0.0
  0
VERTEX
  5
2F3F
  8
0
 10
51.686681618850173
 20
141.0001324273038108
 30
0.0
  0
VERTEX
  5
2F40
  8
0
 10
51.587624029804708
 20
141.0000908796679084
 30
0.0
  0
VERTEX
  5
2F41
  8
0
 10
51.4885386711999899
 20
141.0000302919158912
 30
0.0
  0
VERTEX
  5
2F42
  8
0
 10
51.3894270561251005
 20
140.9999567886547993
 30
0.0
  0
VERTEX
  5
2F43
  8
0
 10
51.2902906976692634
 20
140.9998764944915024
 30
0.0
  0
VERTEX
  5
2F44
  8
0
 10
51.1911311089215815
 20
140.9997955340332112
 30
0.0
  0
VERTEX
  5
2F45
  8
0
 10
51.0919498029711505
 20
140.9997200318869091
 30
0.0
  0
VERTEX
  5
2F46
  8
0
 10
50.9927482929072724
 20
140.9996561126594088
 30
0.0
  0
VERTEX
  5
2F47
  8
0
 10
50.8935280918188866
 20
140.9996099009580064
 30
0.0
  0
VERTEX
  5
2F48
  8
0
 10
50.7942907385579971
 20
140.9995869500451988
 30
0.0
  0
VERTEX
  5
2F49
  8
0
 10
50.6950380171659774
 20
140.9995873755817115
 30
0.0
  0
VERTEX
  5
2F4A
  8
0
 10
50.5957718474014086
 20
140.9996082834034041
 30
0.0
  0
VERTEX
  5
2F4B
  8
0
 10
50.496494150460471
 20
140.9996467474695976
 30
0.0
  0
VERTEX
  5
2F4C
  8
0
 10
50.3972068475391595
 20
140.9996998417394991
 30
0.0
  0
VERTEX
  5
2F4D
  8
0
 10
50.2979118598335617
 20
140.9997646401722875
 30
0.0
  0
VERTEX
  5
2F4E
  8
0
 10
50.1986111085398008
 20
140.9998382167275111
 30
0.0
  0
VERTEX
  5
2F4F
  8
0
 10
50.099306514853879
 20
140.9999176453640075
 30
0.0
  0
VERTEX
  5
2F50
  8
0
 10
49.9999999999718625
 20
141.0000000000414104
 30
0.0
  0
SEQEND
  5
2F51
  8
0
  0
POLYLINE
  5
2A4B
  8
0
 66
     1
 10
0.0
 20
0.0
 30
0.0
  0
VERTEX
  5
2F52
  8
0
 10
55.1961524226784306
 20
138.0000000000412967
 30
0.0
  0
VERTEX
  5
2F53
  8
0
 10
55.1537265326707029
 20
138.0733905009508931
 30
0.0
  0
VERTEX
  5
2F54
  8
0
 10
55.11130123680271
 20
138.1467799551614064
 30
0.0
  0
VERTEX
  5
2F55
  8
0
 10
55.0688771292141723
 20
138.220167315973697
 30
0.0
  0
VERTEX
  5
2F56
  8
0
 10
55.0264548040448673
 20
138.2935515366887103
 30
0.0
  0
VERTEX
  5
2F57
  8
0
 10
54.9840348554345226
 20
138.3669315706075054
 30
0.0
  0
VERTEX
  5
2F58
  8
0
 10
54.9416183679104506
 20
138.44030666251561
 30
0.0
  0
VERTEX
  5
2F59
  8
0
 10
54.899209087541692
 20
138.5136776392106128
 30
0.0
  0
VERTEX
  5
2F5A
  8
0
 10
54.8568116590873274
 20
138.5870458616685141
 30
0.0
  0
VERTEX
  5
2F5B
  8
0
 10
54.8144307280048224
 20
138.6604126912804986
 30
0.0
  0
VERTEX
  5
2F5C
  8
0
 10
54.7720709397515222
 20
138.7337794894376088
 30
0.0
  0
VERTEX
  5
2F5D
  8
0
 10
54.7297361580117965
 20
138.8071471648867998
 30
0.0
  0
VERTEX
  5
2F5E
  8
0
 10
54.6874248957777169
 20
138.8805135283419929
 30
0.0
  0
VERTEX
  5
2F5F
  8
0
 10
54.6451334253379102
 20
138.9538750931573077
 30
0.0
  0
VERTEX
  5
2F60
  8
0
 10
54.6028580113795599
 20
139.0272283682853072
 30
0.0
  0
VERTEX
  5
2F61
  8
0
 10
54.5605949185897927
 20
139.1005698626788956
 30
0.0
  0
VERTEX
  5
2F62
  8
0
 10
54.5183404778880387
 20
139.1738962107922077
 30
0.0
  0
VERTEX
  5
2F63
  8
0
 10
54.4760916502722168
 20
139.247205240995612
 30
0.0
  0
VERTEX
  5
2F64
  8
0
 10
54.4338457453845308
 20
139.3204954422949129
 30
0.0
  0
VERTEX
  5
2F65
  8
0
 10
54.3916000765554415
 20
139.3937653106846994
 30
0.0
  0
VERTEX
  5
2F66
  8
0
 10
54.3493519571154522
 20
139.4670133421595892
 30
0.0
  0
VERTEX
  5
2F67
  8
0
 10
54.3070988578585911
 20
139.5402380707650138
 30
0.0
  0
VERTEX
  5
2F68
  8
0
 10
54.2648411710613274
 20
139.6134387365181055
 30
0.0
  0
VERTEX
  5
2F69
  8
0
 10
54.2225818674817219
 20
139.686615202522205
 30
0.0
  0
VERTEX
  5
2F6A
  8
0
 10
54.1803240064051579
 20
139.7597673532729914
 30
0.0
  0
VERTEX
  5
2F6B
  8
0
 10
54.1380706471170399
 20
139.8328950732662008
 30
0.0
  0
VERTEX
  5
2F6C
  8
0
 10
54.0958248489027866
 20
139.9059982469977967
 30
0.0
  0
VERTEX
  5
2F6D
  8
0
 10
54.0535896710478596
 20
139.9790767589632878
 30
0.0
  0
VERTEX
  5
2F6E
  8
0
 10
54.0113681728376989
 20
140.0521304936586944
 30
0.0
  0
VERTEX
  5
2F6F
  8
0
 10
53.9691634135577303
 20
140.1251593355796103
 30
0.0
  0
VERTEX
  5
2F70
  8
0
 10
53.9269784524933016
 20
140.1981631692218002
 30
0.0
  0
VERTEX
  5
2F71
  8
0
 10
53.8848162787884277
 20
140.2711419118425908
 30
0.0
  0
VERTEX
  5
2F72
  8
0
 10
53.8426775393870685
 20
140.3440965746858922
 30
0.0
  0
VERTEX
  5
2F73
  8
0
 10
53.8005600441015872
 20
140.4170294941532973
 30
0.0
  0
VERTEX
  5
2F74
  8
0
 10
53.7584614324745687
 20
140.4899430861756002
 30
0.0
  0
VERTEX
  5
2F75
  8
0
 10
53.7163793440487893
 20
140.5628397666833962
 30
0.0
  0
VERTEX
  5
2F76
  8
0
 10
53.6743114183668695
 20
140.6357219516073087
 30
0.0
  0
VERTEX
  5
2F77
  8
0
 10
53.6322552949715075
 20
140.7085920568779898
 30
0.0
  0
VERTEX
  5
2F78
  8
0
 10
53.5902086134054301
 20
140.7814524984260913
 30
0.0
  0
VERTEX
  5
2F79
  8
0
 10
53.5481690132112931
 20
140.8543056921822085
 30
0.0
  0
VERTEX
  5
2F7A
  8
0
 10
53.5061341339317593
 20
140.927154054077107
 30
0.0
  0
VERTEX
  5
2F7B
  8
0
 10
53.4641016151095414
 20
141.0000000000412967
 30
0.0
  0
SEQEND
  5
2F7C
  8
0
  0
POLYLINE
  5
2A4C
  8
0
 66
     1
 10
0.0
 20
0.0
 30
0.0
  0
VERTEX
  5
2F7D
  8
0
 10
46.5358983848340699
 20
129.0000000000414104
 30
0.0
  0
VERTEX
  5
2F7E
  8
0
 10
46.6343853158247725
 20
129.0000142556127116
 30
0.0
  0
VERTEX
  5
2F7F
  8
0
 10
46.7328801287703683
 20
129.0000280639098094
 30
0.0
  0
VERTEX
  5
2F80
  8
0
 10
46.8313907056257221
 20
129.0000409776586139
 30
0.0
  0
VERTEX
  5
2F81
  8
0
 10
46.9299249283458266
 20
129.0000525495846944
 30
0.0
  0
VERTEX
  5
2F82
  8
0
 10
47.0284906788854684
 20
129.0000623324139895
 30
0.0
  0
VERTEX
  5
2F83
  8
0
 10
47.1270958389364267
 20
129.0000698788470004
 30
0.0
  0
VERTEX
  5
2F84
  8
0
 10
47.2257462353254596
 20
129.0000745440482035
 30
0.0
  0
VERTEX
  5
2F85
  8
0
 10
47.3244406818443508
 20
129.0000750090131874
 30
0.0
  0
VERTEX
  5
2F86
  8
0
 10
47.4231764974573977
 20
129.0000698110382018
 30
0.0
  0
VERTEX
  5
2F87
  8
0
 10
47.521951001128798
 20
129.0000574874196957
 30
0.0
  0
VERTEX
  5
2F88
  8
0
 10
47.6207615118228205
 20
129.0000365754540894
 30
0.0
  0
VERTEX
  5
2F89
  8
0
 10
47.7196053548803434
 20
129.0000056341121137
 30
0.0
  0
VERTEX
  5
2F8A
  8
0
 10
47.8184806318965769
 20
128.9999658608730897
 30
0.0
  0
VERTEX
  5
2F8B
  8
0
 10
47.9173869545915068
 20
128.9999235861693876
 30
0.0
  0
VERTEX
  5
2F8C
  8
0
 10
48.0163241085416033
 20
128.9998857313752865
 30
0.0
  0
VERTEX
  5
2F8D
  8
0
 10
48.1152918793231876
 20
128.9998592178654917
 30
0.0
  0
VERTEX
  5
2F8E
  8
0
 10
48.2142900525126379
 20
128.9998509670145097
 30
0.0
  0
VERTEX
  5
2F8F
  8
0
 10
48.3133183810934383
 20
128.9998675727790101
 30
0.0
  0
VERTEX
  5
2F90
  8
0
 10
48.4123759701389034
 20
128.9999091204151966
 30
0.0
  0
VERTEX
  5
2F91
  8
0
 10
48.5114613287436214
 20
128.9999697081674128
 30
0.0
  0
VERTEX
  5
2F92
  8
0
 10
48.6105729438185108
 20
129.00004321142859
 30
0.0
  0
VERTEX
  5
2F93
  8
0
 10
48.7097093022743977
 20
129.0001235055920006
 30
0.0
  0
VERTEX
  5
2F94
  8
0
 10
48.8088688910220867
 20
129.0002044660504055
 30
0.0
  0
VERTEX
  5
2F95
  8
0
 10
48.9080501969725105
 20
129.0002799681967929
 30
0.0
  0
VERTEX
  5
2F96
  8
0
 10
49.0072517070364597
 20
129.0003438874242079
 30
0.0
  0
VERTEX
  5
2F97
  8
0
 10
49.1064719081247674
 20
129.0003900991256955
 30
0.0
  0
VERTEX
  5
2F98
  8
0
 10
49.2057092613856568
 20
129.0004130500385031
 30
0.0
  0
VERTEX
  5
2F99
  8
0
 10
49.3049619827776908
 20
129.0004126245019052
 30
0.0
  0
VERTEX
  5
2F9A
  8
0
 10
49.4042281525422595
 20
129.0003917166800989
 30
0.0
  0
VERTEX
  5
2F9B
  8
0
 10
49.5035058494831901
 20
129.0003532526137917
 30
0.0
  0
VERTEX
  5
2F9C
  8
0
 10
49.6027931524045016
 20
129.0003001583438049
 30
0.0
  0
VERTEX
  5
2F9D
  8
0
 10
49.7020881401101065
 20
129.0002353599107892
 30
0.0
  0
VERTEX
  5
2F9E
  8
0
 10
49.80138889140391
 20
129.000161783355594
 30
0.0
  0
VERTEX
  5
2F9F
  8
0
 10
49.9006934850898531
 20
129.0000823547188133
 30
0.0
  0
VERTEX
  5
2FA0
  8
0
 10
49.9999999999718625
 20
129.0000000000414104
 30
0.0
  0
SEQEND
  5
2FA1
  8
0
  0
POLYLINE
  5
2A4D
  8
0
 66
     1
 10
0.0
 20
0.0
 30
0.0
  0
VERTEX
  5
2FA2
  8
0
 10
44.8038475772652305
 20
132.0000000000414104
 30
0.0
  0
VERTEX
  5
2FA3
  8
0
 10
44.8462734672728516
 20
131.9266094991318141
 30
0.0
  0
VERTEX
  5
2FA4
  8
0
 10
44.8886987631406598
 20
131.8532200449211871
 30
0.0
  0
VERTEX
  5
2FA5
  8
0
 10
44.9311228707290411
 20
131.7798326841088112
 30
0.0
  0
VERTEX
  5
2FA6
  8
0
 10
44.9735451958981116
 20
131.706448463393599
 30
0.0
  0
VERTEX
  5
2FA7
  8
0
 10
45.0159651445082432
 20
131.6330684294748039
 30
0.0
  0
VERTEX
  5
2FA8
  8
0
 10
45.0583816320319599
 20
131.5596933375665003
 30
0.0
  0
VERTEX
  5
2FA9
  8
0
 10
45.1007909124004414
 20
131.4863223608712133
 30
0.0
  0
VERTEX
  5
2FAA
  8
0
 10
45.1431883408544579
 20
131.412954138413113
 30
0.0
  0
VERTEX
  5
2FAB
  8
0
 10
45.1855692719366786
 20
131.3395873088009864
 30
0.0
  0
VERTEX
  5
2FAC
  8
0
 10
45.2279290601896307
 20
131.2662205106437909
 30
0.0
  0
VERTEX
  5
2FAD
  8
0
 10
45.2702638419291929
 20
131.192852835194401
 30
0.0
  0
VERTEX
  5
2FAE
  8
0
 10
45.312575104163038
 20
131.1194864717390942
 30
0.0
  0
VERTEX
  5
2FAF
  8
0
 10
45.3548665746027382
 20
131.0461249069236942
 30
0.0
  0
VERTEX
  5
2FB0
  8
0
 10
45.3971419885610885
 20
130.9727716317956947
 30
0.0
  0
VERTEX
  5
2FB1
  8
0
 10
45.4394050813509622
 20
130.8994301374021916
 30
0.0
  0
VERTEX
  5
2FB2
  8
0
 10
45.4816595220530075
 20
130.8261037892891068
 30
0.0
  0
VERTEX
  5
2FB3
  8
0
 10
45.5239083496692771
 20
130.7527947590859014
 30
0.0
  0
VERTEX
  5
2FB4
  8
0
 10
45.5661542545575386
 20
130.6795045577869132
 30
0.0
  0
VERTEX
  5
2FB5
  8
0
 10
45.6083999233872035
 20
130.6062346893974109
 30
0.0
  0
VERTEX
  5
2FB6
  8
0
 10
45.650648042827811
 20
130.5329866579228906
 30
0.0
  0
VERTEX
  5
2FB7
  8
0
 10
45.6929011420853612
 20
130.459761929317807
 30
0.0
  0
VERTEX
  5
2FB8
  8
0
 10
45.7351588288830726
 20
130.3865612635649995
 30
0.0
  0
VERTEX
  5
2FB9
  8
0
 10
45.77741813246314
 20
130.313384797561099
 30
0.0
  0
VERTEX
  5
2FBA
  8
0
 10
45.819675993540038
 20
130.2402326468105116
 30
0.0
  0
VERTEX
  5
2FBB
  8
0
 10
45.8619293528284899
 20
130.1671049268173874
 30
0.0
  0
VERTEX
  5
2FBC
  8
0
 10
45.9041751510429776
 20
130.0940017530859905
 30
0.0
  0
VERTEX
  5
2FBD
  8
0
 10
45.9464103288980326
 20
130.0209232411206131
 30
0.0
  0
VERTEX
  5
2FBE
  8
0
 10
45.9886318271082928
 20
129.9478695064252918
 30
0.0
  0
VERTEX
  5
2FBF
  8
0
 10
46.0308365863883679
 20
129.8748406645044895
 30
0.0
  0
VERTEX
  5
2FC0
  8
0
 10
46.0730215474527469
 20
129.8018368308622996
 30
0.0
  0
VERTEX
  5
2FC1
  8
0
 10
46.1151837211575568
 20
129.7288580882413953
 30
0.0
  0
VERTEX
  5
2FC2
  8
0
 10
46.1573224605588095
 20
129.655903425398094
 30
0.0
  0
VERTEX
  5
2FC3
  8
0
 10
46.1994399558441771
 20
129.5829705059304899
 30
0.0
  0
VERTEX
  5
2FC4
  8
0
 10
46.2415385674709682
 20
129.5100569139081017
 30
0.0
  0
VERTEX
  5
2FC5
  8
0
 10
46.283620655896577
 20
129.4371602334003057
 30
0.0
  0
VERTEX
  5
2FC6
  8
0
 10
46.3256885815782198
 20
129.3642780484761943
 30
0.0
  0
VERTEX
  5
2FC7
  8
0
 10
46.3677447049732905
 20
129.2914079432053995
 30
0.0
  0
VERTEX
  5
2FC8
  8
0
 10
46.4097913865390979
 20
129.218547501657099
 30
0.0
  0
VERTEX
  5
2FC9
  8
0
 10
46.4518309867329435
 20
129.1456943079008113
 30
0.0
  0
VERTEX
  5
2FCA
  8
0
 10
46.4938658660121789
 20
129.0728459460057991
 30
0.0
  0
VERTEX
  5
2FCB
  8
0
 10
46.5358983848340699
 20
129.0000000000414104
 30
0.0
  0
SEQEND
  5
2FCC
  8
0
  0
POLYLINE
  5
2A4E
  8
0
 66
     1
 10
0.0
 20
0.0
 30
0.0
  0
VERTEX
  5
2FCD
  8
0
 10
49.9999999999718625
 20
141.0000000000414104
 30
0.0
  0
VERTEX
  5
2FCE
  8
0
 10
49.9152290435577513
 20
140.9999549319969105
 30
0.0
  0
VERTEX
  5
2FCF
  8
0
 10
49.8304592921184621
 20
140.9999100143294868
 30
0.0
  0
VERTEX
  5
2FD0
  8
0
 10
49.7456919506289523
 20
140.9998653974161869
 30
0.0
  0
VERTEX
  5
2FD1
  8
0
 10
49.6609282240640368
 20
140.9998212316342006
 30
0.0
  0
VERTEX
  5
2FD2
  8
0
 10
49.5761693173985307
 20
140.9997776673604051
 30
0.0
  0
VERTEX
  5
2FD3
  8
0
 10
49.4914164281721014
 20
140.9997353851213973
 30
0.0
  0
VERTEX
  5
2FD4
  8
0
 10
49.4066707136477135
 20
140.9996979372384089
 30
0.0
  0
VERTEX
  5
2FD5
  8
0
 10
49.3219333175137535
 20
140.999669843923698
 30
0.0
  0
VERTEX
  5
2FD6
  8
0
 10
49.2372053834483268
 20
140.9996556261287992
 30
0.0
  0
VERTEX
  5
2FD7
  8
0
 10
49.1524880551294814
 20
140.9996598048051055
 30
0.0
  0
VERTEX
  5
2FD8
  8
0
 10
49.0677824770809821
 20
140.9996860030113908
 30
0.0
  0
VERTEX
  5
2FD9
  8
0
 10
48.9830897996063825
 20
140.9997317073587908
 30
0.0
  0
VERTEX
  5
2FDA
  8
0
 10
48.8984111754262969
 20
140.9997918380784938
 30
0.0
  0
VERTEX
  5
2FDB
  8
0
 10
48.8137477572696525
 20
140.9998613067548092
 30
0.0
  0
VERTEX
  5
2FDC
  8
0
 10
48.729100697865313
 20
140.9999350249721033
 30
0.0
  0
VERTEX
  5
2FDD
  8
0
 10
48.6444710745923885
 20
141.0000080274105869
 30
0.0
  0
VERTEX
  5
2FDE
  8
0
 10
48.5598592466810075
 20
141.0000765219637913
 30
0.0
  0
VERTEX
  5
2FDF
  8
0
 10
48.4752651753964301
 20
141.000137366665399
 30
0.0
  0
VERTEX
  5
2FE0
  8
0
 10
48.3906888177735368
 20
141.0001874264603998
 30
0.0
  0
VERTEX
  5
2FE1
  8
0
 10
48.3061301308470732
 20
141.0002235662938119
 30
0.0
  0
VERTEX
  5
2FE2
  8
0
 10
48.2215891169452604
 20
141.0002428094325921
 30
0.0
  0
VERTEX
  5
2FE3
  8
0
 10
48.1370666275694177
 20
141.0002451474063889
 30
0.0
  0
VERTEX
  5
2FE4
  8
0
 10
48.0525642684584113
 20
141.0002332081635075
 30
0.0
  0
VERTEX
  5
2FE5
  8
0
 10
47.9680836715738792
 20
141.0002097113130048
 30
0.0
  0
VERTEX
  5
2FE6
  8
0
 10
47.8836264688773596
 20
141.0001773764641939
 30
0.0
  0
VERTEX
  5
2FE7
  8
0
 10
47.7991942923306325
 20
141.0001389232261886
 30
0.0
  0
VERTEX
  5
2FE8
  8
0
 10
47.7147887738952292
 20
141.000097071208188
 30
0.0
  0
VERTEX
  5
2FE9
  8
0
 10
47.6304115455328017
 20
141.0000545400193914
 30
0.0
  0
VERTEX
  5
2FEA
  8
0
 10
47.546064239205009
 20
141.0000140492689127
 30
0.0
  0
VERTEX
  5
2FEB
  8
0
 10
47.4617484868734323
 20
140.9999783185660931
 30
0.0
  0
VERTEX
  5
2FEC
  8
0
 10
47.3774658580971391
 20
140.9999500218868036
 30
0.0
  0
VERTEX
  5
2FED
  8
0
 10
47.2932158102468634
 20
140.9999302886265866
 30
0.0
  0
VERTEX
  5
2FEE
  8
0
 10
47.2089952257199386
 20
140.9999183651798091
 30
0.0
  0
VERTEX
  5
2FEF
  8
0
 10
47.1248008308137969
 20
140.9999133837893055
 30
0.0
  0
VERTEX
  5
2FF0
  8
0
 10
47.0406293518258281
 20
140.999914476698109
 30
0.0
  0
VERTEX
  5
2FF1
  8
0
 10
46.9564775150533933
 20
140.9999207761491107
 30
0.0
  0
VERTEX
  5
2FF2
  8
0
 10
46.8723420467939604
 20
140.9999314143852871
 30
0.0
  0
VERTEX
  5
2FF3
  8
0
 10
46.7882196733449405
 20
140.9999455236496999
 30
0.0
  0
VERTEX
  5
2FF4
  8
0
 10
46.7041071210036307
 20
140.9999622361852119
 30
0.0
  0
VERTEX
  5
2FF5
  8
0
 10
46.6200011160675487
 20
140.9999806842347994
 30
0.0
  0
VERTEX
  5
2FF6
  8
0
 10
46.5358983848340699
 20
141.0000000000414104
 30
0.0
  0
SEQEND
  5
2FF7
  8
0
  0
POLYLINE
  5
2A4F
  8
0
 66
     1
 10
0.0
 20
0.0
 30
0.0
  0
VERTEX
  5
2FF8
  8
0
 10
46.5358983848341197
 20
141.0000000000412967
 30
0.0
  0
VERTEX
  5
2FF9
  8
0
 10
46.4866667572434835
 20
140.9147006357297869
 30
0.0
  0
VERTEX
  5
2FFA
  8
0
 10
46.4374307761876182
 20
140.8293947211670059
 30
0.0
  0
VERTEX
  5
2FFB
  8
0
 10
46.3881860882012234
 20
140.744075706101512
 30
0.0
  0
VERTEX
  5
2FFC
  8
0
 10
46.3389283398191196
 20
140.6587370402822899
 30
0.0
  0
VERTEX
  5
2FFD
  8
0
 10
46.2896531775760423
 20
140.5733721734580115
 30
0.0
  0
VERTEX
  5
2FFE
  8
0
 10
46.2403562480233106
 20
140.4879745554125066
 30
0.0
  0
VERTEX
  5
2FFF
  8
0
 10
46.1910340119998111
 20
140.4025393665133947
 30
0.0
  0
VERTEX
  5
3000
  8
0
 10
46.1416859248411697
 20
140.3170681512530962
 30
0.0
  0
VERTEX
  5
3001
  8
0
 10
46.0923121300602929
 20
140.2315639166887991
 30
0.0
  0
VERTEX
  5
3002
  8
0
 10
46.0429127711702222
 20
140.1460296698776915
 30
0.0
  0
VERTEX
  5
3003
  8
0
 10
45.9934879916839279
 20
140.060468417877388
 30
0.0
  0
VERTEX
  5
3004
  8
0
 10
45.9440379430963617
 20
139.9748831593543059
 30
0.0
  0
VERTEX
  5
3005
  8
0
 10
45.8945644655392968
 20
139.8892751178582898
 30
0.0
  0
VERTEX
  5
3006
  8
0
 10
45.8450731649684826
 20
139.8036415582575103
 30
0.0
  0
VERTEX
  5
3007
  8
0
 10
45.7955701566095925
 20
139.7179792100685063
 30
0.0
  0
VERTEX
  5
3008
  8
0
 10
45.7460615556882431
 20
139.6322848028081012
 30
0.0
  0
VERTEX
  5
3009
  8
0
 10
45.6965534774302498
 20
139.5465550659930898
 30
0.0
  0
VERTEX
  5
300A
  8
0
 10
45.6470518647434389
 20
139.4607868525739036
 30
0.0
  0
VERTEX
  5
300B
  8
0
 10
45.597557805716967
 20
139.3749804930743039
 30
0.0
  0
VERTEX
  5
300C
  8
0
 10
45.548066979696948
 20
139.2891401923751005
 30
0.0
  0
VERTEX
  5
300D
  8
0
 10
45.498574782521473
 20
139.2032703584376918
 30
0.0
  0
VERTEX
  5
300E
  8
0
 10
45.4490766100284986
 20
139.1173753992239028
 30
0.0
  0
VERTEX
  5
300F
  8
0
 10
45.3995678580560025
 20
139.03145972269499
 30
0.0
  0
VERTEX
  5
3010
  8
0
 10
45.350043922442012
 20
138.9455277368128066
 30
0.0
  0
VERTEX
  5
3011
  8
0
 10
45.3005001990244409
 20
138.859583849538609
 30
0.0
  0
VERTEX
  5
3012
  8
0
 10
45.2509320836413735
 20
138.7736324688343075
 30
0.0
  0
VERTEX
  5
3013
  8
0
 10
45.2013354102040168
 20
138.6876777751072893
 30
0.0
  0
VERTEX
  5
3014
  8
0
 10
45.1517107477480906
 20
138.6017214891417098
 30
0.0
  0
VERTEX
  5
3015
  8
0
 10
45.1020615586276676
 20
138.5157638288090141
 30
0.0
  0
VERTEX
  5
3016
  8
0
 10
45.0523913466518025
 20
138.4298049904473942
 30
0.0
  0
VERTEX
  5
3017
  8
0
 10
45.0027036156298479
 20
138.3438451703950136
 30
0.0
  0
VERTEX
  5
3018
  8
0
 10
44.9530018693709508
 20
138.2578845649900927
 30
0.0
  0
VERTEX
  5
3019
  8
0
 10
44.9032896116843787
 20
138.171923370570795
 30
0.0
  0
VERTEX
  5
301A
  8
0
 10
44.8535703463793993
 20
138.0859617834751134
 30
0.0
  0
VERTEX
  5
301B
  8
0
 10
44.8038475772652305
 20
138.0000000000412967
 30
0.0
  0
SEQEND
  5
301C
  8
0
  0
POLYLINE
  5
2A50
  8
0
 66
     1
 10
0.0
 20
0.0
 30
0.0
  0
VERTEX
  5
301D
  8
0
 10
49.9999999999717488
 20
129.0000000000414104
 30
0.0
  0
VERTEX
  5
301E
  8
0
 10
50.0847709563858601
 20
129.0000450680857966
 30
0.0
  0
VERTEX
  5
301F
  8
0
 10
50.1695407078250923
 20
129.0000899857531067
 30
0.0
  0
VERTEX
  5
3020
  8
0
 10
50.254308049314659
 20
129.0001346026662929
 30
0.0
  0
VERTEX
  5
3021
  8
0
 10
50.3390717758795674
 20
129.0001787684483929
 30
0.0
  0
VERTEX
  5
3022
  8
0
 10
50.4238306825450806
 20
129.0002223327221031
 30
0.0
  0
VERTEX
  5
3023
  8
0
 10
50.5085835717715099
 20
129.0002646149609973
 30
0.0
  0
VERTEX
  5
3024
  8
0
 10
50.5933292862959476
 20
129.0003020628439003
 30
0.0
  0
VERTEX
  5
3025
  8
0
 10
50.6780666824299075
 20
129.0003301561586113
 30
0.0
  0
VERTEX
  5
3026
  8
0
 10
50.7627946164953414
 20
129.0003443739533964
 30
0.0
  0
VERTEX
  5
3027
  8
0
 10
50.8475119448141868
 20
129.0003401952768911
 30
0.0
  0
VERTEX
  5
3028
  8
0
 10
50.932217522862679
 20
129.0003139970706059
 30
0.0
  0
VERTEX
  5
3029
  8
0
 10
51.0169102003372927
 20
129.0002682927230921
 30
0.0
  0
VERTEX
  5
302A
  8
0
 10
51.1015888245173571
 20
129.0002081620033891
 30
0.0
  0
VERTEX
  5
302B
  8
0
 10
51.1862522426740085
 20
129.0001386933271021
 30
0.0
  0
VERTEX
  5
302C
  8
0
 10
51.2708993020783623
 20
129.0000649751098933
 30
0.0
  0
VERTEX
  5
302D
  8
0
 10
51.3555289253512228
 20
128.999991972671495
 30
0.0
  0
VERTEX
  5
302E
  8
0
 10
51.4401407532625967
 20
128.9999234781184043
 30
0.0
  0
VERTEX
  5
302F
  8
0
 10
51.5247348245471315
 20
128.9998626334169103
 30
0.0
  0
VERTEX
  5
3030
  8
0
 10
51.6093111821700674
 20
128.9998125736219947
 30
0.0
  0
VERTEX
  5
3031
  8
0
 10
51.6938698690965381
 20
128.99977643378881
 30
0.0
  0
VERTEX
  5
3032
  8
0
 10
51.7784108829982799
 20
128.9997571906502003
 30
0.0
  0
VERTEX
  5
3033
  8
0
 10
51.8629333723741297
 20
128.9997548526764888
 30
0.0
  0
VERTEX
  5
3034
  8
0
 10
51.9474357314851432
 20
128.9997667919195123
 30
0.0
  0
VERTEX
  5
3035
  8
0
 10
52.0319163283696824
 20
128.9997902887701002
 30
0.0
  0
VERTEX
  5
3036
  8
0
 10
52.1163735310661878
 20
128.9998226236189112
 30
0.0
  0
VERTEX
  5
3037
  8
0
 10
52.2008057076129077
 20
128.9998610768570018
 30
0.0
  0
VERTEX
  5
3038
  8
0
 10
52.2852112260483821
 20
128.9999029288750876
 30
0.0
  0
VERTEX
  5
3039
  8
0
 10
52.3695884544108026
 20
128.9999454600639126
 30
0.0
  0
VERTEX
  5
303A
  8
0
 10
52.4539357607386023
 20
128.9999859508143913
 30
0.0
  0
VERTEX
  5
303B
  8
0
 10
52.538251513070179
 20
129.0000216815172962
 30
0.0
  0
VERTEX
  5
303C
  8
0
 10
52.6225341418465291
 20
129.0000499781966141
 30
0.0
  0
VERTEX
  5
303D
  8
0
 10
52.7067841896967977
 20
129.000069711456689
 30
0.0
  0
VERTEX
  5
303E
  8
0
 10
52.7910047742237225
 20
129.0000816349034949
 30
0.0
  0
VERTEX
  5
303F
  8
0
 10
52.8751991691298713
 20
129.0000866162939985
 30
0.0
  0
VERTEX
  5
3040
  8
0
 10
52.9593706481178401
 20
129.0000855233851098
 30
0.0
  0
VERTEX
  5
3041
  8
0
 10
53.043522484890282
 20
129.0000792239339944
 30
0.0
  0
VERTEX
  5
3042
  8
0
 10
53.1276579531497006
 20
129.0000685856977043
 30
0.0
  0
VERTEX
  5
3043
  8
0
 10
53.2117803265987774
 20
129.0000544764332915
 30
0.0
  0
VERTEX
  5
3044
  8
0
 10
53.2958928789400375
 20
129.0000377638976943
 30
0.0
  0
VERTEX
  5
3045
  8
0
 10
53.3799988838761124
 20
129.0000193158481068
 30
0.0
  0
VERTEX
  5
3046
  8
0
 10
53.4641016151095414
 20
129.0000000000414104
 30
0.0
  0
SEQEND
  5
3047
  8
0
  0
POLYLINE
  5
2A51
  8
0
 66
     1
 10
0.0
 20
0.0
 30
0.0
  0
VERTEX
  5
3048
  8
0
 10
53.4641016151095414
 20
129.0000000000414104
 30
0.0
  0
VERTEX
  5
3049
  8
0
 10
53.5133332427001918
 20
129.0852993643530056
 30
0.0
  0
VERTEX
  5
304A
  8
0
 10
53.5625692237560997
 20
129.1706052789157866
 30
0.0
  0
VERTEX
  5
304B
  8
0
 10
53.6118139117424519
 20
129.2559242939811952
 30
0.0
  0
VERTEX
  5
304C
  8
0
 10
53.6610716601245414
 20
129.3412629598003889
 30
0.0
  0
VERTEX
  5
304D
  8
0
 10
53.7103468223675691
 20
129.4266278266246957
 30
0.0
  0
VERTEX
  5
304E
  8
0
 10
53.7596437519203505
 20
129.5120254446702859
 30
0.0
  0
VERTEX
  5
304F
  8
0
 10
53.80896598794385
 20
129.5974606335693124
 30
0.0
  0
VERTEX
  5
3050
  8
0
 10
53.8583140751024985
 20
129.6829318488296963
 30
0.0
  0
VERTEX
  5
3051
  8
0
 10
53.9076878698833113
 20
129.7684360833939934
 30
0.0
  0
VERTEX
  5
3052
  8
0
 10
53.9570872287734389
 20
129.8539703302049872
 30
0.0
  0
VERTEX
  5
3053
  8
0
 10
54.0065120082597332
 20
129.9395315822052908
 30
0.0
  0
VERTEX
  5
3054
  8
0
 10
54.0559620568471928
 20
130.0251168407284865
 30
0.0
  0
VERTEX
  5
3055
  8
0
 10
54.1054355344042506
 20
130.1107248822243889
 30
0.0
  0
VERTEX
  5
3056
  8
0
 10
54.1549268349750719
 20
130.1963584418253106
 30
0.0
  0
VERTEX
  5
3057
  8
0
 10
54.2044298433340188
 20
130.2820207900142861
 30
0.0
  0
VERTEX
  5
3058
  8
0
 10
54.2539384442553114
 20
130.367715197274606
 30
0.0
  0
VERTEX
  5
3059
  8
0
 10
54.3034465225133474
 20
130.453444934089589
 30
0.0
  0
VERTEX
  5
305A
  8
0
 10
54.3529481352002222
 20
130.5392131475088036
 30
0.0
  0
VERTEX
  5
305B
  8
0
 10
54.4024421942267509
 20
130.6250195070084033
 30
0.0
  0
VERTEX
  5
305C
  8
0
 10
54.4519330202467131
 20
130.7108598077076067
 30
0.0
  0
VERTEX
  5
305D
  8
0
 10
54.501425217422188
 20
130.7967296416449869
 30
0.0
  0
VERTEX
  5
305E
  8
0
 10
54.5509233899151695
 20
130.8826246008588896
 30
0.0
  0
VERTEX
  5
305F
  8
0
 10
54.6004321418876586
 20
130.9685402773876888
 30
0.0
  0
VERTEX
  5
3060
  8
0
 10
54.6499560775017201
 20
131.0544722632699859
 30
0.0
  0
VERTEX
  5
3061
  8
0
 10
54.6994998009192201
 20
131.1404161505440982
 30
0.0
  0
VERTEX
  5
3062
  8
0
 10
54.7490679163023515
 20
131.2263675312483997
 30
0.0
  0
VERTEX
  5
3063
  8
0
 10
54.7986645897395803
 20
131.3123222249753042
 30
0.0
  0
VERTEX
  5
3064
  8
0
 10
54.8482892521954497
 20
131.3982785109409974
 30
0.0
  0
VERTEX
  5
3065
  8
0
 10
54.8979384413159366
 20
131.4842361712736931
 30
0.0
  0
VERTEX
  5
3066
  8
0
 10
54.9476086532918089
 20
131.570195009635313
 30
0.0
  0
VERTEX
  5
3067
  8
0
 10
54.9972963843137492
 20
131.6561548296876083
 30
0.0
  0
VERTEX
  5
3068
  8
0
 10
55.0469981305726108
 20
131.7421154350925008
 30
0.0
  0
VERTEX
  5
3069
  8
0
 10
55.0967103882591687
 20
131.8280766295119122
 30
0.0
  0
VERTEX
  5
306A
  8
0
 10
55.1464296535641481
 20
131.9140382166075938
 30
0.0
  0
VERTEX
  5
306B
  8
0
 10
55.1961524226783808
 20
132.0000000000414104
 30
0.0
  0
SEQEND
  5
306C
  8
0
  0
LINE
  5
2A52
  8
1
 10
37.0000000000100613
 20
50.0
 30
0.0
 11
63.0000000000100613
 21
50.0
 31
0.0
  0
LINE
  5
2A53
  8
1
 10
50.0000000000100613
 20
63.0
 30
0.0
 11
50.0000000000100613
 21
36.9999999999999929
 31
0.0
  0
LINE
  5
2A55
  8
1
 10
50.0000000000100613
 20
108.0
 30
0.0
 11
50.0000000000100613
 21
77.0
 31
0.0
  0
LINE
  5
2A57
  8
1
 10
90.0000000000100755
 20
108.0
 30
0.0
 11
90.0000000000100755
 21
77.0
 31
0.0
  0
LINE
  5
2A58
  8
1
 10
37.0000000000100613
 20
135.0
 30
0.0
 11
63.0000000000100613
 21
135.0
 31
0.0
  0
LINE
  5
2A59
  8
1
 10
50.0000000000100613
 20
148.0
 30
0.0
 11
50.0000000000100613
 21
122.0
 31
0.0
  0
LINE
  5
2A5C
  8
3
 10
45.7169999999892411
 20
97.0
 30
0.0
 11
45.7169999999891772
 21
104.9999999999790958
 31
0.0
  0
LINE
  5
2A5D
  8
3
 10
54.2829999999891584
 20
97.0
 30
0.0
 11
54.2829999999892081
 21
105.0000000000209042
 31
0.0
  0
LINE
  5
2A5E
  8
3
 10
85.7169999999892553
 20
97.0
 30
0.0
 11
85.7169999999892127
 21
104.9999999999790958
 31
0.0
  0
LINE
  5
2A5F
  8
3
 10
94.2829999999891868
 20
97.0
 30
0.0
 11
94.2829999999892152
 21
105.0000000000209042
 31
0.0
  0
CIRCLE
  5
2A60
  8
3
 10
50.0000000000100613
 20
135.0
 30
0.0
 40
4.2830000000000004
  0
VIEWPORT
  5
22
 67
     1
  8
0
 10
261.517699115044195
 20
148.5
 30
0.0
 40
523.0353982300885036
 41
297.0
 68
     1
 69
     1
1001
ACAD
1000
MVIEW
1002
{
1070
    16
1010
0.0
1020
0.0
1030
0.0
1010
0.0
1020
0.0
1030
1.0
1040
0.0
1040
297.0
1040
261.517699115044195
1040
148.5
1040
50.0
1040
0.0
1040
0.0
1070
     0
1070
   100
1070
     1
1070
     1
1070
     0
1070
     0
1070
     0
1070
     0
1040
0.0
1040
0.0
1040
0.0
1040
1.0
1040
1.0
1040
10.0
1040
10.0
1070
     0
1002
{
1002
}
1002
}
  0
ENDSEC
  0
EOF
