  0
SECTION
  2
HEADER
  9
$ACADVER
  1
AC1009
  9
$INSBASE
 10
0.0
 20
0.0
 30
0.0
  9
$EXTMIN
 10
0.0
 20
-2.960436562073669
 30
0.0
  9
$EXTMAX
 10
97.5000000000100755
 20
145.5
 30
0.0
  9
$LIMMIN
 10
0.0
 20
0.0
  9
$LIMMAX
 10
400.0
 20
277.0
  9
$ORTHOMODE
 70
     1
  9
$REGENMODE
 70
     1
  9
$FILLMODE
 70
     1
  9
$QTEXTMODE
 70
     0
  9
$MIRRTEXT
 70
     1
  9
$DRAGMODE
 70
     2
  9
$LTSCALE
 40
5.0
  9
$OSMODE
 70
    37
  9
$ATTMODE
 70
     1
  9
$TEXTSIZE
 40
2.5
  9
$TRACEWID
 40
1.0
  9
$TEXTSTYLE
  7
STANDARD
  9
$CLAYER
  8
0
  9
$CELTYPE
  6
BYLAYER
  9
$CECOLOR
 62
   256
  9
$DIMSCALE
 40
1.0
  9
$DIMASZ
 40
3.0
  9
$DIMEXO
 40
1.0
  9
$DIMDLI
 40
6.0
  9
$DIMRND
 40
0.0
  9
$DIMDLE
 40
0.0
  9
$DIMEXE
 40
1.0
  9
$DIMTP
 40
495.0
  9
$DIMTM
 40
0.0
  9
$DIMTXT
 40
3.0
  9
$DIMCEN
 40
0.0
  9
$DIMTSZ
 40
0.0
  9
$DIMTOL
 70
     0
  9
$DIMLIM
 70
     0
  9
$DIMTIH
 70
     0
  9
$DIMTOH
 70
     0
  9
$DIMSE1
 70
     0
  9
$DIMSE2
 70
     0
  9
$DIMTAD
 70
     3
  9
$DIMZIN
 70
     8
  9
$DIMBLK
  1

  9
$DIMASO
 70
     0
  9
$DIMSHO
 70
     1
  9
$DIMPOST
  1

  9
$DIMAPOST
  1

  9
$DIMALT
 70
     0
  9
$DIMALTD
 70
     2
  9
$DIMALTF
 40
25.3999999999999986
  9
$DIMLFAC
 40
1.0
  9
$DIMTOFL
 70
     1
  9
$DIMTVP
 40
0.0
  9
$DIMTIX
 70
     1
  9
$DIMSOXD
 70
     0
  9
$DIMSAH
 70
     1
  9
$DIMBLK1
  1
ARROW1
  9
$DIMBLK2
  1
ARROW1
  9
$DIMSTYLE
  2
ITM
  9
$DIMCLRD
 70
     4
  9
$DIMCLRE
 70
     4
  9
$DIMCLRT
 70
     4
  9
$DIMTFAC
 40
1.0
  9
$DIMGAP
 40
1.0
  9
$LUNITS
 70
     2
  9
$LUPREC
 70
     1
  9
$SKETCHINC
 40
1.0
  9
$FILLETRAD
 40
0.0
  9
$AUNITS
 70
     0
  9
$AUPREC
 70
     0
  9
$MENU
  1
.
  9
$ELEVATION
 40
0.0
  9
$PELEVATION
 40
0.0
  9
$THICKNESS
 40
0.0
  9
$LIMCHECK
 70
     0
  9
$BLIPMODE
 70
     0
  9
$CHAMFERA
 40
10.0
  9
$CHAMFERB
 40
10.0
  9
$SKPOLY
 70
     0
  9
$TDCREATE
 40
2451415.6127083338797092
  9
$TDUPDATE
 40
2460886.718599536921829
  9
$TDINDWG
 40
0.3852562616
  9
$TDUSRTIMER
 40
0.3852562616
  9
$USRTIMER
 70
     1
  9
$ANGBASE
 50
0.0
  9
$ANGDIR
 70
     0
  9
$PDMODE
 70
     0
  9
$PDSIZE
 40
0.0
  9
$PLINEWID
 40
0.0
  9
$COORDS
 70
     1
  9
$SPLFRAME
 70
     0
  9
$SPLINETYPE
 70
     6
  9
$SPLINESEGS
 70
     8
  9
$ATTDIA
 70
     1
  9
$ATTREQ
 70
     1
  9
$HANDLING
 70
     1
  9
$HANDSEED
  5
2EB8
  9
$SURFTAB1
 70
     6
  9
$SURFTAB2
 70
     6
  9
$SURFTYPE
 70
     6
  9
$SURFU
 70
     6
  9
$SURFV
 70
     6
  9
$UCSNAME
  2

  9
$UCSORG
 10
0.0
 20
0.0
 30
0.0
  9
$UCSXDIR
 10
1.0
 20
0.0
 30
0.0
  9
$UCSYDIR
 10
0.0
 20
1.0
 30
0.0
  9
$PUCSNAME
  2

  9
$PUCSORG
 10
0.0
 20
0.0
 30
0.0
  9
$PUCSXDIR
 10
1.0
 20
0.0
 30
0.0
  9
$PUCSYDIR
 10
0.0
 20
1.0
 30
0.0
  9
$USERI1
 70
     3
  9
$USERI2
 70
     1
  9
$USERI3
 70
     1
  9
$USERI4
 70
     0
  9
$USERI5
 70
     0
  9
$USERR1
 40
1.0
  9
$USERR2
 40
3.0
  9
$USERR3
 40
3.0
  9
$USERR4
 40
3.0
  9
$USERR5
 40
10.0
  9
$WORLDVIEW
 70
     1
  9
$SHADEDGE
 70
     3
  9
$SHADEDIF
 70
    70
  9
$TILEMODE
 70
     1
  9
$MAXACTVP
 70
    16
  9
$PLIMCHECK
 70
     0
  9
$PEXTMIN
 10
1.0000000000000000E+20
 20
1.0000000000000000E+20
 30
1.0000000000000000E+20
  9
$PEXTMAX
 10
-1.0000000000000000E+20
 20
-1.0000000000000000E+20
 30
-1.0000000000000000E+20
  9
$PLIMMIN
 10
0.0
 20
0.0
  9
$PLIMMAX
 10
420.0
 20
297.0
  9
$UNITMODE
 70
     0
  9
$VISRETAIN
 70
     0
  9
$PLINEGEN
 70
     0
  9
$PSLTSCALE
 70
     1
  0
ENDSEC
  0
SECTION
  2
TABLES
  0
TABLE
  2
VPORT
 70
     1
  0
VPORT
  2
*ACTIVE
 70
     0
 10
0.0
 20
0.0
 11
1.0
 21
1.0
 12
191.3793103448275872
 22
81.7775062442723453
 13
0.0
 23
0.0
 14
10.0
 24
10.0
 15
10.0
 25
10.0
 16
0.0
 26
0.0
 36
1.0
 17
0.0
 27
0.0
 37
0.0
 40
163.5550124885446905
 41
2.340243902439024
 42
50.0
 43
0.0
 44
0.0
 50
0.0
 51
0.0
 71
     0
 72
   100
 73
     1
 74
     1
 75
     0
 76
     0
 77
     0
 78
     0
  0
ENDTAB
  0
TABLE
  2
LTYPE
 70
     3
  0
LTYPE
  2
CONTINUOUS
 70
     0
  3
Solid line
 72
    65
 73
     0
 40
0.0
  0
LTYPE
  2
CENTER
 70
     0
  3
____ _ ____ _ ____ _ ____ _ ____ _ ____ _ ____ 
 72
    65
 73
     4
 40
2.0
 49
1.25
 49
-0.25
 49
0.25
 49
-0.25
  0
LTYPE
  2
PHANTOM2
 70
     0
  3
___ _ _ ___ _ _ ___ _ _ ___ _ _
 72
    65
 73
     6
 40
1.25
 49
0.625
 49
-0.125
 49
0.125
 49
-0.125
 49
0.125
 49
-0.125
  0
ENDTAB
  0
TABLE
  2
LAYER
 70
     5
  0
LAYER
  2
0
 70
     0
 62
     7
  6
CONTINUOUS
  0
LAYER
  2
WAKU
 70
     0
 62
     5
  6
CONTINUOUS
  0
LAYER
  2
1
 70
     0
 62
     1
  6
CENTER
  0
LAYER
  2
3
 70
     0
 62
     3
  6
CONTINUOUS
  0
LAYER
  2
DEFPOINTS
 70
     0
 62
     7
  6
CONTINUOUS
  0
ENDTAB
  0
TABLE
  2
STYLE
 70
     3
  0
STYLE
  2
STANDARD
 70
     0
 40
0.0
 41
1.0
 50
0.0
 71
     0
 42
2.5
  3
ROMANS
  4
EXTFONT
  0
STYLE
  2
K
 70
     0
 40
0.0
 41
1.0
 50
0.0
 71
     0
 42
3.0
  3
ROMANS
  4
bigfont
  0
STYLE
  2
STANDARD1
 70
     0
 40
0.0
 41
1.0
 50
0.0
 71
     0
 42
3.0
  3
txt
  4

  0
ENDTAB
  0
TABLE
  2
VIEW
 70
     0
  0
ENDTAB
  0
TABLE
  2
UCS
 70
     0
  0
ENDTAB
  0
TABLE
  2
APPID
 70
    45
  0
APPID
  2
ACAD
 70
     0
  0
APPID
  2
ACAD_NAV_VCDISPLAY
 70
     0
  0
APPID
  2
DCO15
 70
     0
  0
APPID
  2
GENIUS_GENOREF_13
 70
     0
  0
APPID
  2
GENIUS_GENOENT_13
 70
     0
  0
APPID
  2
GENIUS_GENBH_13
 70
     0
  0
APPID
  2
GENIUS_GENOBJ_13
 70
     0
  0
APPID
  2
GENIUS_GENODEF_13
 70
     0
  0
APPID
  2
GENIUS_GENOLIS_13
 70
     0
  0
APPID
  2
GENIUS_GENOBJ-NBEHI-BHF_13
 70
     0
  0
APPID
  2
GENIUS_GENOBJ-NBEHI-BHB_13
 70
     0
  0
APPID
  2
GENIUS_GENOBJ-F-PART_13
 70
     0
  0
APPID
  2
GENIUS_GEFSTDP_13
 70
     0
  0
APPID
  2
GENIUS_GENOBJ-N-RSSYM_13
 70
     0
  0
APPID
  2
GENIUS_GENSYMENT_13
 70
     0
  0
APPID
  2
GENIUS_GENOBJ-N-TIT_13
 70
     0
  0
APPID
  2
GENIUS_GENTITLE_13
 70
     0
  0
APPID
  2
GENIUS_GENZVEED_13
 70
     0
  0
APPID
  2
GENIUS_GENOBJ-N-LEADER_13
 70
     0
  0
APPID
  2
GENIUS_GENOBJ-N-FIL_13
 70
     0
  0
APPID
  2
GENIUS_GENOBJ-N-SEC_13
 70
     0
  0
APPID
  2
GENIUS_GENOBJ-N-CRS_13
 70
     0
  0
APPID
  2
GENIUS_GENOBJ-N-ZOO_13
 70
     0
  0
APPID
  2
GENIUS_GENZOO_13
 70
     0
  0
APPID
  2
GENIUS_GENOBJ-F-TOL_13
 70
     0
  0
APPID
  2
GENIUS_GENFIL_13
 70
     0
  0
APPID
  2
GENIUS_GENOBJ-N-CHA_13
 70
     0
  0
APPID
  2
_CALL_MAC$
 70
     0
  0
APPID
  2
ASM_BASE
 70
     0
  0
APPID
  2
ASM_EXPLO_VER_2_00
 70
     0
  0
APPID
  2
ASM_CADM_VER_12_00
 70
     0
  0
APPID
  2
ASM_BASEFORO
 70
     0
  0
APPID
  2
ASM_BASETRAVI
 70
     0
  0
APPID
  2
ASM_BASETRAVI1
 70
     0
  0
APPID
  2
ASM_GRUPPI
 70
     0
  0
APPID
  2
ASM_CADM_ALBERO
 70
     0
  0
APPID
  2
ASM_GOLE
 70
     0
  0
APPID
  2
ACAD_EXEMPT_FROM_CAD_STANDARDS
 70
     0
  0
APPID
  2
ACAD_DSTYLE_DIMJAG
 70
     0
  0
APPID
  2
ACAD_DSTYLE_DIMTALN
 70
     0
  0
APPID
  2
GRADIENTCOLOR1ACI
 70
     0
  0
APPID
  2
GRADIENTCOLOR2ACI
 70
     0
  0
APPID
  2
ACAD_MLEADERVER
 70
     0
  0
APPID
  2
ACAD_TC
 70
     0
  0
APPID
  2
ACAD_DSTYLE_DIMRADIAL_EXTENSION
 70
     0
  0
ENDTAB
  0
TABLE
  2
DIMSTYLE
 70
     2
  0
DIMSTYLE
  2
STANDARD
 70
     0
  3

  4

  5

  6

  7

 40
1.0
 41
0.18
 42
0.0625
 43
0.38
 44
0.18
 45
0.0
 46
0.0
 47
0.0
 48
0.0
140
0.18
141
0.09
142
0.0
143
25.3999999999999986
144
1.0
145
0.0
146
1.0
147
0.09
 71
     0
 72
     0
 73
     1
 74
     1
 75
     0
 76
     0
 77
     0
 78
     0
170
     0
171
     2
172
     0
173
     0
174
     0
175
     0
176
     0
177
     0
178
     0
  0
DIMSTYLE
  2
ITM
 70
     0
  3

  4

  5
ARROWANG
  6
ARROWANG
  7
ARROWANG
 40
1.0
 41
1.5
 42
1.0
 43
6.0
 44
1.0
 45
0.0
 46
0.0
 47
495.0
 48
0.0
140
3.0
141
0.0
142
0.0
143
25.3999999999999986
144
1.0
145
0.0
146
1.0
147
0.5
 71
     0
 72
     0
 73
     0
 74
     0
 75
     0
 76
     0
 77
     3
 78
     8
170
     0
171
     2
172
     1
173
     1
174
     1
175
     0
176
     0
177
     0
178
     0
  0
ENDTAB
  0
ENDSEC
  0
SECTION
  2
BLOCKS
  0
BLOCK
  8
0
  2
$MODEL_SPACE
 70
     0
 10
0.0
 20
0.0
 30
0.0
  3
$MODEL_SPACE
  1

  0
ENDBLK
  5
1C
  8
0
  0
BLOCK
 67
     1
  8
0
  2
$PAPER_SPACE
 70
     0
 10
0.0
 20
0.0
 30
0.0
  3
$PAPER_SPACE
  1

  0
ENDBLK
  5
19
 67
     1
  8
0
  0
BLOCK
  8
0
  2
ARROWANG
 70
     0
 10
0.0
 20
0.0
 30
0.0
  3
ARROWANG
  1

  0
LINE
  5
C9
  8
0
 10
0.0
 20
0.0
 30
0.0
 11
-1.4999999999999429
 21
0.4019237886467409
 31
0.0
  0
LINE
  5
CA
  8
0
 10
0.0
 20
0.0
 30
0.0
 11
-1.5
 21
-0.4019237886467124
 31
0.0
  0
ENDBLK
  5
CB
  8
0
  0
BLOCK
  8
0
  2
ARROW1
 70
     0
 10
0.0
 20
0.0
 30
0.0
  3
ARROW1
  1

  0
SOLID
  5
EE
  8
WAKU
  6
CONTINUOUS
 62
     4
 10
-1.0
 20
0.1666666666666714
 30
0.0
 11
-1.0
 21
-0.1666666666666714
 31
0.0
 12
0.0
 22
0.0
 32
0.0
 13
0.0
 23
0.0
 33
0.0
  0
ENDBLK
  5
F0
  8
0
  0
ENDSEC
  0
SECTION
  2
ENTITIES
  0
TEXT
  5
1BB9
  8
0
 62
     3
 10
0.0
 20
0.0
 30
0.0
 40
10.0
  1
VVH15-A-G1/8
  7
STANDARD1
  0
CIRCLE
  5
27A3
  8
0
 10
50.0000000000100613
 20
135.0
 30
0.0
 40
4.8640000000000043
  0
CIRCLE
  5
27A4
  8
0
 10
50.0000000000100613
 20
135.0
 30
0.0
 40
2.0
  0
CIRCLE
  5
27B7
  8
0
 10
50.0000000000100613
 20
135.0
 30
0.0
 40
7.2000000000000011
  0
CIRCLE
  5
27B8
  8
0
 10
50.0000000000100613
 20
135.0
 30
0.0
 40
7.5
  0
LINE
  5
27DE
  8
0
 10
57.5000000000100613
 20
80.0
 30
0.0
 11
57.2000000000100712
 21
80.5
 31
0.0
  0
LINE
  5
27DF
  8
0
 10
42.8000000000100727
 20
80.5
 30
0.0
 11
42.5000000000100613
 21
80.0
 31
0.0
  0
ARC
  5
27E0
  8
0
 10
51.5322961042100687
 20
78.5309564380999916
 30
0.0
 40
6.0000000000000169
 50
19.1579777142003813
 51
65.7144818627993601
  0
ARC
  5
27E1
  8
0
 10
48.4677038959100628
 20
78.5309564380999916
 30
0.0
 40
6.0000000000000044
 50
114.2855181372005973
 51
160.8420222857996009
  0
LINE
  5
27E2
  8
0
 10
54.8640000000100585
 20
97.0
 30
0.0
 11
54.8640000000100585
 21
104.4189999999999969
 31
0.0
  0
LINE
  5
27E3
  8
0
 10
45.1360000000100499
 20
104.4189999999999969
 30
0.0
 11
45.1360000000100499
 21
97.0
 31
0.0
  0
LINE
  5
27E4
  8
0
 10
54.8640000000100585
 20
104.4189999999999969
 30
0.0
 11
54.2830000000100767
 21
105.0
 31
0.0
  0
LINE
  5
27E5
  8
0
 10
45.7170000000100671
 20
105.0
 30
0.0
 11
45.1360000000100499
 21
104.4189999999999969
 31
0.0
  0
LINE
  5
27E6
  8
0
 10
54.0000000000100613
 20
84.0
 30
0.0
 11
54.0000000000100613
 21
92.0
 31
0.0
  0
LINE
  5
27E7
  8
0
 10
46.0000000000100471
 20
92.0
 30
0.0
 11
46.0000000000100471
 21
84.0
 31
0.0
  0
LINE
  5
27E8
  8
0
 10
56.9383848713100917
 20
96.7485605315999919
 30
0.0
 11
56.0000000000100613
 21
97.0
 31
0.0
  0
LINE
  5
27E9
  8
0
 10
43.0616151288100681
 20
92.2514394684999957
 30
0.0
 11
44.0000000000100613
 21
92.0
 31
0.0
  0
LINE
  5
27EA
  8
0
 10
44.0000000000100613
 20
97.0
 30
0.0
 11
43.0616151288100681
 21
96.7485605315999919
 31
0.0
  0
LINE
  5
27EB
  8
0
 10
56.0000000000100613
 20
92.0
 30
0.0
 11
56.9383848713100917
 21
92.2514394684999957
 31
0.0
  0
LINE
  5
27EC
  8
0
 10
57.5000000000100826
 20
80.0
 30
0.0
 11
42.5000000000100613
 21
80.0
 31
0.0
  0
LINE
  5
27EE
  8
0
 10
57.2000000000101068
 20
80.5
 30
0.0
 11
42.8000000000100727
 21
80.5
 31
0.0
  0
LINE
  5
27F0
  8
0
 10
54.000000000150628
 20
84.0
 30
0.0
 11
46.0000000000100471
 21
84.0
 31
0.0
  0
LINE
  5
27F4
  8
0
 10
46.535898384910098
 20
92.2487113059999757
 30
0.0
 11
46.535898384910098
 21
96.7512886940999977
 31
0.0
  0
LINE
  5
27F7
  8
0
 10
53.4641016152100619
 20
92.2487113059999757
 30
0.0
 11
53.4641016152100619
 21
96.7512886940999977
 31
0.0
  0
LINE
  5
27F9
  8
0
 10
55.1961524227100711
 20
97.0
 30
0.0
 11
50.0000000000100613
 21
97.0
 31
0.0
  0
LINE
  5
27FB
  8
0
 10
50.0000000000100613
 20
92.0
 30
0.0
 11
44.8038475773101084
 21
92.0
 31
0.0
  0
LINE
  5
27FD
  8
0
 10
50.0000000000100613
 20
97.0
 30
0.0
 11
44.8038475773101084
 21
97.0
 31
0.0
  0
LINE
  5
27FF
  8
0
 10
55.1961524227100711
 20
92.0
 30
0.0
 11
50.0000000000100613
 21
92.0
 31
0.0
  0
LINE
  5
2802
  8
0
 10
56.9282032303100891
 20
92.2487113059999757
 30
0.0
 11
56.9282032303100891
 21
96.7512886940999977
 31
0.0
  0
LINE
  5
2804
  8
0
 10
43.0717967698100992
 20
92.2487113059999757
 30
0.0
 11
43.0717967698100992
 21
96.7512886940999977
 31
0.0
  0
LINE
  5
2806
  8
0
 10
54.8640000000100869
 20
104.4189999999999969
 30
0.0
 11
45.1360000000100499
 21
104.4189999999999969
 31
0.0
  0
LINE
  5
2808
  8
0
 10
54.2830000000100767
 20
105.0
 30
0.0
 11
45.7170000000100671
 21
105.0
 31
0.0
  0
LINE
  5
280A
  8
0
 10
56.0000000000100613
 20
97.0
 30
0.0
 11
55.1961524227100711
 21
97.0
 31
0.0
  0
LINE
  5
280B
  8
0
 10
44.8038475773101084
 20
92.0
 30
0.0
 11
44.0000000000100613
 21
92.0
 31
0.0
  0
LINE
  5
280C
  8
0
 10
44.8038475773101084
 20
97.0
 30
0.0
 11
44.0000000000100613
 21
97.0
 31
0.0
  0
LINE
  5
280D
  8
0
 10
56.0000000000100613
 20
92.0
 30
0.0
 11
55.1961524227100711
 21
92.0
 31
0.0
  0
CIRCLE
  5
2822
  8
0
 10
50.0000000000100613
 20
50.0
 30
0.0
 40
7.5
  0
CIRCLE
  5
2823
  8
0
 10
50.0000000000100613
 20
50.0
 30
0.0
 40
2.0
  0
LINE
  5
284F
  8
0
 10
97.5000000000100755
 20
80.0
 30
0.0
 11
97.2000000000100641
 21
80.5
 31
0.0
  0
LINE
  5
2850
  8
0
 10
82.8000000000100869
 20
80.5
 30
0.0
 11
82.5000000000100755
 21
80.0
 31
0.0
  0
ARC
  5
2851
  8
0
 10
91.532296104110074
 20
78.5309564380000324
 30
0.0
 40
6.0000000000000044
 50
19.1579777141996104
 51
65.7144818627993601
  0
ARC
  5
2852
  8
0
 10
88.4677038958100468
 20
78.5309564380000324
 30
0.0
 40
6.0000000000000169
 50
114.2855181372005973
 51
160.8420222858003967
  0
LINE
  5
2853
  8
0
 10
94.864000000010094
 20
97.0
 30
0.0
 11
94.864000000010094
 21
104.4189999999999969
 31
0.0
  0
LINE
  5
2854
  8
0
 10
85.1360000000100854
 20
104.4189999999999969
 30
0.0
 11
85.1360000000100854
 21
97.0
 31
0.0
  0
LINE
  5
2855
  8
0
 10
94.864000000010094
 20
104.4189999999999969
 30
0.0
 11
94.2830000000100767
 21
105.0
 31
0.0
  0
LINE
  5
2856
  8
0
 10
85.7170000000101027
 20
105.0
 30
0.0
 11
85.1360000000100854
 21
104.4189999999999969
 31
0.0
  0
LINE
  5
2857
  8
0
 10
94.0000000000100897
 20
84.0
 30
0.0
 11
94.0000000000100897
 21
92.0
 31
0.0
  0
LINE
  5
2858
  8
0
 10
86.0000000000100755
 20
92.0
 30
0.0
 11
86.0000000000100755
 21
84.0
 31
0.0
  0
LINE
  5
2859
  8
0
 10
97.5000000000100755
 20
80.0
 30
0.0
 11
82.5000000000100755
 21
80.0
 31
0.0
  0
LINE
  5
285A
  8
0
 10
97.2000000000100641
 20
80.5
 30
0.0
 11
82.8000000000100869
 21
80.5
 31
0.0
  0
LINE
  5
285B
  8
0
 10
94.0000000000100897
 20
84.0
 30
0.0
 11
86.0000000000100755
 21
84.0
 31
0.0
  0
LINE
  5
285E
  8
0
 10
90.0000000000100755
 20
92.2487113059000308
 30
0.0
 11
90.0000000000100755
 21
96.7512886940000527
 31
0.0
  0
LINE
  5
2861
  8
0
 10
96.0000000000101039
 20
92.2487113059000308
 30
0.0
 11
96.0000000000101039
 21
96.7512886940000527
 31
0.0
  0
LINE
  5
2864
  8
0
 10
84.0000000000100897
 20
92.2487113059000308
 30
0.0
 11
84.0000000000100897
 21
96.7512886940000527
 31
0.0
  0
LINE
  5
2867
  8
0
 10
93.0000000000100897
 20
97.0
 30
0.0
 11
87.0000000000101039
 21
97.0
 31
0.0
  0
LINE
  5
2868
  8
0
 10
93.0000000000100897
 20
92.0
 30
0.0
 11
87.0000000000101039
 21
92.0
 31
0.0
  0
LINE
  5
2869
  8
0
 10
96.0000000000101039
 20
97.0
 30
0.0
 11
93.0000000000100897
 21
97.0
 31
0.0
  0
LINE
  5
286C
  8
0
 10
87.0000000000101039
 20
92.0
 30
0.0
 11
84.0000000000100897
 21
92.0
 31
0.0
  0
LINE
  5
286E
  8
0
 10
87.0000000000101039
 20
97.0
 30
0.0
 11
84.0000000000100897
 21
97.0
 31
0.0
  0
LINE
  5
2870
  8
0
 10
96.0000000000101039
 20
92.0
 30
0.0
 11
93.0000000000100897
 21
92.0
 31
0.0
  0
LINE
  5
2871
  8
0
 10
94.864000000010094
 20
104.4189999999999969
 30
0.0
 11
85.1360000000100854
 21
104.4189999999999969
 31
0.0
  0
LINE
  5
2872
  8
0
 10
94.2830000000100767
 20
105.0
 30
0.0
 11
85.7170000000101027
 21
105.0
 31
0.0
  0
CIRCLE
  5
2879
  8
0
 10
50.0000000000100613
 20
135.0
 30
0.0
 40
5.9999991510773363
  0
POLYLINE
  5
287A
  8
0
 66
     1
 10
0.0
 20
0.0
 30
0.0
  0
VERTEX
  5
2918
  8
0
 10
95.9999999999640465
 20
91.9999999999706546
 30
0.0
  0
VERTEX
  5
2919
  8
0
 10
95.9999549319195751
 20
92.0004739136769132
 30
0.0
  0
VERTEX
  5
291A
  8
0
 10
95.9999100142521371
 20
92.0010273336135782
 30
0.0
  0
VERTEX
  5
291B
  8
0
 10
95.9998653973388087
 20
92.0017397660110277
 30
0.0
  0
VERTEX
  5
291C
  8
0
 10
95.9998212315566377
 20
92.0026907170996395
 30
0.0
  0
VERTEX
  5
291D
  8
0
 10
95.9997776672828138
 20
92.0039596931097634
 30
0.0
  0
VERTEX
  5
291E
  8
0
 10
95.9997353850436355
 20
92.0056138574101965
 30
0.0
  0
VERTEX
  5
291F
  8
0
 10
95.999697937160505
 20
92.0076535126559349
 30
0.0
  0
VERTEX
  5
2920
  8
0
 10
95.9996698438456235
 20
92.0100564272044465
 30
0.0
  0
VERTEX
  5
2921
  8
0
 10
95.9996556260505542
 20
92.0128003522010545
 30
0.0
  0
VERTEX
  5
2922
  8
0
 10
95.9996598047268748
 20
92.0158630387911529
 30
0.0
  0
VERTEX
  5
2923
  8
0
 10
95.9996860029330321
 20
92.0192246076380087
 30
0.0
  0
VERTEX
  5
2924
  8
0
 10
95.9997317072803469
 20
92.0228813733429831
 30
0.0
  0
VERTEX
  5
2925
  8
0
 10
95.999791837999993
 20
92.0268364231226741
 30
0.0
  0
VERTEX
  5
2926
  8
0
 10
95.9998613066762942
 20
92.0310928670127311
 30
0.0
  0
VERTEX
  5
2927
  8
0
 10
95.999935024893631
 20
92.0356538150488177
 30
0.0
  0
VERTEX
  5
2928
  8
0
 10
96.0000080273322709
 20
92.0405215542567419
 30
0.0
  0
VERTEX
  5
2929
  8
0
 10
96.0000765218856458
 20
92.045690527648631
 30
0.0
  0
VERTEX
  5
292A
  8
0
 10
96.0001373665875519
 20
92.0511508314498741
 30
0.0
  0
VERTEX
  5
292B
  8
0
 10
96.000187426382837
 20
92.0568925156780438
 30
0.0
  0
VERTEX
  5
292C
  8
0
 10
96.0002235662164765
 20
92.0629056303506559
 30
0.0
  0
VERTEX
  5
292D
  8
0
 10
96.0002428093555125
 20
92.0691806135475161
 30
0.0
  0
VERTEX
  5
292E
  8
0
 10
96.0002451473295366
 20
92.0757151788322687
 30
0.0
  0
VERTEX
  5
292F
  8
0
 10
96.0002332080868257
 20
92.0825135018729384
 30
0.0
  0
VERTEX
  5
2930
  8
0
 10
96.0002097112365362
 20
92.0895799830068853
 30
0.0
  0
VERTEX
  5
2931
  8
0
 10
96.0001773763878248
 20
92.0969190225714982
 30
0.0
  0
VERTEX
  5
2932
  8
0
 10
96.0001389231499331
 20
92.1045350209040947
 30
0.0
  0
VERTEX
  5
2933
  8
0
 10
96.0000970711320036
 20
92.1124323783420493
 30
0.0
  0
VERTEX
  5
2934
  8
0
 10
96.0000545399432639
 20
92.1206154952227365
 30
0.0
  0
VERTEX
  5
2935
  8
0
 10
96.0000140491928136
 20
92.1290887718834739
 30
0.0
  0
VERTEX
  5
2936
  8
0
 10
95.9999783184898945
 20
92.1378566086616644
 30
0.0
  0
VERTEX
  5
2937
  8
0
 10
95.9999500218105766
 20
92.1469229820097553
 30
0.0
  0
VERTEX
  5
2938
  8
0
 10
95.9999302885503738
 20
92.1562775208269898
 30
0.0
  0
VERTEX
  5
2939
  8
0
 10
95.9999183651034542
 20
92.1658923628784947
 30
0.0
  0
VERTEX
  5
293A
  8
0
 10
95.9999133837129364
 20
92.1757385855827636
 30
0.0
  0
VERTEX
  5
293B
  8
0
 10
95.9999144766215693
 20
92.1857872663581333
 30
0.0
  0
VERTEX
  5
293C
  8
0
 10
95.9999207760725142
 20
92.1960094826230261
 30
0.0
  0
VERTEX
  5
293D
  8
0
 10
95.9999314143085769
 20
92.2063763117958786
 30
0.0
  0
VERTEX
  5
293E
  8
0
 10
95.9999455235728476
 20
92.2168588312950845
 30
0.0
  0
VERTEX
  5
293F
  8
0
 10
95.999962236108189
 20
92.2274281185390237
 30
0.0
  0
VERTEX
  5
2940
  8
0
 10
95.9999806841575634
 20
92.2380552509461751
 30
0.0
  0
VERTEX
  5
2941
  8
0
 10
95.9999999999640465
 20
92.2487113059348758
 30
0.0
  0
SEQEND
  5
2942
  8
0
  0
POLYLINE
  5
287B
  8
0
 66
     1
 10
0.0
 20
0.0
 30
0.0
  0
VERTEX
  5
2943
  8
0
 10
83.9999999999641034
 20
96.999999999970683
 30
0.0
  0
VERTEX
  5
2944
  8
0
 10
84.0000450680085748
 20
96.9995260862643391
 30
0.0
  0
VERTEX
  5
2945
  8
0
 10
84.0000899856759418
 20
96.9989726663276315
 30
0.0
  0
VERTEX
  5
2946
  8
0
 10
84.0001346025891564
 20
96.9982602339301678
 30
0.0
  0
VERTEX
  5
2947
  8
0
 10
84.0001787683711569
 20
96.9973092828415417
 30
0.0
  0
VERTEX
  5
2948
  8
0
 10
84.0002223326448814
 20
96.9960403068314037
 30
0.0
  0
VERTEX
  5
2949
  8
0
 10
84.0002646148838323
 20
96.9943861425309137
 30
0.0
  0
VERTEX
  5
294A
  8
0
 10
84.0003020627667354
 20
96.9923464872851326
 30
0.0
  0
VERTEX
  5
294B
  8
0
 10
84.0003301560813895
 20
96.9899435727365358
 30
0.0
  0
VERTEX
  5
294C
  8
0
 10
84.0003443738762172
 20
96.9871996477398
 30
0.0
  0
VERTEX
  5
294D
  8
0
 10
84.0003401951997546
 20
96.9841369611496589
 30
0.0
  0
VERTEX
  5
294E
  8
0
 10
84.0003139969933557
 20
96.9807753923027462
 30
0.0
  0
VERTEX
  5
294F
  8
0
 10
84.0002682926459272
 20
96.977118626597715
 30
0.0
  0
VERTEX
  5
2950
  8
0
 10
84.0002081619262242
 20
96.973163576818024
 30
0.0
  0
VERTEX
  5
2951
  8
0
 10
84.0001386932498377
 20
96.9689071329279813
 30
0.0
  0
VERTEX
  5
2952
  8
0
 10
84.0000649750326431
 20
96.964346184891923
 30
0.0
  0
VERTEX
  5
2953
  8
0
 10
83.9999919725943158
 20
96.9594784456840557
 30
0.0
  0
VERTEX
  5
2954
  8
0
 10
83.9999234780411967
 20
96.954309472292266
 30
0.0
  0
VERTEX
  5
2955
  8
0
 10
83.9998626333396885
 20
96.9488491684911224
 30
0.0
  0
VERTEX
  5
2956
  8
0
 10
83.9998125735448156
 20
96.9431074842630522
 30
0.0
  0
VERTEX
  5
2957
  8
0
 10
83.9997764337116166
 20
96.937094369590568
 30
0.0
  0
VERTEX
  5
2958
  8
0
 10
83.9997571905729785
 20
96.930819386393793
 30
0.0
  0
VERTEX
  5
2959
  8
0
 10
83.9997548525992954
 20
96.9242848211091257
 30
0.0
  0
VERTEX
  5
295A
  8
0
 10
83.9997667918422906
 20
96.9174864980685413
 30
0.0
  0
VERTEX
  5
295B
  8
0
 10
83.9997902886928642
 20
96.910420016934637
 30
0.0
  0
VERTEX
  5
295C
  8
0
 10
83.9998226235417462
 20
96.9030809773700952
 30
0.0
  0
VERTEX
  5
295D
  8
0
 10
83.9998610767797942
 20
96.8954649790375129
 30
0.0
  0
VERTEX
  5
295E
  8
0
 10
83.9999029287978658
 20
96.8875676215995725
 30
0.0
  0
VERTEX
  5
295F
  8
0
 10
83.999945459986705
 20
96.8793845047189279
 30
0.0
  0
VERTEX
  5
2960
  8
0
 10
83.9999859507371553
 20
96.8709112280581763
 30
0.0
  0
VERTEX
  5
2961
  8
0
 10
84.0000216814400744
 20
96.8621433912800001
 30
0.0
  0
VERTEX
  5
2962
  8
0
 10
84.0000499781193781
 20
96.8530770179318807
 30
0.0
  0
VERTEX
  5
2963
  8
0
 10
84.0000697113795525
 20
96.8437224791146321
 30
0.0
  0
VERTEX
  5
2964
  8
0
 10
84.0000816348263299
 20
96.8341076370630844
 30
0.0
  0
VERTEX
  5
2965
  8
0
 10
84.0000866162167341
 20
96.8242614143588156
 30
0.0
  0
VERTEX
  5
2966
  8
0
 10
84.0000855233079449
 20
96.8142127335834175
 30
0.0
  0
VERTEX
  5
2967
  8
0
 10
84.0000792238568152
 20
96.803990517318482
 30
0.0
  0
VERTEX
  5
2968
  8
0
 10
84.0000685856205394
 20
96.7936236881456011
 30
0.0
  0
VERTEX
  5
2969
  8
0
 10
84.0000544763560981
 20
96.7831411686463525
 30
0.0
  0
VERTEX
  5
296A
  8
0
 10
84.0000377638205293
 20
96.7725718814023423
 30
0.0
  0
VERTEX
  5
296B
  8
0
 10
84.0000193157708566
 20
96.7619447489951341
 30
0.0
  0
VERTEX
  5
296C
  8
0
 10
83.999999999964146
 20
96.7512886940063481
 30
0.0
  0
SEQEND
  5
296D
  8
0
  0
POLYLINE
  5
287C
  8
0
 66
     1
 10
0.0
 20
0.0
 30
0.0
  0
VERTEX
  5
296E
  8
0
 10
83.9999999999641034
 20
92.2487113059348758
 30
0.0
  0
VERTEX
  5
296F
  8
0
 10
84.0000142555355467
 20
92.2360079657345864
 30
0.0
  0
VERTEX
  5
2970
  8
0
 10
84.0000280638327865
 20
92.2233697091910471
 30
0.0
  0
VERTEX
  5
2971
  8
0
 10
84.0000409775816053
 20
92.2108616199609656
 30
0.0
  0
VERTEX
  5
2972
  8
0
 10
84.0000525495078421
 20
92.1985487817011347
 30
0.0
  0
VERTEX
  5
2973
  8
0
 10
84.0000623323372935
 20
92.1864962780682617
 30
0.0
  0
VERTEX
  5
2974
  8
0
 10
84.0000698787704749
 20
92.1747691909174165
 30
0.0
  0
VERTEX
  5
2975
  8
0
 10
84.0000745439718628
 20
92.163418531861268
 30
0.0
  0
VERTEX
  5
2976
  8
0
 10
84.0000750089369745
 20
92.1524472922805558
 30
0.0
  0
VERTEX
  5
2977
  8
0
 10
84.0000698109621737
 20
92.1418482280484881
 30
0.0
  0
VERTEX
  5
2978
  8
0
 10
84.0000574873437529
 20
92.1316140950382447
 30
0.0
  0
VERTEX
  5
2979
  8
0
 10
84.0000365753782319
 20
92.1217376491230766
 30
0.0
  0
VERTEX
  5
297A
  8
0
 10
84.0000056340362136
 20
92.112211665055824
 30
0.0
  0
VERTEX
  5
297B
  8
0
 10
83.9999658607971185
 20
92.1030312158894162
 30
0.0
  0
VERTEX
  5
297C
  8
0
 10
83.9999235860931464
 20
92.094195845788164
 30
0.0
  0
VERTEX
  5
297D
  8
0
 10
83.9998857312988036
 20
92.0857056136628529
 30
0.0
  0
VERTEX
  5
297E
  8
0
 10
83.9998592177887247
 20
92.0775605784242259
 30
0.0
  0
VERTEX
  5
297F
  8
0
 10
83.9998509669373732
 20
92.0697607989829265
 30
0.0
  0
VERTEX
  5
2980
  8
0
 10
83.9998675727016746
 20
92.0623069255856308
 30
0.0
  0
VERTEX
  5
2981
  8
0
 10
83.9999091203375485
 20
92.0552113635791898
 30
0.0
  0
VERTEX
  5
2982
  8
0
 10
83.9999697080895373
 20
92.0484973312089778
 30
0.0
  0
VERTEX
  5
2983
  8
0
 10
84.000043211350615
 20
92.0421884492033939
 30
0.0
  0
VERTEX
  5
2984
  8
0
 10
84.0001235055138125
 20
92.0363083382907519
 30
0.0
  0
VERTEX
  5
2985
  8
0
 10
84.0002044659721321
 20
92.0308806191995217
 30
0.0
  0
VERTEX
  5
2986
  8
0
 10
84.0002799681184626
 20
92.025928912658074
 30
0.0
  0
VERTEX
  5
2987
  8
0
 10
84.0003438873459061
 20
92.0214768393947509
 30
0.0
  0
VERTEX
  5
2988
  8
0
 10
84.0003900990473937
 20
92.0175480201379941
 30
0.0
  0
VERTEX
  5
2989
  8
0
 10
84.0004130499602155
 20
92.0141605798083617
 30
0.0
  0
VERTEX
  5
298A
  8
0
 10
84.000412624423717
 20
92.011280338571737
 30
0.0
  0
VERTEX
  5
298B
  8
0
 10
84.0003917166019534
 20
92.0088441648378534
 30
0.0
  0
VERTEX
  5
298C
  8
0
 10
84.0003532525358168
 20
92.0067886203920864
 30
0.0
  0
VERTEX
  5
298D
  8
0
 10
84.0003001582659579
 20
92.0050502670196977
 30
0.0
  0
VERTEX
  5
298E
  8
0
 10
84.0002353598331126
 20
92.0035656665060628
 30
0.0
  0
VERTEX
  5
298F
  8
0
 10
84.000161783278017
 20
92.0022713806364436
 30
0.0
  0
VERTEX
  5
2990
  8
0
 10
84.000082354641421
 20
92.0011039711962155
 30
0.0
  0
VERTEX
  5
2991
  8
0
 10
83.999999999964146
 20
91.9999999999706546
 30
0.0
  0
SEQEND
  5
2992
  8
0
  0
POLYLINE
  5
287D
  8
0
 66
     1
 10
0.0
 20
0.0
 30
0.0
  0
VERTEX
  5
2993
  8
0
 10
95.9999999999642171
 20
96.7512886940063481
 30
0.0
  0
VERTEX
  5
2994
  8
0
 10
95.9999857443927738
 20
96.7639920342066233
 30
0.0
  0
VERTEX
  5
2995
  8
0
 10
95.9999719360955339
 20
96.7766302907501625
 30
0.0
  0
VERTEX
  5
2996
  8
0
 10
95.999959022346701
 20
96.7891383799802156
 30
0.0
  0
VERTEX
  5
2997
  8
0
 10
95.9999474504204784
 20
96.8014512182400608
 30
0.0
  0
VERTEX
  5
2998
  8
0
 10
95.9999376675910696
 20
96.8135037218729622
 30
0.0
  0
VERTEX
  5
2999
  8
0
 10
95.9999301211579166
 20
96.8252308090237932
 30
0.0
  0
VERTEX
  5
299A
  8
0
 10
95.9999254559565145
 20
96.8365814680799417
 30
0.0
  0
VERTEX
  5
299B
  8
0
 10
95.9999249909914454
 20
96.8475527076606824
 30
0.0
  0
VERTEX
  5
299C
  8
0
 10
95.999930188966303
 20
96.8581517718927643
 30
0.0
  0
VERTEX
  5
299D
  8
0
 10
95.9999425125847381
 20
96.8683859049029934
 30
0.0
  0
VERTEX
  5
299E
  8
0
 10
95.9999634245503159
 20
96.8782623508182041
 30
0.0
  0
VERTEX
  5
299F
  8
0
 10
95.9999943658922632
 20
96.8877883348854851
 30
0.0
  0
VERTEX
  5
29A0
  8
0
 10
96.0000341391313157
 20
96.896968784051893
 30
0.0
  0
VERTEX
  5
29A1
  8
0
 10
96.0000764138352736
 20
96.905804154153131
 30
0.0
  0
VERTEX
  5
29A2
  8
0
 10
96.0001142686295736
 20
96.9142943862784563
 30
0.0
  0
VERTEX
  5
29A3
  8
0
 10
96.0001407821395958
 20
96.9224394215171401
 30
0.0
  0
VERTEX
  5
29A4
  8
0
 10
96.0001490329908336
 20
96.9302392009584253
 30
0.0
  0
VERTEX
  5
29A5
  8
0
 10
96.0001324272264753
 20
96.9376930743557352
 30
0.0
  0
VERTEX
  5
29A6
  8
0
 10
96.0000908795905445
 20
96.9447886363621762
 30
0.0
  0
VERTEX
  5
29A7
  8
0
 10
96.0000302918385557
 20
96.9515026687323882
 30
0.0
  0
VERTEX
  5
29A8
  8
0
 10
95.999956788577407
 20
96.9578115507380147
 30
0.0
  0
VERTEX
  5
29A9
  8
0
 10
95.9998764944142238
 20
96.9636916616506142
 30
0.0
  0
VERTEX
  5
29AA
  8
0
 10
95.9997955339559752
 20
96.9691193807418728
 30
0.0
  0
VERTEX
  5
29AB
  8
0
 10
95.9997200318095736
 20
96.9740710872833347
 30
0.0
  0
VERTEX
  5
29AC
  8
0
 10
95.9996561125821302
 20
96.9785231605466151
 30
0.0
  0
VERTEX
  5
29AD
  8
0
 10
95.9996099008806425
 20
96.982451979803372
 30
0.0
  0
VERTEX
  5
29AE
  8
0
 10
95.9995869499679486
 20
96.9858394201330043
 30
0.0
  0
VERTEX
  5
29AF
  8
0
 10
95.9995873755045039
 20
96.9887196613696148
 30
0.0
  0
VERTEX
  5
29B0
  8
0
 10
95.9996082833261681
 20
96.9911558351034842
 30
0.0
  0
VERTEX
  5
29B1
  8
0
 10
95.9996467473923474
 20
96.9932113795492512
 30
0.0
  0
VERTEX
  5
29B2
  8
0
 10
95.9996998416622489
 20
96.9949497329216115
 30
0.0
  0
VERTEX
  5
29B3
  8
0
 10
95.9997646400950941
 20
96.9964343334352463
 30
0.0
  0
VERTEX
  5
29B4
  8
0
 10
95.999838216650204
 20
96.9977286193048656
 30
0.0
  0
VERTEX
  5
29B5
  8
0
 10
95.9999176452867857
 20
96.9988960287450936
 30
0.0
  0
VERTEX
  5
29B6
  8
0
 10
95.9999999999641034
 20
96.999999999970683
 30
0.0
  0
SEQEND
  5
29B7
  8
0
  0
POLYLINE
  5
287E
  8
0
 66
     1
 10
0.0
 20
0.0
 30
0.0
  0
VERTEX
  5
29B8
  8
0
 10
86.9999999999641034
 20
96.999999999970683
 30
0.0
  0
VERTEX
  5
29B9
  8
0
 10
87.0734371489436683
 20
96.9995264585857342
 30
0.0
  0
VERTEX
  5
29BA
  8
0
 10
87.1468732600335727
 20
96.998973461597231
 30
0.0
  0
VERTEX
  5
29BB
  8
0
 10
87.2203072953442131
 20
96.9982615534014911
 30
0.0
  0
VERTEX
  5
29BC
  8
0
 10
87.2937382169858722
 20
96.9973112783949034
 30
0.0
  0
VERTEX
  5
29BD
  8
0
 10
87.3671649870688753
 20
96.9960431809738282
 30
0.0
  0
VERTEX
  5
29BE
  8
0
 10
87.4405862887578849
 20
96.994390110550313
 30
0.0
  0
VERTEX
  5
29BF
  8
0
 10
87.5139992912607738
 20
96.9923517010767
 30
0.0
  0
VERTEX
  5
29C0
  8
0
 10
87.5874006525861262
 20
96.989950136823694
 30
0.0
  0
VERTEX
  5
29C1
  8
0
 10
87.6607870303454604
 20
96.987207619584396
 30
0.0
  0
VERTEX
  5
29C2
  8
0
 10
87.7341550821499965
 20
96.9841463511518356
 30
0.0
  0
VERTEX
  5
29C3
  8
0
 10
87.8075019163247532
 20
96.9807861693012541
 30
0.0
  0
VERTEX
  5
29C4
  8
0
 10
87.8808277260131092
 20
96.9771307317547269
 30
0.0
  0
VERTEX
  5
29C5
  8
0
 10
87.954133996184936
 20
96.9731769205308467
 30
0.0
  0
VERTEX
  5
29C6
  8
0
 10
88.0274222161923774
 20
96.9689215946622056
 30
0.0
  0
VERTEX
  5
29C7
  8
0
 10
88.1006938753876909
 20
96.9643616131814383
 30
0.0
  0
VERTEX
  5
29C8
  8
0
 10
88.1739504685149029
 20
96.959494661438427
 30
0.0
  0
VERTEX
  5
29C9
  8
0
 10
88.2471935416123472
 20
96.9543262856923747
 30
0.0
  0
VERTEX
  5
29CA
  8
0
 10
88.3204246691009445
 20
96.9488663819129499
 30
0.0
  0
VERTEX
  5
29CB
  8
0
 10
88.3936454257020756
 20
96.9431248920865158
 30
0.0
  0
VERTEX
  5
29CC
  8
0
 10
88.466857386137093
 20
96.9371117581994497
 30
0.0
  0
VERTEX
  5
29CD
  8
0
 10
88.5400620077852807
 20
96.9308365300820753
 30
0.0
  0
VERTEX
  5
29CE
  8
0
 10
88.6132585709337093
 20
96.9243014817339485
 30
0.0
  0
VERTEX
  5
29CF
  8
0
 10
88.6864444343821958
 20
96.9175024655546338
 30
0.0
  0
VERTEX
  5
29D0
  8
0
 10
88.7596168909597338
 20
96.9104351134697453
 30
0.0
  0
VERTEX
  5
29D1
  8
0
 10
88.8327732334953168
 20
96.9030950574046983
 30
0.0
  0
VERTEX
  5
29D2
  8
0
 10
88.9059107548179242
 20
96.8954779292850645
 30
0.0
  0
VERTEX
  5
29D3
  8
0
 10
88.9790267477565351
 20
96.8875793610363729
 30
0.0
  0
VERTEX
  5
29D4
  8
0
 10
89.0521185051401005
 20
96.8793949845841382
 30
0.0
  0
VERTEX
  5
29D5
  8
0
 10
89.125183319797685
 20
96.8709204318538752
 30
0.0
  0
VERTEX
  5
29D6
  8
0
 10
89.1982184845582253
 20
96.8621513347710845
 30
0.0
  0
VERTEX
  5
29D7
  8
0
 10
89.2712213693758088
 20
96.8530837559203235
 30
0.0
  0
VERTEX
  5
29D8
  8
0
 10
89.3441919196023662
 20
96.8437281386641473
 30
0.0
  0
VERTEX
  5
29D9
  8
0
 10
89.4171332001970569
 20
96.8341123459547504
 30
0.0
  0
VERTEX
  5
29DA
  8
0
 10
89.4900484633411395
 20
96.824265286175816
 30
0.0
  0
VERTEX
  5
29DB
  8
0
 10
89.5629409612159009
 20
96.8142158677110132
 30
0.0
  0
VERTEX
  5
29DC
  8
0
 10
89.6358139460027274
 20
96.8039929989440964
 30
0.0
  0
VERTEX
  5
29DD
  8
0
 10
89.7086706698829914
 20
96.7936255882587062
 30
0.0
  0
VERTEX
  5
29DE
  8
0
 10
89.7815143850378661
 20
96.7831425440385544
 30
0.0
  0
VERTEX
  5
29DF
  8
0
 10
89.8543483436488657
 20
96.7725727746673385
 30
0.0
  0
VERTEX
  5
29E0
  8
0
 10
89.9271757978971493
 20
96.7619451885287418
 30
0.0
  0
VERTEX
  5
29E1
  8
0
 10
89.9999999999641744
 20
96.7512886940064618
 30
0.0
  0
SEQEND
  5
29E2
  8
0
  0
POLYLINE
  5
287F
  8
0
 66
     1
 10
0.0
 20
0.0
 30
0.0
  0
VERTEX
  5
29E3
  8
0
 10
83.999999999964146
 20
96.7512886940064618
 30
0.0
  0
VERTEX
  5
29E4
  8
0
 10
84.0852993642757554
 20
96.7639899966676751
 30
0.0
  0
VERTEX
  5
29E5
  8
0
 10
84.1706052788385648
 20
96.7766264466100523
 30
0.0
  0
VERTEX
  5
29E6
  8
0
 10
84.2559242939039592
 20
96.7891331911147574
 30
0.0
  0
VERTEX
  5
29E7
  8
0
 10
84.3412629597231387
 20
96.8014453774629544
 30
0.0
  0
VERTEX
  5
29E8
  8
0
 10
84.4266278265474455
 20
96.8134981529358356
 30
0.0
  0
VERTEX
  5
29E9
  8
0
 10
84.5120254445930357
 20
96.82522666507964
 30
0.0
  0
VERTEX
  5
29EA
  8
0
 10
84.5974606334920907
 20
96.8365791109642942
 30
0.0
  0
VERTEX
  5
29EB
  8
0
 10
84.6829318487524034
 20
96.847551676546658
 30
0.0
  0
VERTEX
  5
29EC
  8
0
 10
84.7684360833168
 20
96.8581515763033707
 30
0.0
  0
VERTEX
  5
29ED
  8
0
 10
84.8539703301277939
 20
96.8683860247110289
 30
0.0
  0
VERTEX
  5
29EE
  8
0
 10
84.9395315821281258
 20
96.8782622362463144
 30
0.0
  0
VERTEX
  5
29EF
  8
0
 10
85.0251168406512932
 20
96.8877874156150796
 30
0.0
  0
VERTEX
  5
29F0
  8
0
 10
85.1107248821472524
 20
96.8969667004826789
 30
0.0
  0
VERTEX
  5
29F1
  8
0
 10
85.1963584417481172
 20
96.9058006188129752
 30
0.0
  0
VERTEX
  5
29F2
  8
0
 10
85.2820207899370928
 20
96.9142890751783739
 30
0.0
  0
VERTEX
  5
29F3
  8
0
 10
85.3677151971974837
 20
96.9224319741512943
 30
0.0
  0
VERTEX
  5
29F4
  8
0
 10
85.4534449340124809
 20
96.9302292203040849
 30
0.0
  0
VERTEX
  5
29F5
  8
0
 10
85.5392131474316244
 20
96.9376803391802184
 30
0.0
  0
VERTEX
  5
29F6
  8
0
 10
85.6250195069312241
 20
96.9447741776984628
 30
0.0
  0
VERTEX
  5
29F7
  8
0
 10
85.7108598076304844
 20
96.951487685745505
 30
0.0
  0
VERTEX
  5
29F8
  8
0
 10
85.7967296415678504
 20
96.9577971896053441
 30
0.0
  0
VERTEX
  5
29F9
  8
0
 10
85.8826246007817247
 20
96.9636790155619792
 30
0.0
  0
VERTEX
  5
29FA
  8
0
 10
85.9685402773105523
 20
96.9691094898994663
 30
0.0
  0
VERTEX
  5
29FB
  8
0
 10
86.0544722631928352
 20
96.9740649389017904
 30
0.0
  0
VERTEX
  5
29FC
  8
0
 10
86.1404161504669048
 20
96.9785216888529931
 30
0.0
  0
VERTEX
  5
29FD
  8
0
 10
86.2263675311712348
 20
96.9824560660370878
 30
0.0
  0
VERTEX
  5
29FE
  8
0
 10
86.312322224898125
 20
96.9858491181480531
 30
0.0
  0
VERTEX
  5
29FF
  8
0
 10
86.3982785108637756
 20
96.9887329264851843
 30
0.0
  0
VERTEX
  5
2A00
  8
0
 10
86.4842361711964998
 20
96.9911707555785938
 30
0.0
  0
VERTEX
  5
2A01
  8
0
 10
86.5701950095581054
 20
96.9932263167488316
 30
0.0
  0
VERTEX
  5
2A02
  8
0
 10
86.6561548296104149
 20
96.9949633213163906
 30
0.0
  0
VERTEX
  5
2A03
  8
0
 10
86.7421154350152648
 20
96.9964454806018352
 30
0.0
  0
VERTEX
  5
2A04
  8
0
 10
86.8280766294346478
 20
96.9977365059256442
 30
0.0
  0
VERTEX
  5
2A05
  8
0
 10
86.9140382165302441
 20
96.9989001086084244
 30
0.0
  0
VERTEX
  5
2A06
  8
0
 10
86.9999999999640465
 20
96.999999999970683
 30
0.0
  0
SEQEND
  5
2A07
  8
0
  0
POLYLINE
  5
2880
  8
0
 66
     1
 10
0.0
 20
0.0
 30
0.0
  0
VERTEX
  5
2A08
  8
0
 10
86.9999999999641034
 20
91.9999999999706546
 30
0.0
  0
VERTEX
  5
2A09
  8
0
 10
86.926609499054436
 20
92.0004735413555608
 30
0.0
  0
VERTEX
  5
2A0A
  8
0
 10
86.853220044843809
 20
92.0010265383440782
 30
0.0
  0
VERTEX
  5
2A0B
  8
0
 10
86.7798326840313337
 20
92.0017384465398464
 30
0.0
  0
VERTEX
  5
2A0C
  8
0
 10
86.706448463316093
 20
92.0026887215465052
 30
0.0
  0
VERTEX
  5
2A0D
  8
0
 10
86.6330684293971274
 20
92.0039568189676231
 30
0.0
  0
VERTEX
  5
2A0E
  8
0
 10
86.5596933374887101
 20
92.0056098893912235
 30
0.0
  0
VERTEX
  5
2A0F
  8
0
 10
86.4863223607933662
 20
92.0076482988649076
 30
0.0
  0
VERTEX
  5
2A10
  8
0
 10
86.4129541383350954
 20
92.0100498631179846
 30
0.0
  0
VERTEX
  5
2A11
  8
0
 10
86.3395873087228267
 20
92.0127923803573537
 30
0.0
  0
VERTEX
  5
2A12
  8
0
 10
86.2662205105654323
 20
92.0158536487899141
 30
0.0
  0
VERTEX
  5
2A13
  8
0
 10
86.1928528351160423
 20
92.0192138306405951
 30
0.0
  0
VERTEX
  5
2A14
  8
0
 10
86.1194864716606219
 20
92.0228692681871081
 30
0.0
  0
VERTEX
  5
2A15
  8
0
 10
86.0461249068452076
 20
92.0268230794110167
 30
0.0
  0
VERTEX
  5
2A16
  8
0
 10
85.9727716317171655
 20
92.0310784052796578
 30
0.0
  0
VERTEX
  5
2A17
  8
0
 10
85.899430137323705
 20
92.0356383867603682
 30
0.0
  0
VERTEX
  5
2A18
  8
0
 10
85.8261037892107339
 20
92.0405053385033369
 30
0.0
  0
VERTEX
  5
2A19
  8
0
 10
85.7527947590077417
 20
92.0456737142492756
 30
0.0
  0
VERTEX
  5
2A1A
  8
0
 10
85.6795045577090093
 20
92.0511336180285866
 30
0.0
  0
VERTEX
  5
2A1B
  8
0
 10
85.6062346893197912
 20
92.0568751078548928
 30
0.0
  0
VERTEX
  5
2A1C
  8
0
 10
85.5329866578455551
 20
92.0628882417418311
 30
0.0
  0
VERTEX
  5
2A1D
  8
0
 10
85.4597619292407131
 20
92.0691634698590775
 30
0.0
  0
VERTEX
  5
2A1E
  8
0
 10
85.3865612634881046
 20
92.075698518207119
 30
0.0
  0
VERTEX
  5
2A1F
  8
0
 10
85.3133847974844741
 20
92.0824975343863343
 30
0.0
  0
VERTEX
  5
2A20
  8
0
 10
85.2402326467340146
 20
92.0895648864711944
 30
0.0
  0
VERTEX
  5
2A21
  8
0
 10
85.1671049267410751
 20
92.0969049425361703
 30
0.0
  0
VERTEX
  5
2A22
  8
0
 10
85.0940017530098061
 20
92.1045220706557473
 30
0.0
  0
VERTEX
  5
2A23
  8
0
 10
85.0209232410444145
 20
92.1124206389044105
 30
0.0
  0
VERTEX
  5
2A24
  8
0
 10
84.9478695063491642
 20
92.1206050153566309
 30
0.0
  0
VERTEX
  5
2A25
  8
0
 10
84.8748406644283051
 20
92.1290795680868939
 30
0.0
  0
VERTEX
  5
2A26
  8
0
 10
84.8018368307860726
 20
92.1378486651696704
 30
0.0
  0
VERTEX
  5
2A27
  8
0
 10
84.7288580881651967
 20
92.1469162440204457
 30
0.0
  0
VERTEX
  5
2A28
  8
0
 10
84.6559034253218385
 20
92.1562718612766503
 30
0.0
  0
VERTEX
  5
2A29
  8
0
 10
84.5829705058542061
 20
92.1658876539861041
 30
0.0
  0
VERTEX
  5
2A2A
  8
0
 10
84.5100569138317326
 20
92.1757347137650669
 30
0.0
  0
VERTEX
  5
2A2B
  8
0
 10
84.4371602333237377
 20
92.1857841322298839
 30
0.0
  0
VERTEX
  5
2A2C
  8
0
 10
84.3642780483995978
 20
92.1960070009968859
 30
0.0
  0
VERTEX
  5
2A2D
  8
0
 10
84.2914079431286183
 20
92.2063744116823045
 30
0.0
  0
VERTEX
  5
2A2E
  8
0
 10
84.2185475015802751
 20
92.2168574559025274
 30
0.0
  0
VERTEX
  5
2A2F
  8
0
 10
84.1456943078238453
 20
92.2274272252738143
 30
0.0
  0
VERTEX
  5
2A30
  8
0
 10
84.0728459459286626
 20
92.2380548114124963
 30
0.0
  0
VERTEX
  5
2A31
  8
0
 10
83.9999999999641034
 20
92.2487113059348758
 30
0.0
  0
SEQEND
  5
2A32
  8
0
  0
POLYLINE
  5
2881
  8
0
 66
     1
 10
0.0
 20
0.0
 30
0.0
  0
VERTEX
  5
2A33
  8
0
 10
89.9999999999640465
 20
92.2487113059348758
 30
0.0
  0
VERTEX
  5
2A34
  8
0
 10
89.9147144776451057
 20
92.2360100032736341
 30
0.0
  0
VERTEX
  5
2A35
  8
0
 10
89.8294219099890654
 20
92.2233735533312426
 30
0.0
  0
VERTEX
  5
2A36
  8
0
 10
89.7441152516587124
 20
92.2108668088265233
 30
0.0
  0
VERTEX
  5
2A37
  8
0
 10
89.6587874573170041
 20
92.1985546224783121
 30
0.0
  0
VERTEX
  5
2A38
  8
0
 10
89.5734314816267272
 20
92.1865018470054451
 30
0.0
  0
VERTEX
  5
2A39
  8
0
 10
89.4880402792826573
 20
92.1747733348616691
 30
0.0
  0
VERTEX
  5
2A3A
  8
0
 10
89.4026083754653058
 20
92.163420888977015
 30
0.0
  0
VERTEX
  5
2A3B
  8
0
 10
89.3171360707275142
 20
92.1524483233946796
 30
0.0
  0
VERTEX
  5
2A3C
  8
0
 10
89.2316249928838658
 20
92.1418484236380095
 30
0.0
  0
VERTEX
  5
2A3D
  8
0
 10
89.1460767697489445
 20
92.1316139752303656
 30
0.0
  0
VERTEX
  5
2A3E
  8
0
 10
89.0604930291371346
 20
92.1217377636950943
 30
0.0
  0
VERTEX
  5
2A3F
  8
0
 10
88.9748754015803769
 20
92.1122125843263149
 30
0.0
  0
VERTEX
  5
2A40
  8
0
 10
88.889226092454436
 20
92.1030332994587155
 30
0.0
  0
VERTEX
  5
2A41
  8
0
 10
88.8035485890933671
 20
92.0941993811283766
 30
0.0
  0
VERTEX
  5
2A42
  8
0
 10
88.7178465521964057
 20
92.0857109247629637
 30
0.0
  0
VERTEX
  5
2A43
  8
0
 10
88.6321236424625738
 20
92.0775680257900149
 30
0.0
  0
VERTEX
  5
2A44
  8
0
 10
88.5463835205911494
 20
92.0697707796371674
 30
0.0
  0
VERTEX
  5
2A45
  8
0
 10
88.4606297597665332
 20
92.0623196607610055
 30
0.0
  0
VERTEX
  5
2A46
  8
0
 10
88.374863467563415
 20
92.0552258222427184
 30
0.0
  0
VERTEX
  5
2A47
  8
0
 10
88.2890830046262352
 20
92.0485123141956478
 30
0.0
  0
VERTEX
  5
2A48
  8
0
 10
88.2032865876145422
 20
92.0422028103358087
 30
0.0
  0
VERTEX
  5
2A49
  8
0
 10
88.1174724331878139
 20
92.0363209843791452
 30
0.0
  0
VERTEX
  5
2A4A
  8
0
 10
88.0316387580055846
 20
92.0308905100416581
 30
0.0
  0
VERTEX
  5
2A4B
  8
0
 10
87.9457837787273036
 20
92.0259350610393199
 30
0.0
  0
VERTEX
  5
2A4C
  8
0
 10
87.8599057120126474
 20
92.0214783110881172
 30
0.0
  0
VERTEX
  5
2A4D
  8
0
 10
87.7740027745209943
 20
92.0175439339040224
 30
0.0
  0
VERTEX
  5
2A4E
  8
0
 10
87.6880734485176561
 20
92.0141508817930855
 30
0.0
  0
VERTEX
  5
2A4F
  8
0
 10
87.6021190871937563
 20
92.0112670734559543
 30
0.0
  0
VERTEX
  5
2A50
  8
0
 10
87.5161427979717956
 20
92.0088292443625448
 30
0.0
  0
VERTEX
  5
2A51
  8
0
 10
87.4301477134085587
 20
92.0067736831923497
 30
0.0
  0
VERTEX
  5
2A52
  8
0
 10
87.3441369660609155
 20
92.0050366786248048
 30
0.0
  0
VERTEX
  5
2A53
  8
0
 10
87.2581136884858068
 20
92.0035545193394029
 30
0.0
  0
VERTEX
  5
2A54
  8
0
 10
87.1720810132400459
 20
92.0022634940155939
 30
0.0
  0
VERTEX
  5
2A55
  8
0
 10
87.0860420728805167
 20
92.0010998913328564
 30
0.0
  0
VERTEX
  5
2A56
  8
0
 10
86.9999999999641034
 20
91.9999999999706546
 30
0.0
  0
SEQEND
  5
2A57
  8
0
  0
POLYLINE
  5
2882
  8
0
 66
     1
 10
0.0
 20
0.0
 30
0.0
  0
VERTEX
  5
2A58
  8
0
 10
92.9999999999641034
 20
96.999999999970683
 30
0.0
  0
VERTEX
  5
2A59
  8
0
 10
93.0733905008736713
 20
96.9995264585858195
 30
0.0
  0
VERTEX
  5
2A5A
  8
0
 10
93.1467799550841562
 20
96.9989734615973731
 30
0.0
  0
VERTEX
  5
2A5B
  8
0
 10
93.2201673158964752
 20
96.9982615534016901
 30
0.0
  0
VERTEX
  5
2A5C
  8
0
 10
93.2935515366115453
 20
96.9973112783951308
 30
0.0
  0
VERTEX
  5
2A5D
  8
0
 10
93.3669315705302836
 20
96.9960431809741408
 30
0.0
  0
VERTEX
  5
2A5E
  8
0
 10
93.4403066624384167
 20
96.9943901105507109
 30
0.0
  0
VERTEX
  5
2A5F
  8
0
 10
93.5136776391334337
 20
96.9923517010772116
 30
0.0
  0
VERTEX
  5
2A60
  8
0
 10
93.587045861591406
 20
96.9899501368243051
 30
0.0
  0
VERTEX
  5
2A61
  8
0
 10
93.6604126912033337
 20
96.9872076195851065
 30
0.0
  0
VERTEX
  5
2A62
  8
0
 10
93.7337794893603871
 20
96.984146351152674
 30
0.0
  0
VERTEX
  5
2A63
  8
0
 10
93.8071471648095496
 20
96.9807861693021209
 30
0.0
  0
VERTEX
  5
2A64
  8
0
 10
93.8805135282647854
 20
96.9771307317556932
 30
0.0
  0
VERTEX
  5
2A65
  8
0
 10
93.953875093080029
 20
96.973176920531813
 30
0.0
  0
VERTEX
  5
2A66
  8
0
 10
94.0272283682080854
 20
96.9689215946631862
 30
0.0
  0
VERTEX
  5
2A67
  8
0
 10
94.1005698626017164
 20
96.9643616131823904
 30
0.0
  0
VERTEX
  5
2A68
  8
0
 10
94.1738962107149575
 20
96.9594946614392654
 30
0.0
  0
VERTEX
  5
2A69
  8
0
 10
94.2472052409184187
 20
96.9543262856930852
 30
0.0
  0
VERTEX
  5
2A6A
  8
0
 10
94.3204954422177764
 20
96.9488663819134757
 30
0.0
  0
VERTEX
  5
2A6B
  8
0
 10
94.3937653106075061
 20
96.9431248920868853
 30
0.0
  0
VERTEX
  5
2A6C
  8
0
 10
94.4670133420824243
 20
96.9371117581996486
 30
0.0
  0
VERTEX
  5
2A6D
  8
0
 10
94.5402380706877636
 20
96.9308365300821038
 30
0.0
  0
VERTEX
  5
2A6E
  8
0
 10
94.6134387364408838
 20
96.9243014817338207
 30
0.0
  0
VERTEX
  5
2A6F
  8
0
 10
94.6866152024449264
 20
96.9175024655543922
 30
0.0
  0
VERTEX
  5
2A70
  8
0
 10
94.7597673531957128
 20
96.9104351134693616
 30
0.0
  0
VERTEX
  5
2A71
  8
0
 10
94.8328950731889506
 20
96.9030950574042151
 30
0.0
  0
VERTEX
  5
2A72
  8
0
 10
94.9059982469204471
 20
96.8954779292845245
 30
0.0
  0
VERTEX
  5
2A73
  8
0
 10
94.9790767588860092
 20
96.8875793610357761
 30
0.0
  0
VERTEX
  5
2A74
  8
0
 10
95.0521304935813589
 20
96.879394984583513
 30
0.0
  0
VERTEX
  5
2A75
  8
0
 10
95.1251593355022749
 20
96.8709204318532358
 30
0.0
  0
VERTEX
  5
2A76
  8
0
 10
95.1981631691445216
 20
96.8621513347704592
 30
0.0
  0
VERTEX
  5
2A77
  8
0
 10
95.2711419117652838
 20
96.8530837559197266
 30
0.0
  0
VERTEX
  5
2A78
  8
0
 10
95.3440965746085851
 20
96.8437281386635789
 30
0.0
  0
VERTEX
  5
2A79
  8
0
 10
95.4170294940760471
 20
96.8341123459542104
 30
0.0
  0
VERTEX
  5
2A7A
  8
0
 10
95.48994308609835
 20
96.8242652861753328
 30
0.0
  0
VERTEX
  5
2A7B
  8
0
 10
95.5628397666061176
 20
96.8142158677106011
 30
0.0
  0
VERTEX
  5
2A7C
  8
0
 10
95.6357219515300301
 20
96.8039929989437553
 30
0.0
  0
VERTEX
  5
2A7D
  8
0
 10
95.7085920568006969
 20
96.7936255882584362
 30
0.0
  0
VERTEX
  5
2A7E
  8
0
 10
95.7814524983487843
 20
96.7831425440383555
 30
0.0
  0
VERTEX
  5
2A7F
  8
0
 10
95.8543056921049867
 20
96.7725727746671964
 30
0.0
  0
VERTEX
  5
2A80
  8
0
 10
95.9271540539998284
 20
96.7619451885286708
 30
0.0
  0
VERTEX
  5
2A81
  8
0
 10
95.9999999999641034
 20
96.7512886940064618
 30
0.0
  0
SEQEND
  5
2A82
  8
0
  0
POLYLINE
  5
2883
  8
0
 66
     1
 10
0.0
 20
0.0
 30
0.0
  0
VERTEX
  5
2A83
  8
0
 10
89.9999999999640892
 20
96.7512886940064618
 30
0.0
  0
VERTEX
  5
2A84
  8
0
 10
90.0852855222829731
 20
96.7639899966676751
 30
0.0
  0
VERTEX
  5
2A85
  8
0
 10
90.1705780899389708
 20
96.7766264466100523
 30
0.0
  0
VERTEX
  5
2A86
  8
0
 10
90.2558847482692101
 20
96.7891331911148001
 30
0.0
  0
VERTEX
  5
2A87
  8
0
 10
90.3412125426108474
 20
96.8014453774630255
 30
0.0
  0
VERTEX
  5
2A88
  8
0
 10
90.4265685183010248
 20
96.8134981529359493
 30
0.0
  0
VERTEX
  5
2A89
  8
0
 10
90.51195972064491
 20
96.8252266650798106
 30
0.0
  0
VERTEX
  5
2A8A
  8
0
 10
90.5973916244621051
 20
96.83657911096455
 30
0.0
  0
VERTEX
  5
2A8B
  8
0
 10
90.6828639291996694
 20
96.8475516765469848
 30
0.0
  0
VERTEX
  5
2A8C
  8
0
 10
90.7683750070432041
 20
96.8581515763037544
 30
0.0
  0
VERTEX
  5
2A8D
  8
0
 10
90.8539232301780828
 20
96.8683860247114836
 30
0.0
  0
VERTEX
  5
2A8E
  8
0
 10
90.939506970789779
 20
96.8782622362467691
 30
0.0
  0
VERTEX
  5
2A8F
  8
0
 10
91.0251245983465367
 20
96.8877874156155627
 30
0.0
  0
VERTEX
  5
2A90
  8
0
 10
91.1107739074725771
 20
96.896966700483091
 30
0.0
  0
VERTEX
  5
2A91
  8
0
 10
91.1964514108338165
 20
96.9058006188133163
 30
0.0
  0
VERTEX
  5
2A92
  8
0
 10
91.2821534477310763
 20
96.9142890751786297
 30
0.0
  0
VERTEX
  5
2A93
  8
0
 10
91.3678763574651782
 20
96.9224319741514506
 30
0.0
  0
VERTEX
  5
2A94
  8
0
 10
91.4536164793368869
 20
96.930229220304156
 30
0.0
  0
VERTEX
  5
2A95
  8
0
 10
91.539370240161773
 20
96.9376803391801474
 30
0.0
  0
VERTEX
  5
2A96
  8
0
 10
91.625136532365147
 20
96.9447741776983207
 30
0.0
  0
VERTEX
  5
2A97
  8
0
 10
91.71091699530254
 20
96.9514876857452634
 30
0.0
  0
VERTEX
  5
2A98
  8
0
 10
91.7967134123144035
 20
96.9577971896050315
 30
0.0
  0
VERTEX
  5
2A99
  8
0
 10
91.8825275667412882
 20
96.9636790155616097
 30
0.0
  0
VERTEX
  5
2A9A
  8
0
 10
91.9683612419236454
 20
96.9691094898990542
 30
0.0
  0
VERTEX
  5
2A9B
  8
0
 10
92.0542162212019832
 20
96.974064938901364
 30
0.0
  0
VERTEX
  5
2A9C
  8
0
 10
92.1400942879167388
 20
96.9785216888525525
 30
0.0
  0
VERTEX
  5
2A9D
  8
0
 10
92.2259972254084062
 20
96.9824560660366615
 30
0.0
  0
VERTEX
  5
2A9E
  8
0
 10
92.3119265514117444
 20
96.9858491181476268
 30
0.0
  0
VERTEX
  5
2A9F
  8
0
 10
92.3978809127355731
 20
96.9887329264848148
 30
0.0
  0
VERTEX
  5
2AA0
  8
0
 10
92.4838572019574769
 20
96.9911707555782954
 30
0.0
  0
VERTEX
  5
2AA1
  8
0
 10
92.5698522865206144
 20
96.9932263167485473
 30
0.0
  0
VERTEX
  5
2AA2
  8
0
 10
92.6558630338680871
 20
96.9949633213161633
 30
0.0
  0
VERTEX
  5
2AA3
  8
0
 10
92.7418863114430252
 20
96.9964454806016505
 30
0.0
  0
VERTEX
  5
2AA4
  8
0
 10
92.8279189866886156
 20
96.9977365059255447
 30
0.0
  0
VERTEX
  5
2AA5
  8
0
 10
92.9139579270479032
 20
96.998900108608396
 30
0.0
  0
VERTEX
  5
2AA6
  8
0
 10
92.9999999999641034
 20
96.999999999970683
 30
0.0
  0
SEQEND
  5
2AA7
  8
0
  0
POLYLINE
  5
2884
  8
0
 66
     1
 10
0.0
 20
0.0
 30
0.0
  0
VERTEX
  5
2AA8
  8
0
 10
92.9999999999640465
 20
91.9999999999706546
 30
0.0
  0
VERTEX
  5
2AA9
  8
0
 10
92.9265628509845385
 20
92.0004735413555181
 30
0.0
  0
VERTEX
  5
2AAA
  8
0
 10
92.8531267398946341
 20
92.0010265383440071
 30
0.0
  0
VERTEX
  5
2AAB
  8
0
 10
92.7796927045841073
 20
92.0017384465397186
 30
0.0
  0
VERTEX
  5
2AAC
  8
0
 10
92.7062617829424482
 20
92.0026887215463347
 30
0.0
  0
VERTEX
  5
2AAD
  8
0
 10
92.6328350128594877
 20
92.0039568189674242
 30
0.0
  0
VERTEX
  5
2AAE
  8
0
 10
92.5594137111704356
 20
92.0056098893909819
 30
0.0
  0
VERTEX
  5
2AAF
  8
0
 10
92.4860007086675466
 20
92.0076482988646092
 30
0.0
  0
VERTEX
  5
2AB0
  8
0
 10
92.4125993473421943
 20
92.0100498631176436
 30
0.0
  0
VERTEX
  5
2AB1
  8
0
 10
92.3392129695829169
 20
92.0127923803569558
 30
0.0
  0
VERTEX
  5
2AB2
  8
0
 10
92.2658449177783666
 20
92.0158536487894736
 30
0.0
  0
VERTEX
  5
2AB3
  8
0
 10
92.1924980836036809
 20
92.0192138306400835
 30
0.0
  0
VERTEX
  5
2AB4
  8
0
 10
92.1191722739153249
 20
92.0228692681865823
 30
0.0
  0
VERTEX
  5
2AB5
  8
0
 10
92.0458660037434981
 20
92.0268230794104767
 30
0.0
  0
VERTEX
  5
2AB6
  8
0
 10
91.9725777837360567
 20
92.0310784052791035
 30
0.0
  0
VERTEX
  5
2AB7
  8
0
 10
91.8993061245406864
 20
92.0356383867598851
 30
0.0
  0
VERTEX
  5
2AB8
  8
0
 10
91.8260495314134033
 20
92.0405053385028822
 30
0.0
  0
VERTEX
  5
2AB9
  8
0
 10
91.752806458315959
 20
92.0456737142489061
 30
0.0
  0
VERTEX
  5
2ABA
  8
0
 10
91.6795753308273049
 20
92.0511336180283308
 30
0.0
  0
VERTEX
  5
2ABB
  8
0
 10
91.6063545742261738
 20
92.0568751078547365
 30
0.0
  0
VERTEX
  5
2ABC
  8
0
 10
91.5331426137911706
 20
92.0628882417417742
 30
0.0
  0
VERTEX
  5
2ABD
  8
0
 10
91.4599379921429829
 20
92.0691634698591344
 30
0.0
  0
VERTEX
  5
2ABE
  8
0
 10
91.3867414289945543
 20
92.0756985182072754
 30
0.0
  0
VERTEX
  5
2ABF
  8
0
 10
91.3135555655459967
 20
92.0824975343865475
 30
0.0
  0
VERTEX
  5
2AC0
  8
0
 10
91.2403831089684729
 20
92.0895648864714929
 30
0.0
  0
VERTEX
  5
2AC1
  8
0
 10
91.1672267664329041
 20
92.0969049425365256
 30
0.0
  0
VERTEX
  5
2AC2
  8
0
 10
91.0940892451102684
 20
92.1045220706561594
 30
0.0
  0
VERTEX
  5
2AC3
  8
0
 10
91.0209732521716717
 20
92.1124206389048652
 30
0.0
  0
VERTEX
  5
2AC4
  8
0
 10
90.9478814947881062
 20
92.1206050153570857
 30
0.0
  0
VERTEX
  5
2AC5
  8
0
 10
90.8748166801305359
 20
92.1290795680873771
 30
0.0
  0
VERTEX
  5
2AC6
  8
0
 10
90.8017815153699814
 20
92.1378486651701536
 30
0.0
  0
VERTEX
  5
2AC7
  8
0
 10
90.7287786305523838
 20
92.1469162440209146
 30
0.0
  0
VERTEX
  5
2AC8
  8
0
 10
90.6558080803257837
 20
92.156271861277105
 30
0.0
  0
VERTEX
  5
2AC9
  8
0
 10
90.5828667997311356
 20
92.1658876539865162
 30
0.0
  0
VERTEX
  5
2ACA
  8
0
 10
90.5099515365870673
 20
92.1757347137654364
 30
0.0
  0
VERTEX
  5
2ACB
  8
0
 10
90.437059038712249
 20
92.1857841322302392
 30
0.0
  0
VERTEX
  5
2ACC
  8
0
 10
90.364186053925394
 20
92.196007000997156
 30
0.0
  0
VERTEX
  5
2ACD
  8
0
 10
90.2913293300452153
 20
92.2063744116825461
 30
0.0
  0
VERTEX
  5
2ACE
  8
0
 10
90.2184856148902838
 20
92.2168574559027121
 30
0.0
  0
VERTEX
  5
2ACF
  8
0
 10
90.1456516562792842
 20
92.2274272252739422
 30
0.0
  0
VERTEX
  5
2AD0
  8
0
 10
90.0728242020310006
 20
92.2380548114125673
 30
0.0
  0
VERTEX
  5
2AD1
  8
0
 10
89.9999999999639897
 20
92.2487113059348758
 30
0.0
  0
SEQEND
  5
2AD2
  8
0
  0
POLYLINE
  5
2885
  8
0
 66
     1
 10
0.0
 20
0.0
 30
0.0
  0
VERTEX
  5
2AD3
  8
0
 10
95.9999999999640465
 20
92.2487113059348758
 30
0.0
  0
VERTEX
  5
2AD4
  8
0
 10
95.9147006356524372
 20
92.2360100032736483
 30
0.0
  0
VERTEX
  5
2AD5
  8
0
 10
95.8293947210895141
 20
92.2233735533312426
 30
0.0
  0
VERTEX
  5
2AD6
  8
0
 10
95.7440757060240628
 20
92.2108668088264949
 30
0.0
  0
VERTEX
  5
2AD7
  8
0
 10
95.6587370402047839
 20
92.1985546224782269
 30
0.0
  0
VERTEX
  5
2AD8
  8
0
 10
95.5733721733803065
 20
92.1865018470052746
 30
0.0
  0
VERTEX
  5
2AD9
  8
0
 10
95.4879745553346453
 20
92.1747733348614133
 30
0.0
  0
VERTEX
  5
2ADA
  8
0
 10
95.402539366435434
 20
92.1634208889766455
 30
0.0
  0
VERTEX
  5
2ADB
  8
0
 10
95.3170681511749365
 20
92.1524483233941822
 30
0.0
  0
VERTEX
  5
2ADC
  8
0
 10
95.2315639166104972
 20
92.1418484236373985
 30
0.0
  0
VERTEX
  5
2ADD
  8
0
 10
95.1460296697993897
 20
92.131613975229655
 30
0.0
  0
VERTEX
  5
2ADE
  8
0
 10
95.0604684177990009
 20
92.1217377636943553
 30
0.0
  0
VERTEX
  5
2ADF
  8
0
 10
94.9748831592758762
 20
92.1122125843255901
 30
0.0
  0
VERTEX
  5
2AE0
  8
0
 10
94.8892751177800449
 20
92.1030332994580476
 30
0.0
  0
VERTEX
  5
2AE1
  8
0
 10
94.8036415581794074
 20
92.094199381127865
 30
0.0
  0
VERTEX
  5
2AE2
  8
0
 10
94.7179792099906024
 20
92.08571092476258
 30
0.0
  0
VERTEX
  5
2AE3
  8
0
 10
94.6322848027304815
 20
92.0775680257898159
 30
0.0
  0
VERTEX
  5
2AE4
  8
0
 10
94.5465550659157827
 20
92.0697707796371532
 30
0.0
  0
VERTEX
  5
2AE5
  8
0
 10
94.4607868524967955
 20
92.0623196607611476
 30
0.0
  0
VERTEX
  5
2AE6
  8
0
 10
94.3749804929974232
 20
92.0552258222430169
 30
0.0
  0
VERTEX
  5
2AE7
  8
0
 10
94.2891401922983903
 20
92.0485123141960742
 30
0.0
  0
VERTEX
  5
2AE8
  8
0
 10
94.203270358361209
 20
92.0422028103363346
 30
0.0
  0
VERTEX
  5
2AE9
  8
0
 10
94.1173753991474342
 20
92.0363209843797563
 30
0.0
  0
VERTEX
  5
2AEA
  8
0
 10
94.0314597226186635
 20
92.0308905100423402
 30
0.0
  0
VERTEX
  5
2AEB
  8
0
 10
93.9455277367365227
 20
92.0259350610400446
 30
0.0
  0
VERTEX
  5
2AEC
  8
0
 10
93.8595838494624957
 20
92.0214783110888419
 30
0.0
  0
VERTEX
  5
2AED
  8
0
 10
93.7736324687581089
 20
92.017543933904733
 30
0.0
  0
VERTEX
  5
2AEE
  8
0
 10
93.6876777750311192
 20
92.014150881793725
 30
0.0
  0
VERTEX
  5
2AEF
  8
0
 10
93.6017214890653975
 20
92.0112670734565654
 30
0.0
  0
VERTEX
  5
2AF0
  8
0
 10
93.5157638287326165
 20
92.0088292443630706
 30
0.0
  0
VERTEX
  5
2AF1
  8
0
 10
93.4298049903709114
 20
92.0067736831927903
 30
0.0
  0
VERTEX
  5
2AF2
  8
0
 10
93.3438451703184171
 20
92.0050366786251743
 30
0.0
  0
VERTEX
  5
2AF3
  8
0
 10
93.2578845649133257
 20
92.0035545193396729
 30
0.0
  0
VERTEX
  5
2AF4
  8
0
 10
93.1719233704938148
 20
92.0022634940157786
 30
0.0
  0
VERTEX
  5
2AF5
  8
0
 10
93.0859617833980053
 20
92.0010998913329558
 30
0.0
  0
VERTEX
  5
2AF6
  8
0
 10
92.9999999999640039
 20
91.9999999999706546
 30
0.0
  0
SEQEND
  5
2AF7
  8
0
  0
POLYLINE
  5
2886
  8
0
 66
     1
 10
0.0
 20
0.0
 30
0.0
  0
VERTEX
  5
2AF8
  8
0
 10
43.0717967697608515
 20
96.7512886940651953
 30
0.0
  0
VERTEX
  5
2AF9
  8
0
 10
43.1210523723860319
 20
96.763989996726437
 30
0.0
  0
VERTEX
  5
2AFA
  8
0
 10
43.1703114709626519
 20
96.7766264466688426
 30
0.0
  0
VERTEX
  5
2AFB
  8
0
 10
43.2195775614420015
 20
96.789133191173562
 30
0.0
  0
VERTEX
  5
2AFC
  8
0
 10
43.2688541397755628
 20
96.8014453775218158
 30
0.0
  0
VERTEX
  5
2AFD
  8
0
 10
43.3181447019146617
 20
96.8134981529947112
 30
0.0
  0
VERTEX
  5
2AFE
  8
0
 10
43.3674527437885331
 20
96.8252266651385582
 30
0.0
  0
VERTEX
  5
2AFF
  8
0
 10
43.4167806697405965
 20
96.8365791110232692
 30
0.0
  0
VERTEX
  5
2B00
  8
0
 10
43.4661268698691785
 20
96.8475516766056757
 30
0.0
  0
VERTEX
  5
2B01
  8
0
 10
43.5154888117427276
 20
96.8581515763624168
 30
0.0
  0
VERTEX
  5
2B02
  8
0
 10
43.564863962929671
 20
96.8683860247701034
 30
0.0
  0
VERTEX
  5
2B03
  8
0
 10
43.6142497909984286
 20
96.8782622363054031
 30
0.0
  0
VERTEX
  5
2B04
  8
0
 10
43.663643774775089
 20
96.8877874156741825
 30
0.0
  0
VERTEX
  5
2B05
  8
0
 10
43.7130457747002197
 20
96.8969667005417534
 30
0.0
  0
VERTEX
  5
2B06
  8
0
 10
43.7624609624454521
 20
96.9058006188720071
 30
0.0
  0
VERTEX
  5
2B07
  8
0
 10
43.8118952279453424
 20
96.9142890752373631
 30
0.0
  0
VERTEX
  5
2B08
  8
0
 10
43.8613544611342192
 20
96.9224319742101841
 30
0.0
  0
VERTEX
  5
2B09
  8
0
 10
43.9108445519465178
 20
96.9302292203629463
 30
0.0
  0
VERTEX
  5
2B0A
  8
0
 10
43.9603711972612174
 20
96.9376803392390229
 30
0.0
  0
VERTEX
  5
2B0B
  8
0
 10
44.0099346548807304
 20
96.9447741777572247
 30
0.0
  0
VERTEX
  5
2B0C
  8
0
 10
44.0595291229446389
 20
96.9514876858042243
 30
0.0
  0
VERTEX
  5
2B0D
  8
0
 10
44.1091484819652919
 20
96.9577971896639923
 30
0.0
  0
VERTEX
  5
2B0E
  8
0
 10
44.1587866124549393
 20
96.9636790156206132
 30
0.0
  0
VERTEX
  5
2B0F
  8
0
 10
44.2084373949259088
 20
96.9691094899580719
 30
0.0
  0
VERTEX
  5
2B10
  8
0
 10
44.2580947098905426
 20
96.9740649389603675
 30
0.0
  0
VERTEX
  5
2B11
  8
0
 10
44.3077524378610974
 20
96.9785216889115844
 30
0.0
  0
VERTEX
  5
2B12
  8
0
 10
44.3574044593498797
 20
96.9824560660956649
 30
0.0
  0
VERTEX
  5
2B13
  8
0
 10
44.4070450709731901
 20
96.985849118206616
 30
0.0
  0
VERTEX
  5
2B14
  8
0
 10
44.4566730670065269
 20
96.9887329265437756
 30
0.0
  0
VERTEX
  5
2B15
  8
0
 10
44.506289989944321
 20
96.9911707556372278
 30
0.0
  0
VERTEX
  5
2B16
  8
0
 10
44.5558974216574413
 20
96.9932263168074655
 30
0.0
  0
VERTEX
  5
2B17
  8
0
 10
44.6054969440165792
 20
96.9949633213750531
 30
0.0
  0
VERTEX
  5
2B18
  8
0
 10
44.6550901388925965
 20
96.9964454806605261
 30
0.0
  0
VERTEX
  5
2B19
  8
0
 10
44.7046785881562414
 20
96.9977365059843635
 30
0.0
  0
VERTEX
  5
2B1A
  8
0
 10
44.7542638736783189
 20
96.998900108667172
 30
0.0
  0
VERTEX
  5
2B1B
  8
0
 10
44.8038475773296909
 20
97.0000000000294449
 30
0.0
  0
SEQEND
  5
2B1C
  8
0
  0
POLYLINE
  5
2887
  8
0
 66
     1
 10
0.0
 20
0.0
 30
0.0
  0
VERTEX
  5
2B1D
  8
0
 10
44.8038475773296909
 20
92.0000000000294165
 30
0.0
  0
VERTEX
  5
2B1E
  8
0
 10
44.7615024841492684
 20
92.0004735414142942
 30
0.0
  0
VERTEX
  5
2B1F
  8
0
 10
44.719158000367031
 20
92.0010265384027832
 30
0.0
  0
VERTEX
  5
2B20
  8
0
 10
44.676814735380951
 20
92.0017384465985231
 30
0.0
  0
VERTEX
  5
2B21
  8
0
 10
44.6344732985892918
 20
92.002688721605125
 30
0.0
  0
VERTEX
  5
2B22
  8
0
 10
44.592134299389997
 20
92.0039568190262003
 30
0.0
  0
VERTEX
  5
2B23
  8
0
 10
44.5497978495542881
 20
92.0056098894497438
 30
0.0
  0
VERTEX
  5
2B24
  8
0
 10
44.5074613600199811
 20
92.0076482989233284
 30
0.0
  0
VERTEX
  5
2B25
  8
0
 10
44.4651213297677828
 20
92.0100498631763344
 30
0.0
  0
VERTEX
  5
2B26
  8
0
 10
44.4227742570696407
 20
92.0127923804156467
 30
0.0
  0
VERTEX
  5
2B27
  8
0
 10
44.380416640197609
 20
92.0158536488481502
 30
0.0
  0
VERTEX
  5
2B28
  8
0
 10
44.3380457603116085
 20
92.0192138306987317
 30
0.0
  0
VERTEX
  5
2B29
  8
0
 10
44.2956642568928984
 20
92.0228692682452305
 30
0.0
  0
VERTEX
  5
2B2A
  8
0
 10
44.2532770133213305
 20
92.0268230794690965
 30
0.0
  0
VERTEX
  5
2B2B
  8
0
 10
44.2108889205888431
 20
92.0310784053377233
 30
0.0
  0
VERTEX
  5
2B2C
  8
0
 10
44.1685048696874674
 20
92.0356383868185048
 30
0.0
  0
VERTEX
  5
2B2D
  8
0
 10
44.1261296098059006
 20
92.0405053385615162
 30
0.0
  0
VERTEX
  5
2B2E
  8
0
 10
44.08376654113124
 20
92.0456737143075827
 30
0.0
  0
VERTEX
  5
2B2F
  8
0
 10
44.0414183174019627
 20
92.0511336180870217
 30
0.0
  0
VERTEX
  5
2B30
  8
0
 10
43.9990875844595735
 20
92.0568751079134842
 30
0.0
  0
VERTEX
  5
2B31
  8
0
 10
43.956776988145748
 20
92.0628882418005361
 30
0.0
  0
VERTEX
  5
2B32
  8
0
 10
43.9144890626172284
 20
92.0691634699179247
 30
0.0
  0
VERTEX
  5
2B33
  8
0
 10
43.8722242699001796
 20
92.0756985182660941
 30
0.0
  0
VERTEX
  5
2B34
  8
0
 10
43.829981243171737
 20
92.0824975344453946
 30
0.0
  0
VERTEX
  5
2B35
  8
0
 10
43.7877585528187225
 20
92.0895648865303542
 30
0.0
  0
VERTEX
  5
2B36
  8
0
 10
43.7455547692280717
 20
92.096904942595387
 30
0.0
  0
VERTEX
  5
2B37
  8
0
 10
43.7033684627866705
 20
92.1045220707150349
 30
0.0
  0
VERTEX
  5
2B38
  8
0
 10
43.6611982038813835
 20
92.1124206389637266
 30
0.0
  0
VERTEX
  5
2B39
  8
0
 10
43.6190425628990965
 20
92.1206050154159755
 30
0.0
  0
VERTEX
  5
2B3A
  8
0
 10
43.5769001102266813
 20
92.1290795681462242
 30
0.0
  0
VERTEX
  5
2B3B
  8
0
 10
43.5347694162510308
 20
92.1378486652290292
 30
0.0
  0
VERTEX
  5
2B3C
  8
0
 10
43.4926490580576228
 20
92.1469162440797902
 30
0.0
  0
VERTEX
  5
2B3D
  8
0
 10
43.4505378364113994
 20
92.1562718613359664
 30
0.0
  0
VERTEX
  5
2B3E
  8
0
 10
43.4084348230230077
 20
92.1658876540453633
 30
0.0
  0
VERTEX
  5
2B3F
  8
0
 10
43.366339105863851
 20
92.1757347138243119
 30
0.0
  0
VERTEX
  5
2B40
  8
0
 10
43.3242497729052616
 20
92.1857841322890863
 30
0.0
  0
VERTEX
  5
2B41
  8
0
 10
43.2821659121185505
 20
92.1960070010560031
 30
0.0
  0
VERTEX
  5
2B42
  8
0
 10
43.2400866114750784
 20
92.2063744117413933
 30
0.0
  0
VERTEX
  5
2B43
  8
0
 10
43.19801095894627
 20
92.2168574559615593
 30
0.0
  0
VERTEX
  5
2B44
  8
0
 10
43.155938042503351
 20
92.2274272253327752
 30
0.0
  0
VERTEX
  5
2B45
  8
0
 10
43.1138669501177603
 20
92.2380548114713861
 30
0.0
  0
VERTEX
  5
2B46
  8
0
 10
43.0717967697608515
 20
92.2487113059936803
 30
0.0
  0
SEQEND
  5
2B47
  8
0
  0
POLYLINE
  5
2888
  8
0
 66
     1
 10
0.0
 20
0.0
 30
0.0
  0
VERTEX
  5
2B48
  8
0
 10
55.1961524227429479
 20
97.0000000000294449
 30
0.0
  0
VERTEX
  5
2B49
  8
0
 10
55.2384975159233065
 20
96.9995264586445956
 30
0.0
  0
VERTEX
  5
2B4A
  8
0
 10
55.2808419997056077
 20
96.9989734616560924
 30
0.0
  0
VERTEX
  5
2B4B
  8
0
 10
55.3231852646916806
 20
96.9982615534603667
 30
0.0
  0
VERTEX
  5
2B4C
  8
0
 10
55.365526701483418
 20
96.9973112784537506
 30
0.0
  0
VERTEX
  5
2B4D
  8
0
 10
55.4078657006826916
 20
96.9960431810326753
 30
0.0
  0
VERTEX
  5
2B4E
  8
0
 10
55.4502021505184572
 20
96.9943901106091033
 30
0.0
  0
VERTEX
  5
2B4F
  8
0
 10
55.4925386400527714
 20
96.9923517011354903
 30
0.0
  0
VERTEX
  5
2B50
  8
0
 10
55.5348786703050266
 20
96.9899501368824843
 30
0.0
  0
VERTEX
  5
2B51
  8
0
 10
55.5772257430031686
 20
96.9872076196431863
 30
0.0
  0
VERTEX
  5
2B52
  8
0
 10
55.6195833598752074
 20
96.9841463512106827
 30
0.0
  0
VERTEX
  5
2B53
  8
0
 10
55.6619542397612008
 20
96.980786169360087
 30
0.0
  0
VERTEX
  5
2B54
  8
0
 10
55.7043357431799109
 20
96.9771307318135882
 30
0.0
  0
VERTEX
  5
2B55
  8
0
 10
55.7467229867515286
 20
96.9731769205897081
 30
0.0
  0
VERTEX
  5
2B56
  8
0
 10
55.7891110794840301
 20
96.968921594721067
 30
0.0
  0
VERTEX
  5
2B57
  8
0
 10
55.831495130385413
 20
96.9643616132402855
 30
0.0
  0
VERTEX
  5
2B58
  8
0
 10
55.8738703902669727
 20
96.9594946614972883
 30
0.0
  0
VERTEX
  5
2B59
  8
0
 10
55.9162334589415693
 20
96.9543262857512644
 30
0.0
  0
VERTEX
  5
2B5A
  8
0
 10
55.9585816826708466
 20
96.9488663819718255
 30
0.0
  0
VERTEX
  5
2B5B
  8
0
 10
56.0009124156131293
 20
96.9431248921453914
 30
0.0
  0
VERTEX
  5
2B5C
  8
0
 10
56.0432230119269477
 20
96.9371117582583395
 30
0.0
  0
VERTEX
  5
2B5D
  8
0
 10
56.0855109374554104
 20
96.9308365301409651
 30
0.0
  0
VERTEX
  5
2B5E
  8
0
 10
56.1277757301724023
 20
96.9243014817928241
 30
0.0
  0
VERTEX
  5
2B5F
  8
0
 10
56.170018756900852
 20
96.9175024656135236
 30
0.0
  0
VERTEX
  5
2B60
  8
0
 10
56.2122414472538026
 20
96.9104351135285924
 30
0.0
  0
VERTEX
  5
2B61
  8
0
 10
56.2544452308444534
 20
96.9030950574635455
 30
0.0
  0
VERTEX
  5
2B62
  8
0
 10
56.2966315372858617
 20
96.8954779293439117
 30
0.0
  0
VERTEX
  5
2B63
  8
0
 10
56.3388017961911487
 20
96.8875793610952343
 30
0.0
  0
VERTEX
  5
2B64
  8
0
 10
56.3809574371734286
 20
96.8793949846429712
 30
0.0
  0
VERTEX
  5
2B65
  8
0
 10
56.4230998898458367
 20
96.870920431912694
 30
0.0
  0
VERTEX
  5
2B66
  8
0
 10
56.4652305838214303
 20
96.8621513348299175
 30
0.0
  0
VERTEX
  5
2B67
  8
0
 10
56.5073509420148525
 20
96.8530837559791564
 30
0.0
  0
VERTEX
  5
2B68
  8
0
 10
56.5494621636610688
 20
96.8437281387229945
 30
0.0
  0
VERTEX
  5
2B69
  8
0
 10
56.5915651770494605
 20
96.8341123460135833
 30
0.0
  0
VERTEX
  5
2B6A
  8
0
 10
56.633660894208667
 20
96.8242652862346205
 30
0.0
  0
VERTEX
  5
2B6B
  8
0
 10
56.6757502271672706
 20
96.8142158677698461
 30
0.0
  0
VERTEX
  5
2B6C
  8
0
 10
56.7178340879539675
 20
96.8039929990029009
 30
0.0
  0
VERTEX
  5
2B6D
  8
0
 10
56.7599133885974467
 20
96.7936255883175249
 30
0.0
  0
VERTEX
  5
2B6E
  8
0
 10
56.8019890411263191
 20
96.783142544097359
 30
0.0
  0
VERTEX
  5
2B6F
  8
0
 10
56.8440619575692381
 20
96.7725727747261146
 30
0.0
  0
VERTEX
  5
2B70
  8
0
 10
56.8861330499548217
 20
96.7619451885875179
 30
0.0
  0
VERTEX
  5
2B71
  8
0
 10
56.9282032303117873
 20
96.7512886940651953
 30
0.0
  0
SEQEND
  5
2B72
  8
0
  0
POLYLINE
  5
2889
  8
0
 66
     1
 10
0.0
 20
0.0
 30
0.0
  0
VERTEX
  5
2B73
  8
0
 10
56.9282032303116807
 20
92.2487113059936803
 30
0.0
  0
VERTEX
  5
2B74
  8
0
 10
56.8789476276866068
 20
92.236010003332467
 30
0.0
  0
VERTEX
  5
2B75
  8
0
 10
56.8296885291101717
 20
92.2233735533900756
 30
0.0
  0
VERTEX
  5
2B76
  8
0
 10
56.7804224386309215
 20
92.2108668088853847
 30
0.0
  0
VERTEX
  5
2B77
  8
0
 10
56.7311458602974881
 20
92.1985546225371593
 30
0.0
  0
VERTEX
  5
2B78
  8
0
 10
56.6818552981585526
 20
92.1865018470643065
 30
0.0
  0
VERTEX
  5
2B79
  8
0
 10
56.632547256284802
 20
92.1747733349205447
 30
0.0
  0
VERTEX
  5
2B7A
  8
0
 10
56.5832193303328879
 20
92.1634208890358764
 30
0.0
  0
VERTEX
  5
2B7B
  8
0
 10
56.5338731302044906
 20
92.1524483234535126
 30
0.0
  0
VERTEX
  5
2B7C
  8
0
 10
56.4845111883311688
 20
92.1418484236968425
 30
0.0
  0
VERTEX
  5
2B7D
  8
0
 10
56.435136037144332
 20
92.1316139752891843
 30
0.0
  0
VERTEX
  5
2B7E
  8
0
 10
56.3857502090756384
 20
92.121737763753913
 30
0.0
  0
VERTEX
  5
2B7F
  8
0
 10
56.336356225298907
 20
92.1122125843851052
 30
0.0
  0
VERTEX
  5
2B80
  8
0
 10
56.2869542253736768
 20
92.1030332995175058
 30
0.0
  0
VERTEX
  5
2B81
  8
0
 10
56.237539037628153
 20
92.0941993811871953
 30
0.0
  0
VERTEX
  5
2B82
  8
0
 10
56.1881047721279785
 20
92.085710924821754
 30
0.0
  0
VERTEX
  5
2B83
  8
0
 10
56.1386455389388175
 20
92.0775680258488052
 30
0.0
  0
VERTEX
  5
2B84
  8
0
 10
56.0891554481261707
 20
92.0697707796959719
 30
0.0
  0
VERTEX
  5
2B85
  8
0
 10
56.0396288028112508
 20
92.0623196608198242
 30
0.0
  0
VERTEX
  5
2B86
  8
0
 10
55.9900653451915105
 20
92.0552258223015372
 30
0.0
  0
VERTEX
  5
2B87
  8
0
 10
55.9404708771273178
 20
92.048512314254495
 30
0.0
  0
VERTEX
  5
2B88
  8
0
 10
55.8908515181065013
 20
92.0422028103946275
 30
0.0
  0
VERTEX
  5
2B89
  8
0
 10
55.8412133876166834
 20
92.0363209844379639
 30
0.0
  0
VERTEX
  5
2B8A
  8
0
 10
55.7915626051456002
 20
92.0308905101004768
 30
0.0
  0
VERTEX
  5
2B8B
  8
0
 10
55.7419052901808527
 20
92.0259350610981528
 30
0.0
  0
VERTEX
  5
2B8C
  8
0
 10
55.6922475622102908
 20
92.0214783111469501
 30
0.0
  0
VERTEX
  5
2B8D
  8
0
 10
55.6425955407215085
 20
92.0175439339628554
 30
0.0
  0
VERTEX
  5
2B8E
  8
0
 10
55.5929549290981981
 20
92.0141508818519043
 30
0.0
  0
VERTEX
  5
2B8F
  8
0
 10
55.5433269330649111
 20
92.0112670735147873
 30
0.0
  0
VERTEX
  5
2B90
  8
0
 10
55.4937100101272378
 20
92.0088292444213778
 30
0.0
  0
VERTEX
  5
2B91
  8
0
 10
55.4441025784142312
 20
92.0067736832511542
 30
0.0
  0
VERTEX
  5
2B92
  8
0
 10
55.3945030560552709
 20
92.0050366786836378
 30
0.0
  0
VERTEX
  5
2B93
  8
0
 10
55.3449098611794099
 20
92.0035545193982216
 30
0.0
  0
VERTEX
  5
2B94
  8
0
 10
55.2953214119159426
 20
92.0022634940743984
 30
0.0
  0
VERTEX
  5
2B95
  8
0
 10
55.2457361263940925
 20
92.0010998913916467
 30
0.0
  0
VERTEX
  5
2B96
  8
0
 10
55.1961524227430118
 20
92.0000000000294165
 30
0.0
  0
SEQEND
  5
2B97
  8
0
  0
POLYLINE
  5
288A
  8
0
 66
     1
 10
0.0
 20
0.0
 30
0.0
  0
VERTEX
  5
2B98
  8
0
 10
55.1961524227429479
 20
92.0000000000294165
 30
0.0
  0
VERTEX
  5
2B99
  8
0
 10
55.1537265327354405
 20
92.0004735414142942
 30
0.0
  0
VERTEX
  5
2B9A
  8
0
 10
55.1113012368677531
 20
92.0010265384028258
 30
0.0
  0
VERTEX
  5
2B9B
  8
0
 10
55.0688771292794783
 20
92.0017384465986083
 30
0.0
  0
VERTEX
  5
2B9C
  8
0
 10
55.0264548041105286
 20
92.0026887216052529
 30
0.0
  0
VERTEX
  5
2B9D
  8
0
 10
54.9840348555005605
 20
92.003956819026385
 30
0.0
  0
VERTEX
  5
2B9E
  8
0
 10
54.9416183679770072
 20
92.0056098894500138
 30
0.0
  0
VERTEX
  5
2B9F
  8
0
 10
54.8992090876088312
 20
92.0076482989236837
 30
0.0
  0
VERTEX
  5
2BA0
  8
0
 10
54.8568116591550279
 20
92.0100498631767891
 30
0.0
  0
VERTEX
  5
2BA1
  8
0
 10
54.8144307280730274
 20
92.0127923804161583
 30
0.0
  0
VERTEX
  5
2BA2
  8
0
 10
54.7720709398203667
 20
92.0158536488487471
 30
0.0
  0
VERTEX
  5
2BA3
  8
0
 10
54.7297361580810886
 20
92.0192138306993996
 30
0.0
  0
VERTEX
  5
2BA4
  8
0
 10
54.687424895847407
 20
92.0228692682459268
 30
0.0
  0
VERTEX
  5
2BA5
  8
0
 10
54.6451334254077778
 20
92.0268230794698354
 30
0.0
  0
VERTEX
  5
2BA6
  8
0
 10
54.6028580114494275
 20
92.0310784053384623
 30
0.0
  0
VERTEX
  5
2BA7
  8
0
 10
54.560594918659433
 20
92.035638386819187
 30
0.0
  0
VERTEX
  5
2BA8
  8
0
 10
54.5183404779571106
 20
92.0405053385621557
 30
0.0
  0
VERTEX
  5
2BA9
  8
0
 10
54.4760916503404928
 20
92.0456737143080943
 30
0.0
  0
VERTEX
  5
2BAA
  8
0
 10
54.4338457454517695
 20
92.0511336180874054
 30
0.0
  0
VERTEX
  5
2BAB
  8
0
 10
54.3916000766215575
 20
92.0568751079136831
 30
0.0
  0
VERTEX
  5
2BAC
  8
0
 10
54.3493519571804882
 20
92.0628882418006071
 30
0.0
  0
VERTEX
  5
2BAD
  8
0
 10
54.3070988579225329
 20
92.0691634699178678
 30
0.0
  0
VERTEX
  5
2BAE
  8
0
 10
54.2648411711244307
 20
92.0756985182658951
 30
0.0
  0
VERTEX
  5
2BAF
  8
0
 10
54.2225818675440223
 20
92.0824975344450962
 30
0.0
  0
VERTEX
  5
2BB0
  8
0
 10
54.180324006466769
 20
92.0895648865299705
 30
0.0
  0
VERTEX
  5
2BB1
  8
0
 10
54.1380706471781465
 20
92.0969049425949464
 30
0.0
  0
VERTEX
  5
2BB2
  8
0
 10
54.0958248489635025
 20
92.1045220707145518
 30
0.0
  0
VERTEX
  5
2BB3
  8
0
 10
54.0535896711082771
 20
92.112420638963215
 30
0.0
  0
VERTEX
  5
2BB4
  8
0
 10
54.0113681728979032
 20
92.1206050154154354
 30
0.0
  0
VERTEX
  5
2BB5
  8
0
 10
53.9691634136177711
 20
92.1290795681457126
 30
0.0
  0
VERTEX
  5
2BB6
  8
0
 10
53.926978452553378
 20
92.1378486652284749
 30
0.0
  0
VERTEX
  5
2BB7
  8
0
 10
53.884816278848632
 20
92.1469162440792786
 30
0.0
  0
VERTEX
  5
2BB8
  8
0
 10
53.8426775394474433
 20
92.1562718613354832
 30
0.0
  0
VERTEX
  5
2BB9
  8
0
 10
53.8005600441621823
 20
92.165887654044937
 30
0.0
  0
VERTEX
  5
2BBA
  8
0
 10
53.7584614325355119
 20
92.175734713823914
 30
0.0
  0
VERTEX
  5
2BBB
  8
0
 10
53.7163793441101234
 20
92.1857841322887452
 30
0.0
  0
VERTEX
  5
2BBC
  8
0
 10
53.6743114184286583
 20
92.1960070010557047
 30
0.0
  0
VERTEX
  5
2BBD
  8
0
 10
53.6322552950337581
 20
92.2063744117411659
 30
0.0
  0
VERTEX
  5
2BBE
  8
0
 10
53.590208613468242
 20
92.2168574559613603
 30
0.0
  0
VERTEX
  5
2BBF
  8
0
 10
53.5481690132746166
 20
92.2274272253326473
 30
0.0
  0
VERTEX
  5
2BC0
  8
0
 10
53.5061341339956584
 20
92.238054811471315
 30
0.0
  0
VERTEX
  5
2BC1
  8
0
 10
53.4641016151740587
 20
92.2487113059936803
 30
0.0
  0
SEQEND
  5
2BC2
  8
0
  0
POLYLINE
  5
288B
  8
0
 66
     1
 10
0.0
 20
0.0
 30
0.0
  0
VERTEX
  5
2BC3
  8
0
 10
44.8038475773296909
 20
97.0000000000294449
 30
0.0
  0
VERTEX
  5
2BC4
  8
0
 10
44.846273467337312
 20
96.9995264586445956
 30
0.0
  0
VERTEX
  5
2BC5
  8
0
 10
44.8886987632051273
 20
96.9989734616561066
 30
0.0
  0
VERTEX
  5
2BC6
  8
0
 10
44.9311228707935015
 20
96.9982615534603809
 30
0.0
  0
VERTEX
  5
2BC7
  8
0
 10
44.9735451959626289
 20
96.9973112784537648
 30
0.0
  0
VERTEX
  5
2BC8
  8
0
 10
45.0159651445727604
 20
96.9960431810326753
 30
0.0
  0
VERTEX
  5
2BC9
  8
0
 10
45.0583816320964772
 20
96.9943901106091317
 30
0.0
  0
VERTEX
  5
2BCA
  8
0
 10
45.1007909124649515
 20
96.9923517011355329
 30
0.0
  0
VERTEX
  5
2BCB
  8
0
 10
45.1431883409189822
 20
96.9899501368825412
 30
0.0
  0
VERTEX
  5
2BCC
  8
0
 10
45.185569272001203
 20
96.9872076196432431
 30
0.0
  0
VERTEX
  5
2BCD
  8
0
 10
45.2279290602541479
 20
96.9841463512107538
 30
0.0
  0
VERTEX
  5
2BCE
  8
0
 10
45.2702638419936534
 20
96.9807861693601438
 30
0.0
  0
VERTEX
  5
2BCF
  8
0
 10
45.3125751042274985
 20
96.9771307318136593
 30
0.0
  0
VERTEX
  5
2BD0
  8
0
 10
45.3548665746671915
 20
96.9731769205897791
 30
0.0
  0
VERTEX
  5
2BD1
  8
0
 10
45.3971419886255418
 20
96.9689215947211522
 30
0.0
  0
VERTEX
  5
2BD2
  8
0
 10
45.4394050814154298
 20
96.9643616132403849
 30
0.0
  0
VERTEX
  5
2BD3
  8
0
 10
45.4816595221174609
 20
96.9594946614973594
 30
0.0
  0
VERTEX
  5
2BD4
  8
0
 10
45.5239083497337376
 20
96.9543262857513071
 30
0.0
  0
VERTEX
  5
2BD5
  8
0
 10
45.5661542546219991
 20
96.9488663819718681
 30
0.0
  0
VERTEX
  5
2BD6
  8
0
 10
45.6083999234516497
 20
96.9431248921454198
 30
0.0
  0
VERTEX
  5
2BD7
  8
0
 10
45.6506480428922714
 20
96.9371117582583395
 30
0.0
  0
VERTEX
  5
2BD8
  8
0
 10
45.6929011421498075
 20
96.9308365301409651
 30
0.0
  0
VERTEX
  5
2BD9
  8
0
 10
45.735158828947533
 20
96.9243014817928241
 30
0.0
  0
VERTEX
  5
2BDA
  8
0
 10
45.7774181325275933
 20
96.9175024656134951
 30
0.0
  0
VERTEX
  5
2BDB
  8
0
 10
45.8196759936044984
 20
96.9104351135285498
 30
0.0
  0
VERTEX
  5
2BDC
  8
0
 10
45.8619293528929575
 20
96.9030950574635028
 30
0.0
  0
VERTEX
  5
2BDD
  8
0
 10
45.904175151107431
 20
96.8954779293438548
 30
0.0
  0
VERTEX
  5
2BDE
  8
0
 10
45.9464103289624788
 20
96.8875793610951632
 30
0.0
  0
VERTEX
  5
2BDF
  8
0
 10
45.9886318271728101
 20
96.8793949846429143
 30
0.0
  0
VERTEX
  5
2BE0
  8
0
 10
46.0308365864528284
 20
96.8709204319126229
 30
0.0
  0
VERTEX
  5
2BE1
  8
0
 10
46.0730215475172713
 20
96.8621513348298748
 30
0.0
  0
VERTEX
  5
2BE2
  8
0
 10
46.115183721222067
 20
96.8530837559791138
 30
0.0
  0
VERTEX
  5
2BE3
  8
0
 10
46.1573224606233268
 20
96.8437281387229234
 30
0.0
  0
VERTEX
  5
2BE4
  8
0
 10
46.1994399559087014
 20
96.8341123460135123
 30
0.0
  0
VERTEX
  5
2BE5
  8
0
 10
46.2415385675355424
 20
96.8242652862345921
 30
0.0
  0
VERTEX
  5
2BE6
  8
0
 10
46.2836206559610872
 20
96.8142158677698035
 30
0.0
  0
VERTEX
  5
2BE7
  8
0
 10
46.3256885816427868
 20
96.8039929990028725
 30
0.0
  0
VERTEX
  5
2BE8
  8
0
 10
46.3677447050378575
 20
96.7936255883174823
 30
0.0
  0
VERTEX
  5
2BE9
  8
0
 10
46.409791386603672
 20
96.7831425440973447
 30
0.0
  0
VERTEX
  5
2BEA
  8
0
 10
46.4518309867975105
 20
96.7725727747261146
 30
0.0
  0
VERTEX
  5
2BEB
  8
0
 10
46.4938658660767601
 20
96.7619451885875037
 30
0.0
  0
VERTEX
  5
2BEC
  8
0
 10
46.5358983848986369
 20
96.7512886940651953
 30
0.0
  0
SEQEND
  5
2BED
  8
0
  0
POLYLINE
  5
288C
  8
0
 66
     1
 10
0.0
 20
0.0
 30
0.0
  0
VERTEX
  5
2BEE
  8
0
 10
46.5358983848986369
 20
92.2487113059936803
 30
0.0
  0
VERTEX
  5
2BEF
  8
0
 10
46.4866667573081713
 20
92.2360100033324244
 30
0.0
  0
VERTEX
  5
2BF0
  8
0
 10
46.4374307762524197
 20
92.2233735533899761
 30
0.0
  0
VERTEX
  5
2BF1
  8
0
 10
46.3881860882661883
 20
92.2108668088852284
 30
0.0
  0
VERTEX
  5
2BF2
  8
0
 10
46.338928339884319
 20
92.1985546225369745
 30
0.0
  0
VERTEX
  5
2BF3
  8
0
 10
46.289653177641469
 20
92.1865018470640365
 30
0.0
  0
VERTEX
  5
2BF4
  8
0
 10
46.2403562480890287
 20
92.1747733349201468
 30
0.0
  0
VERTEX
  5
2BF5
  8
0
 10
46.1910340120658134
 20
92.1634208890353648
 30
0.0
  0
VERTEX
  5
2BF6
  8
0
 10
46.141685924907442
 20
92.1524483234529157
 30
0.0
  0
VERTEX
  5
2BF7
  8
0
 10
46.0923121301268566
 20
92.1418484236961319
 30
0.0
  0
VERTEX
  5
2BF8
  8
0
 10
46.0429127712369493
 20
92.1316139752884169
 30
0.0
  0
VERTEX
  5
2BF9
  8
0
 10
45.9934879917507189
 20
92.1217377637530745
 30
0.0
  0
VERTEX
  5
2BFA
  8
0
 10
45.944037943163039
 20
92.1122125843843236
 30
0.0
  0
VERTEX
  5
2BFB
  8
0
 10
45.8945644656057468
 20
92.1030332995167953
 30
0.0
  0
VERTEX
  5
2BFC
  8
0
 10
45.8450731650345915
 20
92.0941993811865984
 30
0.0
  0
VERTEX
  5
2BFD
  8
0
 10
45.7955701566752893
 20
92.0857109248213135
 30
0.0
  0
VERTEX
  5
2BFE
  8
0
 10
45.7460615557534993
 20
92.0775680258485636
 30
0.0
  0
VERTEX
  5
2BFF
  8
0
 10
45.6965534774950015
 20
92.0697707796958866
 30
0.0
  0
VERTEX
  5
2C00
  8
0
 10
45.647051864807672
 20
92.0623196608198953
 30
0.0
  0
VERTEX
  5
2C01
  8
0
 10
45.5975578057807525
 20
92.0552258223017645
 30
0.0
  0
VERTEX
  5
2C02
  8
0
 10
45.5480669797604492
 20
92.048512314254836
 30
0.0
  0
VERTEX
  5
2C03
  8
0
 10
45.498574782584619
 20
92.0422028103951106
 30
0.0
  0
VERTEX
  5
2C04
  8
0
 10
45.4490766100914172
 20
92.0363209844385182
 30
0.0
  0
VERTEX
  5
2C05
  8
0
 10
45.3995678581186866
 20
92.0308905101011163
 30
0.0
  0
VERTEX
  5
2C06
  8
0
 10
45.3500439225045398
 20
92.0259350610988349
 30
0.0
  0
VERTEX
  5
2C07
  8
0
 10
45.3005001990869687
 20
92.021478311147618
 30
0.0
  0
VERTEX
  5
2C08
  8
0
 10
45.2509320837038373
 20
92.0175439339635375
 30
0.0
  0
VERTEX
  5
2C09
  8
0
 10
45.2013354102666582
 20
92.0141508818525438
 30
0.0
  0
VERTEX
  5
2C0A
  8
0
 10
45.1517107478108528
 20
92.0112670735153699
 30
0.0
  0
VERTEX
  5
2C0B
  8
0
 10
45.1020615586905294
 20
92.0088292444218752
 30
0.0
  0
VERTEX
  5
2C0C
  8
0
 10
45.0523913467149484
 20
92.006773683251609
 30
0.0
  0
VERTEX
  5
2C0D
  8
0
 10
45.0027036156931786
 20
92.0050366786839788
 30
0.0
  0
VERTEX
  5
2C0E
  8
0
 10
44.9530018694346083
 20
92.0035545193984632
 30
0.0
  0
VERTEX
  5
2C0F
  8
0
 10
44.9032896117483276
 20
92.0022634940745547
 30
0.0
  0
VERTEX
  5
2C10
  8
0
 10
44.8535703464436324
 20
92.0010998913917319
 30
0.0
  0
VERTEX
  5
2C11
  8
0
 10
44.8038475773296909
 20
92.0000000000294165
 30
0.0
  0
SEQEND
  5
2C12
  8
0
  0
POLYLINE
  5
288D
  8
0
 66
     1
 10
0.0
 20
0.0
 30
0.0
  0
VERTEX
  5
2C13
  8
0
 10
53.4641016151740018
 20
96.7512886940651953
 30
0.0
  0
VERTEX
  5
2C14
  8
0
 10
53.513333242764638
 20
96.7639899967264228
 30
0.0
  0
VERTEX
  5
2C15
  8
0
 10
53.5625692238205602
 20
96.7766264466688142
 30
0.0
  0
VERTEX
  5
2C16
  8
0
 10
53.6118139118068981
 20
96.7891331911735335
 30
0.0
  0
VERTEX
  5
2C17
  8
0
 10
53.661071660189009
 20
96.8014453775217731
 30
0.0
  0
VERTEX
  5
2C18
  8
0
 10
53.7103468224320935
 20
96.8134981529946401
 30
0.0
  0
VERTEX
  5
2C19
  8
0
 10
53.7596437519848109
 20
96.8252266651384446
 30
0.0
  0
VERTEX
  5
2C1A
  8
0
 10
53.8089659880083104
 20
96.8365791110231129
 30
0.0
  0
VERTEX
  5
2C1B
  8
0
 10
53.8583140751669589
 20
96.8475516766054909
 30
0.0
  0
VERTEX
  5
2C1C
  8
0
 10
53.9076878699477788
 20
96.8581515763622036
 30
0.0
  0
VERTEX
  5
2C1D
  8
0
 10
53.9570872288378496
 20
96.8683860247698902
 30
0.0
  0
VERTEX
  5
2C1E
  8
0
 10
54.0065120083241865
 20
96.8782622363051615
 30
0.0
  0
VERTEX
  5
2C1F
  8
0
 10
54.0559620569117101
 20
96.8877874156739267
 30
0.0
  0
VERTEX
  5
2C20
  8
0
 10
54.1054355344687679
 20
96.8969667005415403
 30
0.0
  0
VERTEX
  5
2C21
  8
0
 10
54.1549268350395892
 20
96.9058006188718224
 30
0.0
  0
VERTEX
  5
2C22
  8
0
 10
54.2044298433984935
 20
96.914289075237221
 30
0.0
  0
VERTEX
  5
2C23
  8
0
 10
54.2539384443198287
 20
96.922431974210113
 30
0.0
  0
VERTEX
  5
2C24
  8
0
 10
54.3034465225778078
 20
96.9302292203629037
 30
0.0
  0
VERTEX
  5
2C25
  8
0
 10
54.3529481352646187
 20
96.9376803392390229
 30
0.0
  0
VERTEX
  5
2C26
  8
0
 10
54.4024421942911474
 20
96.9447741777572958
 30
0.0
  0
VERTEX
  5
2C27
  8
0
 10
54.4519330203111096
 20
96.9514876858043237
 30
0.0
  0
VERTEX
  5
2C28
  8
0
 10
54.5014252174865916
 20
96.9577971896641486
 30
0.0
  0
VERTEX
  5
2C29
  8
0
 10
54.5509233899795731
 20
96.9636790156207837
 30
0.0
  0
VERTEX
  5
2C2A
  8
0
 10
54.6004321419520693
 20
96.9691094899582566
 30
0.0
  0
VERTEX
  5
2C2B
  8
0
 10
54.6499560775661166
 20
96.9740649389605949
 30
0.0
  0
VERTEX
  5
2C2C
  8
0
 10
54.6994998009836877
 20
96.9785216889118118
 30
0.0
  0
VERTEX
  5
2C2D
  8
0
 10
54.7490679163667622
 20
96.9824560660958923
 30
0.0
  0
VERTEX
  5
2C2E
  8
0
 10
54.7986645898040479
 20
96.9858491182068292
 30
0.0
  0
VERTEX
  5
2C2F
  8
0
 10
54.8482892522599172
 20
96.9887329265439888
 30
0.0
  0
VERTEX
  5
2C30
  8
0
 10
54.897938441380397
 20
96.9911707556374125
 30
0.0
  0
VERTEX
  5
2C31
  8
0
 10
54.9476086533562693
 20
96.9932263168076503
 30
0.0
  0
VERTEX
  5
2C32
  8
0
 10
54.9972963843782168
 20
96.9949633213751952
 30
0.0
  0
VERTEX
  5
2C33
  8
0
 10
55.046998130637121
 20
96.9964454806606255
 30
0.0
  0
VERTEX
  5
2C34
  8
0
 10
55.0967103883236931
 20
96.997736505984463
 30
0.0
  0
VERTEX
  5
2C35
  8
0
 10
55.1464296536286724
 20
96.9989001086672431
 30
0.0
  0
VERTEX
  5
2C36
  8
0
 10
55.1961524227429479
 20
97.0000000000294591
 30
0.0
  0
SEQEND
  5
2C37
  8
0
  0
POLYLINE
  5
288E
  8
0
 66
     1
 10
0.0
 20
0.0
 30
0.0
  0
VERTEX
  5
2C38
  8
0
 10
50.0000000000362732
 20
97.0000000000294591
 30
0.0
  0
VERTEX
  5
2C39
  8
0
 10
50.0847709564503702
 20
96.9995260863231437
 30
0.0
  0
VERTEX
  5
2C3A
  8
0
 10
50.1695407078896096
 20
96.998972666386436
 30
0.0
  0
VERTEX
  5
2C3B
  8
0
 10
50.2543080493791123
 20
96.9982602339889581
 30
0.0
  0
VERTEX
  5
2C3C
  8
0
 10
50.3390717759440918
 20
96.9973092829003463
 30
0.0
  0
VERTEX
  5
2C3D
  8
0
 10
50.4238306826095481
 20
96.996040306890194
 30
0.0
  0
VERTEX
  5
2C3E
  8
0
 10
50.5085835718360272
 20
96.9943861425896898
 30
0.0
  0
VERTEX
  5
2C3F
  8
0
 10
50.593329286360472
 20
96.9923464873439229
 30
0.0
  0
VERTEX
  5
2C40
  8
0
 10
50.6780666824944319
 20
96.9899435727953261
 30
0.0
  0
VERTEX
  5
2C41
  8
0
 10
50.7627946165598516
 20
96.9871996477986045
 30
0.0
  0
VERTEX
  5
2C42
  8
0
 10
50.8475119448787609
 20
96.9841369612084634
 30
0.0
  0
VERTEX
  5
2C43
  8
0
 10
50.9322175229272602
 20
96.9807753923615508
 30
0.0
  0
VERTEX
  5
2C44
  8
0
 10
51.0169102004018669
 20
96.9771186266565621
 30
0.0
  0
VERTEX
  5
2C45
  8
0
 10
51.1015888245819312
 20
96.973163576876857
 30
0.0
  0
VERTEX
  5
2C46
  8
0
 10
51.1862522427385329
 20
96.9689071329868
 30
0.0
  0
VERTEX
  5
2C47
  8
0
 10
51.2708993021428796
 20
96.964346184950756
 30
0.0
  0
VERTEX
  5
2C48
  8
0
 10
51.3555289254157401
 20
96.9594784457428887
 30
0.0
  0
VERTEX
  5
2C49
  8
0
 10
51.4401407533271069
 20
96.9543094723510848
 30
0.0
  0
VERTEX
  5
2C4A
  8
0
 10
51.5247348246116985
 20
96.9488491685499554
 30
0.0
  0
VERTEX
  5
2C4B
  8
0
 10
51.6093111822345918
 20
96.9431074843218994
 30
0.0
  0
VERTEX
  5
2C4C
  8
0
 10
51.6938698691610625
 20
96.9370943696494152
 30
0.0
  0
VERTEX
  5
2C4D
  8
0
 10
51.7784108830629108
 20
96.9308193864526686
 30
0.0
  0
VERTEX
  5
2C4E
  8
0
 10
51.8629333724387607
 20
96.924284821167987
 30
0.0
  0
VERTEX
  5
2C4F
  8
0
 10
51.947435731549767
 20
96.9174864981274027
 30
0.0
  0
VERTEX
  5
2C50
  8
0
 10
52.0319163284343631
 20
96.9104200169935126
 30
0.0
  0
VERTEX
  5
2C51
  8
0
 10
52.1163735311308187
 20
96.9030809774289423
 30
0.0
  0
VERTEX
  5
2C52
  8
0
 10
52.2008057076776026
 20
96.8954649790963742
 30
0.0
  0
VERTEX
  5
2C53
  8
0
 10
52.2852112261130131
 20
96.8875676216584338
 30
0.0
  0
VERTEX
  5
2C54
  8
0
 10
52.3695884544754335
 20
96.8793845047777609
 30
0.0
  0
VERTEX
  5
2C55
  8
0
 10
52.4539357608032333
 20
96.8709112281170235
 30
0.0
  0
VERTEX
  5
2C56
  8
0
 10
52.53825151313481
 20
96.862143391338833
 30
0.0
  0
VERTEX
  5
2C57
  8
0
 10
52.6225341419111103
 20
96.8530770179906995
 30
0.0
  0
VERTEX
  5
2C58
  8
0
 10
52.7067841897613789
 20
96.8437224791734508
 30
0.0
  0
VERTEX
  5
2C59
  8
0
 10
52.7910047742882966
 20
96.8341076371218747
 30
0.0
  0
VERTEX
  5
2C5A
  8
0
 10
52.8751991691944383
 20
96.8242614144176343
 30
0.0
  0
VERTEX
  5
2C5B
  8
0
 10
52.9593706481824071
 20
96.814212733642222
 30
0.0
  0
VERTEX
  5
2C5C
  8
0
 10
53.0435224849547922
 20
96.8039905173773008
 30
0.0
  0
VERTEX
  5
2C5D
  8
0
 10
53.1276579532142179
 20
96.7936236882044057
 30
0.0
  0
VERTEX
  5
2C5E
  8
0
 10
53.2117803266633018
 20
96.7831411687051713
 30
0.0
  0
VERTEX
  5
2C5F
  8
0
 10
53.2958928790045476
 20
96.7725718814611469
 30
0.0
  0
VERTEX
  5
2C60
  8
0
 10
53.3799988839406865
 20
96.7619447490539528
 30
0.0
  0
VERTEX
  5
2C61
  8
0
 10
53.4641016151741724
 20
96.7512886940651953
 30
0.0
  0
SEQEND
  5
2C62
  8
0
  0
POLYLINE
  5
288F
  8
0
 66
     1
 10
0.0
 20
0.0
 30
0.0
  0
VERTEX
  5
2C63
  8
0
 10
46.5358983848986369
 20
96.7512886940651953
 30
0.0
  0
VERTEX
  5
2C64
  8
0
 10
46.6343853158893396
 20
96.763992034265442
 30
0.0
  0
VERTEX
  5
2C65
  8
0
 10
46.7328801288348927
 20
96.7766302908089671
 30
0.0
  0
VERTEX
  5
2C66
  8
0
 10
46.8313907056902892
 20
96.7891383800390059
 30
0.0
  0
VERTEX
  5
2C67
  8
0
 10
46.9299249284103368
 20
96.8014512182987943
 30
0.0
  0
VERTEX
  5
2C68
  8
0
 10
47.0284906789499928
 20
96.8135037219316672
 30
0.0
  0
VERTEX
  5
2C69
  8
0
 10
47.127095839001008
 20
96.8252308090824556
 30
0.0
  0
VERTEX
  5
2C6A
  8
0
 10
47.2257462353900266
 20
96.8365814681385757
 30
0.0
  0
VERTEX
  5
2C6B
  8
0
 10
47.324440681908932
 20
96.8475527077192595
 30
0.0
  0
VERTEX
  5
2C6C
  8
0
 10
47.4231764975219718
 20
96.858151771951313
 30
0.0
  0
VERTEX
  5
2C6D
  8
0
 10
47.5219510011933721
 20
96.8683859049615137
 30
0.0
  0
VERTEX
  5
2C6E
  8
0
 10
47.6207615118873875
 20
96.878262350876696
 30
0.0
  0
VERTEX
  5
2C6F
  8
0
 10
47.7196053549448607
 20
96.8877883349439628
 30
0.0
  0
VERTEX
  5
2C70
  8
0
 10
47.8184806319611013
 20
96.8969687841104133
 30
0.0
  0
VERTEX
  5
2C71
  8
0
 10
47.9173869546560169
 20
96.9058041542116797
 30
0.0
  0
VERTEX
  5
2C72
  8
0
 10
48.0163241086061134
 20
96.9142943863370334
 30
0.0
  0
VERTEX
  5
2C73
  8
0
 10
48.115291879387712
 20
96.9224394215757741
 30
0.0
  0
VERTEX
  5
2C74
  8
0
 10
48.2142900525771623
 20
96.9302392010171445
 30
0.0
  0
VERTEX
  5
2C75
  8
0
 10
48.3133183811579485
 20
96.9376930744145113
 30
0.0
  0
VERTEX
  5
2C76
  8
0
 10
48.4123759702034206
 20
96.944788636420995
 30
0.0
  0
VERTEX
  5
2C77
  8
0
 10
48.5114613288081316
 20
96.9515026687912354
 30
0.0
  0
VERTEX
  5
2C78
  8
0
 10
48.610572943883021
 20
96.9578115507969329
 30
0.0
  0
VERTEX
  5
2C79
  8
0
 10
48.709709302338922
 20
96.9636916617095608
 30
0.0
  0
VERTEX
  5
2C7A
  8
0
 10
48.8088688910865969
 20
96.9691193808008336
 30
0.0
  0
VERTEX
  5
2C7B
  8
0
 10
48.9080501970370207
 20
96.9740710873423239
 30
0.0
  0
VERTEX
  5
2C7C
  8
0
 10
49.007251707100977
 20
96.9785231606056044
 30
0.0
  0
VERTEX
  5
2C7D
  8
0
 10
49.1064719081892918
 20
96.9824519798623754
 30
0.0
  0
VERTEX
  5
2C7E
  8
0
 10
49.2057092614501812
 20
96.9858394201919651
 30
0.0
  0
VERTEX
  5
2C7F
  8
0
 10
49.304961982842201
 20
96.988719661428604
 30
0.0
  0
VERTEX
  5
2C80
  8
0
 10
49.4042281526067768
 20
96.991155835162445
 30
0.0
  0
VERTEX
  5
2C81
  8
0
 10
49.5035058495477074
 20
96.9932113796081978
 30
0.0
  0
VERTEX
  5
2C82
  8
0
 10
49.6027931524690189
 20
96.9949497329805297
 30
0.0
  0
VERTEX
  5
2C83
  8
0
 10
49.7020881401745669
 20
96.9964343334941503
 30
0.0
  0
VERTEX
  5
2C84
  8
0
 10
49.8013888914683776
 20
96.9977286193637269
 30
0.0
  0
VERTEX
  5
2C85
  8
0
 10
49.9006934851542496
 20
96.9988960288039266
 30
0.0
  0
VERTEX
  5
2C86
  8
0
 10
50.0000000000362732
 20
97.0000000000294449
 30
0.0
  0
SEQEND
  5
2C87
  8
0
  0
POLYLINE
  5
2890
  8
0
 66
     1
 10
0.0
 20
0.0
 30
0.0
  0
VERTEX
  5
2C88
  8
0
 10
50.0000000000362732
 20
92.0000000000294165
 30
0.0
  0
VERTEX
  5
2C89
  8
0
 10
49.915229043622162
 20
92.0004739137357319
 30
0.0
  0
VERTEX
  5
2C8A
  8
0
 10
49.8304592921829226
 20
92.0010273336724254
 30
0.0
  0
VERTEX
  5
2C8B
  8
0
 10
49.7456919506934128
 20
92.0017397660698748
 30
0.0
  0
VERTEX
  5
2C8C
  8
0
 10
49.6609282241284973
 20
92.0026907171584867
 30
0.0
  0
VERTEX
  5
2C8D
  8
0
 10
49.5761693174630409
 20
92.0039596931686106
 30
0.0
  0
VERTEX
  5
2C8E
  8
0
 10
49.4914164282365618
 20
92.0056138574690578
 30
0.0
  0
VERTEX
  5
2C8F
  8
0
 10
49.4066707137121668
 20
92.0076535127147963
 30
0.0
  0
VERTEX
  5
2C90
  8
0
 10
49.3219333175782069
 20
92.0100564272633363
 30
0.0
  0
VERTEX
  5
2C91
  8
0
 10
49.2372053835127872
 20
92.0128003522600153
 30
0.0
  0
VERTEX
  5
2C92
  8
0
 10
49.1524880551939418
 20
92.015863038850128
 30
0.0
  0
VERTEX
  5
2C93
  8
0
 10
49.0677824771454425
 20
92.0192246076970264
 30
0.0
  0
VERTEX
  5
2C94
  8
0
 10
48.9830897996708288
 20
92.0228813734020008
 30
0.0
  0
VERTEX
  5
2C95
  8
0
 10
48.8984111754907573
 20
92.0268364231816776
 30
0.0
  0
VERTEX
  5
2C96
  8
0
 10
48.813747757334113
 20
92.0310928670717345
 30
0.0
  0
VERTEX
  5
2C97
  8
0
 10
48.7291006979297592
 20
92.0356538151078354
 30
0.0
  0
VERTEX
  5
2C98
  8
0
 10
48.6444710746568489
 20
92.0405215543157027
 30
0.0
  0
VERTEX
  5
2C99
  8
0
 10
48.5598592467454822
 20
92.0456905277075492
 30
0.0
  0
VERTEX
  5
2C9A
  8
0
 10
48.4752651754609474
 20
92.0511508315087639
 30
0.0
  0
VERTEX
  5
2C9B
  8
0
 10
48.3906888178379901
 20
92.0568925157368767
 30
0.0
  0
VERTEX
  5
2C9C
  8
0
 10
48.3061301309115194
 20
92.0629056304094178
 30
0.0
  0
VERTEX
  5
2C9D
  8
0
 10
48.2215891170097777
 20
92.0691806136062354
 30
0.0
  0
VERTEX
  5
2C9E
  8
0
 10
48.1370666276339421
 20
92.0757151788909738
 30
0.0
  0
VERTEX
  5
2C9F
  8
0
 10
48.0525642685229286
 20
92.0825135019316292
 30
0.0
  0
VERTEX
  5
2CA0
  8
0
 10
47.9680836716383965
 20
92.0895799830655761
 30
0.0
  0
VERTEX
  5
2CA1
  8
0
 10
47.8836264689418769
 20
92.0969190226301748
 30
0.0
  0
VERTEX
  5
2CA2
  8
0
 10
47.7991942923951498
 20
92.1045350209627571
 30
0.0
  0
VERTEX
  5
2CA3
  8
0
 10
47.7147887739596968
 20
92.1124323784006975
 30
0.0
  0
VERTEX
  5
2CA4
  8
0
 10
47.6304115455972692
 20
92.1206154952813847
 30
0.0
  0
VERTEX
  5
2CA5
  8
0
 10
47.5460642392694623
 20
92.1290887719421363
 30
0.0
  0
VERTEX
  5
2CA6
  8
0
 10
47.4617484869378927
 20
92.137856608720341
 30
0.0
  0
VERTEX
  5
2CA7
  8
0
 10
47.3774658581615995
 20
92.1469229820684319
 30
0.0
  0
VERTEX
  5
2CA8
  8
0
 10
47.2932158103113167
 20
92.1562775208856664
 30
0.0
  0
VERTEX
  5
2CA9
  8
0
 10
47.2089952257844132
 20
92.1658923629371856
 30
0.0
  0
VERTEX
  5
2CAA
  8
0
 10
47.1248008308782502
 20
92.1757385856414544
 30
0.0
  0
VERTEX
  5
2CAB
  8
0
 10
47.0406293518902814
 20
92.1857872664168241
 30
0.0
  0
VERTEX
  5
2CAC
  8
0
 10
46.9564775151178466
 20
92.1960094826817311
 30
0.0
  0
VERTEX
  5
2CAD
  8
0
 10
46.8723420468584209
 20
92.2063763118545836
 30
0.0
  0
VERTEX
  5
2CAE
  8
0
 10
46.7882196734093867
 20
92.2168588313538038
 30
0.0
  0
VERTEX
  5
2CAF
  8
0
 10
46.7041071210681409
 20
92.2274281185977856
 30
0.0
  0
VERTEX
  5
2CB0
  8
0
 10
46.6200011161320731
 20
92.238055251004937
 30
0.0
  0
VERTEX
  5
2CB1
  8
0
 10
46.5358983848986369
 20
92.2487113059936945
 30
0.0
  0
SEQEND
  5
2CB2
  8
0
  0
POLYLINE
  5
2891
  8
0
 66
     1
 10
0.0
 20
0.0
 30
0.0
  0
VERTEX
  5
2CB3
  8
0
 10
53.4641016151741084
 20
92.2487113059936945
 30
0.0
  0
VERTEX
  5
2CB4
  8
0
 10
53.36561468418342
 20
92.2360079657934193
 30
0.0
  0
VERTEX
  5
2CB5
  8
0
 10
53.26711987123781
 20
92.2233697092498801
 30
0.0
  0
VERTEX
  5
2CB6
  8
0
 10
53.1686092943824065
 20
92.210861620019827
 30
0.0
  0
VERTEX
  5
2CB7
  8
0
 10
53.070075071662302
 20
92.198548781759996
 30
0.0
  0
VERTEX
  5
2CB8
  8
0
 10
52.9715093211226531
 20
92.1864962781270947
 30
0.0
  0
VERTEX
  5
2CB9
  8
0
 10
52.8729041610715811
 20
92.1747691909762636
 30
0.0
  0
VERTEX
  5
2CBA
  8
0
 10
52.7742537646825483
 20
92.1634185319201151
 30
0.0
  0
VERTEX
  5
2CBB
  8
0
 10
52.675559318163657
 20
92.1524472923393887
 30
0.0
  0
VERTEX
  5
2CBC
  8
0
 10
52.5768235025506101
 20
92.1418482281073068
 30
0.0
  0
VERTEX
  5
2CBD
  8
0
 10
52.4780489988792098
 20
92.1316140950970635
 30
0.0
  0
VERTEX
  5
2CBE
  8
0
 10
52.3792384881852513
 20
92.1217376491818527
 30
0.0
  0
VERTEX
  5
2CBF
  8
0
 10
52.2803946451278421
 20
92.1122116651146143
 30
0.0
  0
VERTEX
  5
2CC0
  8
0
 10
52.1815193681115872
 20
92.1030312159481923
 30
0.0
  0
VERTEX
  5
2CC1
  8
0
 10
52.0826130454166787
 20
92.0941958458469685
 30
0.0
  0
VERTEX
  5
2CC2
  8
0
 10
51.9836758914665893
 20
92.0857056137216432
 30
0.0
  0
VERTEX
  5
2CC3
  8
0
 10
51.8847081206849907
 20
92.0775605784829736
 30
0.0
  0
VERTEX
  5
2CC4
  8
0
 10
51.7857099474955476
 20
92.0697607990417168
 30
0.0
  0
VERTEX
  5
2CC5
  8
0
 10
51.6866816189146903
 20
92.0623069256444069
 30
0.0
  0
VERTEX
  5
2CC6
  8
0
 10
51.5876240298692323
 20
92.0552113636379659
 30
0.0
  0
VERTEX
  5
2CC7
  8
0
 10
51.4885386712645072
 20
92.0484973312677539
 30
0.0
  0
VERTEX
  5
2CC8
  8
0
 10
51.3894270561896178
 20
92.0421884492621558
 30
0.0
  0
VERTEX
  5
2CC9
  8
0
 10
51.2902906977337807
 20
92.036308338349528
 30
0.0
  0
VERTEX
  5
2CCA
  8
0
 10
51.1911311089860419
 20
92.0308806192582978
 30
0.0
  0
VERTEX
  5
2CCB
  8
0
 10
51.0919498030356678
 20
92.0259289127168358
 30
0.0
  0
VERTEX
  5
2CCC
  8
0
 10
50.9927482929717186
 20
92.021476839453527
 30
0.0
  0
VERTEX
  5
2CCD
  8
0
 10
50.893528091883347
 20
92.0175480201967844
 30
0.0
  0
VERTEX
  5
2CCE
  8
0
 10
50.7942907386224718
 20
92.014160579867152
 30
0.0
  0
VERTEX
  5
2CCF
  8
0
 10
50.695038017230388
 20
92.0112803386305131
 30
0.0
  0
VERTEX
  5
2CD0
  8
0
 10
50.595771847465862
 20
92.008844164896658
 30
0.0
  0
VERTEX
  5
2CD1
  8
0
 10
50.4964941505249385
 20
92.0067886204508483
 30
0.0
  0
VERTEX
  5
2CD2
  8
0
 10
50.397206847603627
 20
92.005050267078488
 30
0.0
  0
VERTEX
  5
2CD3
  8
0
 10
50.2979118598980222
 20
92.0035656665648389
 30
0.0
  0
VERTEX
  5
2CD4
  8
0
 10
50.1986111086042115
 20
92.0022713806952055
 30
0.0
  0
VERTEX
  5
2CD5
  8
0
 10
50.0993065149182826
 20
92.0011039712549632
 30
0.0
  0
VERTEX
  5
2CD6
  8
0
 10
50.0000000000362732
 20
92.0000000000294165
 30
0.0
  0
SEQEND
  5
2CD7
  8
0
  0
POLYLINE
  5
2892
  8
0
 66
     1
 10
0.0
 20
0.0
 30
0.0
  0
VERTEX
  5
2CD8
  8
0
 10
43.0717967697608515
 20
134.9999999999540137
 30
0.0
  0
VERTEX
  5
2CD9
  8
0
 10
43.1210523723860319
 20
134.9147144776351013
 30
0.0
  0
VERTEX
  5
2CDA
  8
0
 10
43.1703114709626519
 20
134.8294219099790894
 30
0.0
  0
VERTEX
  5
2CDB
  8
0
 10
43.2195775614420015
 20
134.7441152516487932
 30
0.0
  0
VERTEX
  5
2CDC
  8
0
 10
43.2688541397755628
 20
134.6587874573071133
 30
0.0
  0
VERTEX
  5
2CDD
  8
0
 10
43.3181447019146617
 20
134.5734314816168933
 30
0.0
  0
VERTEX
  5
2CDE
  8
0
 10
43.3674527437885331
 20
134.4880402792730081
 30
0.0
  0
VERTEX
  5
2CDF
  8
0
 10
43.4167806697405965
 20
134.4026083754557135
 30
0.0
  0
VERTEX
  5
2CE0
  8
0
 10
43.4661268698691785
 20
134.3171360707179929
 30
0.0
  0
VERTEX
  5
2CE1
  8
0
 10
43.5154888117427276
 20
134.2316249928744867
 30
0.0
  0
VERTEX
  5
2CE2
  8
0
 10
43.564863962929671
 20
134.1460767697394942
 30
0.0
  0
VERTEX
  5
2CE3
  8
0
 10
43.6142497909984286
 20
134.0604930291279118
 30
0.0
  0
VERTEX
  5
2CE4
  8
0
 10
43.663643774775089
 20
133.9748754015710972
 30
0.0
  0
VERTEX
  5
2CE5
  8
0
 10
43.7130457747002197
 20
133.8892260924451136
 30
0.0
  0
VERTEX
  5
2CE6
  8
0
 10
43.7624609624454521
 20
133.8035485890839027
 30
0.0
  0
VERTEX
  5
2CE7
  8
0
 10
43.8118952279453424
 20
133.7178465521866997
 30
0.0
  0
VERTEX
  5
2CE8
  8
0
 10
43.8613544611342192
 20
133.6321236424527115
 30
0.0
  0
VERTEX
  5
2CE9
  8
0
 10
43.9108445519465178
 20
133.5463835205812018
 30
0.0
  0
VERTEX
  5
2CEA
  8
0
 10
43.9603711972612174
 20
133.4606297597563866
 30
0.0
  0
VERTEX
  5
2CEB
  8
0
 10
44.0099346548807304
 20
133.374863467553098
 30
0.0
  0
VERTEX
  5
2CEC
  8
0
 10
44.0595291229446389
 20
133.2890830046158044
 30
0.0
  0
VERTEX
  5
2CED
  8
0
 10
44.1091484819652919
 20
133.2032865876039978
 30
0.0
  0
VERTEX
  5
2CEE
  8
0
 10
44.1587866124549393
 20
133.1174724331771984
 30
0.0
  0
VERTEX
  5
2CEF
  8
0
 10
44.2084373949259088
 20
133.0316387579948127
 30
0.0
  0
VERTEX
  5
2CF0
  8
0
 10
44.2580947098905426
 20
132.9457837787165886
 30
0.0
  0
VERTEX
  5
2CF1
  8
0
 10
44.3077524378610974
 20
132.8599057120017903
 30
0.0
  0
VERTEX
  5
2CF2
  8
0
 10
44.3574044593498797
 20
132.7740027745101088
 30
0.0
  0
VERTEX
  5
2CF3
  8
0
 10
44.4070450709731901
 20
132.688073448506799
 30
0.0
  0
VERTEX
  5
2CF4
  8
0
 10
44.4566730670065269
 20
132.6021190871830129
 30
0.0
  0
VERTEX
  5
2CF5
  8
0
 10
44.506289989944321
 20
132.5161427979610096
 30
0.0
  0
VERTEX
  5
2CF6
  8
0
 10
44.5558974216574413
 20
132.4301477133977869
 30
0.0
  0
VERTEX
  5
2CF7
  8
0
 10
44.6054969440165792
 20
132.3441369660503142
 30
0.0
  0
VERTEX
  5
2CF8
  8
0
 10
44.6550901388925965
 20
132.258113688475305
 30
0.0
  0
VERTEX
  5
2CF9
  8
0
 10
44.7046785881562414
 20
132.1720810132295867
 30
0.0
  0
VERTEX
  5
2CFA
  8
0
 10
44.7542638736783189
 20
132.0860420728702138
 30
0.0
  0
VERTEX
  5
2CFB
  8
0
 10
44.8038475773296909
 20
131.9999999999540137
 30
0.0
  0
SEQEND
  5
2CFC
  8
0
  0
POLYLINE
  5
2893
  8
0
 66
     1
 10
0.0
 20
0.0
 30
0.0
  0
VERTEX
  5
2CFD
  8
0
 10
44.8038475773296909
 20
137.9999999999540137
 30
0.0
  0
VERTEX
  5
2CFE
  8
0
 10
44.761502484149382
 20
137.9265628509743919
 30
0.0
  0
VERTEX
  5
2CFF
  8
0
 10
44.7191580003671376
 20
137.8531267398844022
 30
0.0
  0
VERTEX
  5
2D00
  8
0
 10
44.6768147353812424
 20
137.779692704573705
 30
0.0
  0
VERTEX
  5
2D01
  8
0
 10
44.6344732985896187
 20
137.706261782931989
 30
0.0
  0
VERTEX
  5
2D02
  8
0
 10
44.5921342993905228
 20
137.6328350128488864
 30
0.0
  0
VERTEX
  5
2D03
  8
0
 10
44.5497978495549702
 20
137.5594137111598059
 30
0.0
  0
VERTEX
  5
2D04
  8
0
 10
44.5074613600208977
 20
137.4860007086568032
 30
0.0
  0
VERTEX
  5
2D05
  8
0
 10
44.4651213297688628
 20
137.4125993473313088
 30
0.0
  0
VERTEX
  5
2D06
  8
0
 10
44.4227742570709623
 20
137.3392129695718893
 30
0.0
  0
VERTEX
  5
2D07
  8
0
 10
44.3804166401990798
 20
137.2658449177671969
 30
0.0
  0
VERTEX
  5
2D08
  8
0
 10
44.3380457603132569
 20
137.1924980835923975
 30
0.0
  0
VERTEX
  5
2D09
  8
0
 10
44.2956642568946677
 20
137.1191722739038994
 30
0.0
  0
VERTEX
  5
2D0A
  8
0
 10
44.2532770133231566
 20
137.045866003732101
 30
0.0
  0
VERTEX
  5
2D0B
  8
0
 10
44.2108889205906621
 20
136.9725777837246028
 30
0.0
  0
VERTEX
  5
2D0C
  8
0
 10
44.1685048696891727
 20
136.899306124529403
 30
0.0
  0
VERTEX
  5
2D0D
  8
0
 10
44.1261296098073714
 20
136.826049531402191
 30
0.0
  0
VERTEX
  5
2D0E
  8
0
 10
44.0837665411324267
 20
136.7528064583050025
 30
0.0
  0
VERTEX
  5
2D0F
  8
0
 10
44.0414183174028224
 20
136.6795753308165899
 30
0.0
  0
VERTEX
  5
2D10
  8
0
 10
43.9990875844601419
 20
136.6063545742156862
 30
0.0
  0
VERTEX
  5
2D11
  8
0
 10
43.9567769881459185
 20
136.5331426137809956
 30
0.0
  0
VERTEX
  5
2D12
  8
0
 10
43.9144890626171218
 20
136.4599379921330069
 30
0.0
  0
VERTEX
  5
2D13
  8
0
 10
43.8722242698997817
 20
136.3867414289848057
 30
0.0
  0
VERTEX
  5
2D14
  8
0
 10
43.8299812431711118
 20
136.3135555655364897
 30
0.0
  0
VERTEX
  5
2D15
  8
0
 10
43.7877585528178699
 20
136.2403831089590938
 30
0.0
  0
VERTEX
  5
2D16
  8
0
 10
43.7455547692270486
 20
136.167226766423596
 30
0.0
  0
VERTEX
  5
2D17
  8
0
 10
43.7033684627854697
 20
136.0940892451012019
 30
0.0
  0
VERTEX
  5
2D18
  8
0
 10
43.661198203880069
 20
136.0209732521626051
 30
0.0
  0
VERTEX
  5
2D19
  8
0
 10
43.6190425628976826
 20
135.9478814947790966
 30
0.0
  0
VERTEX
  5
2D1A
  8
0
 10
43.5769001102252105
 20
135.8748166801215973
 30
0.0
  0
VERTEX
  5
2D1B
  8
0
 10
43.5347694162496097
 20
135.8017815153610002
 30
0.0
  0
VERTEX
  5
2D1C
  8
0
 10
43.4926490580562017
 20
135.7287786305433883
 30
0.0
  0
VERTEX
  5
2D1D
  8
0
 10
43.4505378364100281
 20
135.6558080803168025
 30
0.0
  0
VERTEX
  5
2D1E
  8
0
 10
43.4084348230217572
 20
135.5828667997220123
 30
0.0
  0
VERTEX
  5
2D1F
  8
0
 10
43.3663391058626573
 20
135.5099515365778871
 30
0.0
  0
VERTEX
  5
2D20
  8
0
 10
43.3242497729041673
 20
135.437059038703012
 30
0.0
  0
VERTEX
  5
2D21
  8
0
 10
43.2821659121176481
 20
135.3641860539160007
 30
0.0
  0
VERTEX
  5
2D22
  8
0
 10
43.2400866114743891
 20
135.2913293300356941
 30
0.0
  0
VERTEX
  5
2D23
  8
0
 10
43.1980109589457015
 20
135.218485614880592
 30
0.0
  0
VERTEX
  5
2D24
  8
0
 10
43.1559380425030028
 20
135.1456516562695072
 30
0.0
  0
VERTEX
  5
2D25
  8
0
 10
43.1138669501175897
 20
135.0728242020211098
 30
0.0
  0
VERTEX
  5
2D26
  8
0
 10
43.0717967697608515
 20
134.9999999999540137
 30
0.0
  0
SEQEND
  5
2D27
  8
0
  0
POLYLINE
  5
2894
  8
0
 66
     1
 10
0.0
 20
0.0
 30
0.0
  0
VERTEX
  5
2D28
  8
0
 10
55.1961524227429479
 20
131.9999999999540137
 30
0.0
  0
VERTEX
  5
2D29
  8
0
 10
55.2384975159233065
 20
132.073437148933607
 30
0.0
  0
VERTEX
  5
2D2A
  8
0
 10
55.2808419997056077
 20
132.1468732600235114
 30
0.0
  0
VERTEX
  5
2D2B
  8
0
 10
55.3231852646916806
 20
132.220307295334095
 30
0.0
  0
VERTEX
  5
2D2C
  8
0
 10
55.365526701483418
 20
132.2937382169756972
 30
0.0
  0
VERTEX
  5
2D2D
  8
0
 10
55.4078657006826916
 20
132.3671649870587999
 30
0.0
  0
VERTEX
  5
2D2E
  8
0
 10
55.4502021505184572
 20
132.4405862887477952
 30
0.0
  0
VERTEX
  5
2D2F
  8
0
 10
55.4925386400527714
 20
132.5139992912507125
 30
0.0
  0
VERTEX
  5
2D30
  8
0
 10
55.5348786703050266
 20
132.587400652576008
 30
0.0
  0
VERTEX
  5
2D31
  8
0
 10
55.5772257430031686
 20
132.6607870303353138
 30
0.0
  0
VERTEX
  5
2D32
  8
0
 10
55.6195833598752074
 20
132.7341550821398926
 30
0.0
  0
VERTEX
  5
2D33
  8
0
 10
55.6619542397612008
 20
132.8075019163146067
 30
0.0
  0
VERTEX
  5
2D34
  8
0
 10
55.7043357431799109
 20
132.8808277260029911
 30
0.0
  0
VERTEX
  5
2D35
  8
0
 10
55.7467229867515286
 20
132.9541339961747894
 30
0.0
  0
VERTEX
  5
2D36
  8
0
 10
55.7891110794840301
 20
133.0274222161822877
 30
0.0
  0
VERTEX
  5
2D37
  8
0
 10
55.831495130385413
 20
133.1006938753776012
 30
0.0
  0
VERTEX
  5
2D38
  8
0
 10
55.8738703902669727
 20
133.1739504685048132
 30
0.0
  0
VERTEX
  5
2D39
  8
0
 10
55.9162334589415693
 20
133.2471935416022859
 30
0.0
  0
VERTEX
  5
2D3A
  8
0
 10
55.9585816826708466
 20
133.3204246690908974
 30
0.0
  0
VERTEX
  5
2D3B
  8
0
 10
56.0009124156131293
 20
133.3936454256920001
 30
0.0
  0
VERTEX
  5
2D3C
  8
0
 10
56.0432230119269477
 20
133.4668573861270033
 30
0.0
  0
VERTEX
  5
2D3D
  8
0
 10
56.0855109374554104
 20
133.540062007775191
 30
0.0
  0
VERTEX
  5
2D3E
  8
0
 10
56.1277757301724023
 20
133.6132585709235912
 30
0.0
  0
VERTEX
  5
2D3F
  8
0
 10
56.170018756900852
 20
133.6864444343721061
 30
0.0
  0
VERTEX
  5
2D40
  8
0
 10
56.2122414472538026
 20
133.759616890949701
 30
0.0
  0
VERTEX
  5
2D41
  8
0
 10
56.2544452308444534
 20
133.8327732334853124
 30
0.0
  0
VERTEX
  5
2D42
  8
0
 10
56.2966315372858617
 20
133.9059107548077918
 30
0.0
  0
VERTEX
  5
2D43
  8
0
 10
56.3388017961911487
 20
133.9790267477463885
 30
0.0
  0
VERTEX
  5
2D44
  8
0
 10
56.3809574371734286
 20
134.0521185051300108
 30
0.0
  0
VERTEX
  5
2D45
  8
0
 10
56.4230998898458367
 20
134.1251833197875953
 30
0.0
  0
VERTEX
  5
2D46
  8
0
 10
56.4652305838214303
 20
134.1982184845481072
 30
0.0
  0
VERTEX
  5
2D47
  8
0
 10
56.5073509420148525
 20
134.2712213693656054
 30
0.0
  0
VERTEX
  5
2D48
  8
0
 10
56.5494621636610688
 20
134.3441919195923049
 30
0.0
  0
VERTEX
  5
2D49
  8
0
 10
56.5915651770494605
 20
134.4171332001868961
 30
0.0
  0
VERTEX
  5
2D4A
  8
0
 10
56.633660894208667
 20
134.4900484633309929
 30
0.0
  0
VERTEX
  5
2D4B
  8
0
 10
56.6757502271672706
 20
134.5629409612058112
 30
0.0
  0
VERTEX
  5
2D4C
  8
0
 10
56.7178340879539675
 20
134.6358139459925951
 30
0.0
  0
VERTEX
  5
2D4D
  8
0
 10
56.7599133885974467
 20
134.708670669872788
 30
0.0
  0
VERTEX
  5
2D4E
  8
0
 10
56.8019890411263191
 20
134.7815143850278048
 30
0.0
  0
VERTEX
  5
2D4F
  8
0
 10
56.8440619575692381
 20
134.8543483436386907
 30
0.0
  0
VERTEX
  5
2D50
  8
0
 10
56.8861330499548217
 20
134.9271757978870028
 30
0.0
  0
VERTEX
  5
2D51
  8
0
 10
56.9282032303117873
 20
134.9999999999540137
 30
0.0
  0
SEQEND
  5
2D52
  8
0
  0
POLYLINE
  5
2895
  8
0
 66
     1
 10
0.0
 20
0.0
 30
0.0
  0
VERTEX
  5
2D53
  8
0
 10
56.9282032303117873
 20
134.9999999999540137
 30
0.0
  0
VERTEX
  5
2D54
  8
0
 10
56.8789476276865003
 20
135.0852855222728977
 30
0.0
  0
VERTEX
  5
2D55
  8
0
 10
56.8296885291098803
 20
135.1705780899289095
 30
0.0
  0
VERTEX
  5
2D56
  8
0
 10
56.7804224386304099
 20
135.255884748259092
 30
0.0
  0
VERTEX
  5
2D57
  8
0
 10
56.7311458602968628
 20
135.3412125426006867
 30
0.0
  0
VERTEX
  5
2D58
  8
0
 10
56.6818552981577
 20
135.4265685182909067
 30
0.0
  0
VERTEX
  5
2D59
  8
0
 10
56.6325472562837078
 20
135.5119597206347919
 30
0.0
  0
VERTEX
  5
2D5A
  8
0
 10
56.5832193303315307
 20
135.5973916244520012
 30
0.0
  0
VERTEX
  5
2D5B
  8
0
 10
56.5338731302028918
 20
135.6828639291896081
 30
0.0
  0
VERTEX
  5
2D5C
  8
0
 10
56.484511188329229
 20
135.7683750070330859
 30
0.0
  0
VERTEX
  5
2D5D
  8
0
 10
56.4351360371422288
 20
135.8539232301679078
 30
0.0
  0
VERTEX
  5
2D5E
  8
0
 10
56.3857502090734783
 20
135.9395069707796893
 30
0.0
  0
VERTEX
  5
2D5F
  8
0
 10
56.3363562252967469
 20
136.0251245983363901
 30
0.0
  0
VERTEX
  5
2D60
  8
0
 10
56.2869542253716872
 20
136.1107739074624874
 30
0.0
  0
VERTEX
  5
2D61
  8
0
 10
56.2375390376265614
 20
136.1964514108236983
 30
0.0
  0
VERTEX
  5
2D62
  8
0
 10
56.1881047721268487
 20
136.2821534477209866
 30
0.0
  0
VERTEX
  5
2D63
  8
0
 10
56.1386455389380785
 20
136.3678763574550885
 30
0.0
  0
VERTEX
  5
2D64
  8
0
 10
56.0891554481259504
 20
136.4536164793267972
 30
0.0
  0
VERTEX
  5
2D65
  8
0
 10
56.0396288028114782
 20
136.5393702401516975
 30
0.0
  0
VERTEX
  5
2D66
  8
0
 10
55.9900653451921286
 20
136.6251365323550999
 30
0.0
  0
VERTEX
  5
2D67
  8
0
 10
55.940470877128341
 20
136.7109169952923935
 30
0.0
  0
VERTEX
  5
2D68
  8
0
 10
55.8908515181078087
 20
136.7967134123043138
 30
0.0
  0
VERTEX
  5
2D69
  8
0
 10
55.8412133876182679
 20
136.8825275667311985
 30
0.0
  0
VERTEX
  5
2D6A
  8
0
 10
55.7915626051473623
 20
136.9683612419136125
 30
0.0
  0
VERTEX
  5
2D6B
  8
0
 10
55.7419052901827783
 20
137.0542162211918935
 30
0.0
  0
VERTEX
  5
2D6C
  8
0
 10
55.6922475622122803
 20
137.1400942879066065
 30
0.0
  0
VERTEX
  5
2D6D
  8
0
 10
55.642595540723498
 20
137.225997225398288
 30
0.0
  0
VERTEX
  5
2D6E
  8
0
 10
55.5929549291001308
 20
137.3119265514015979
 30
0.0
  0
VERTEX
  5
2D6F
  8
0
 10
55.5433269330667301
 20
137.3978809127254976
 30
0.0
  0
VERTEX
  5
2D70
  8
0
 10
55.4937100101289005
 20
137.4838572019473872
 30
0.0
  0
VERTEX
  5
2D71
  8
0
 10
55.4441025784157091
 20
137.5698522865104962
 30
0.0
  0
VERTEX
  5
2D72
  8
0
 10
55.3945030560564575
 20
137.6558630338579974
 30
0.0
  0
VERTEX
  5
2D73
  8
0
 10
55.3449098611803834
 20
137.7418863114328929
 30
0.0
  0
VERTEX
  5
2D74
  8
0
 10
55.2953214119165821
 20
137.8279189866784975
 30
0.0
  0
VERTEX
  5
2D75
  8
0
 10
55.2457361263943767
 20
137.9139579270378135
 30
0.0
  0
VERTEX
  5
2D76
  8
0
 10
55.1961524227429479
 20
137.9999999999540137
 30
0.0
  0
SEQEND
  5
2D77
  8
0
  0
POLYLINE
  5
2896
  8
0
 66
     1
 10
0.0
 20
0.0
 30
0.0
  0
VERTEX
  5
2D78
  8
0
 10
53.4641016151741084
 20
140.9999999999540989
 30
0.0
  0
VERTEX
  5
2D79
  8
0
 10
53.36561468418342
 20
140.9999857443827125
 30
0.0
  0
VERTEX
  5
2D7A
  8
0
 10
53.2671198712377603
 20
140.9999719360853874
 30
0.0
  0
VERTEX
  5
2D7B
  8
0
 10
53.1686092943823425
 20
140.9999590223366113
 30
0.0
  0
VERTEX
  5
2D7C
  8
0
 10
53.070075071662302
 20
140.9999474504103887
 30
0.0
  0
VERTEX
  5
2D7D
  8
0
 10
52.9715093211226531
 20
140.9999376675810083
 30
0.0
  0
VERTEX
  5
2D7E
  8
0
 10
52.8729041610716308
 20
140.9999301211477984
 30
0.0
  0
VERTEX
  5
2D7F
  8
0
 10
52.7742537646826122
 20
140.9999254559465101
 30
0.0
  0
VERTEX
  5
2D80
  8
0
 10
52.6755593181637209
 20
140.9999249909814125
 30
0.0
  0
VERTEX
  5
2D81
  8
0
 10
52.5768235025506598
 20
140.9999301889561991
 30
0.0
  0
VERTEX
  5
2D82
  8
0
 10
52.4780489988792809
 20
140.9999425125745915
 30
0.0
  0
VERTEX
  5
2D83
  8
0
 10
52.3792384881852513
 20
140.9999634245401978
 30
0.0
  0
VERTEX
  5
2D84
  8
0
 10
52.2803946451277284
 20
140.9999943658822019
 30
0.0
  0
VERTEX
  5
2D85
  8
0
 10
52.1815193681114806
 20
141.0000341391213112
 30
0.0
  0
VERTEX
  5
2D86
  8
0
 10
52.0826130454165011
 20
141.0000764138252123
 30
0.0
  0
VERTEX
  5
2D87
  8
0
 10
51.9836758914664827
 20
141.0001142686195124
 30
0.0
  0
VERTEX
  5
2D88
  8
0
 10
51.8847081206848699
 20
141.0001407821295061
 30
0.0
  0
VERTEX
  5
2D89
  8
0
 10
51.7857099474954268
 20
141.0001490329808007
 30
0.0
  0
VERTEX
  5
2D8A
  8
0
 10
51.6866816189146405
 20
141.000132427216414
 30
0.0
  0
VERTEX
  5
2D8B
  8
0
 10
51.5876240298691684
 20
141.0000908795805117
 30
0.0
  0
VERTEX
  5
2D8C
  8
0
 10
51.4885386712644504
 20
141.0000302918284945
 30
0.0
  0
VERTEX
  5
2D8D
  8
0
 10
51.389427056189561
 20
140.9999567885674026
 30
0.0
  0
VERTEX
  5
2D8E
  8
0
 10
51.2902906977337167
 20
140.9998764944041909
 30
0.0
  0
VERTEX
  5
2D8F
  8
0
 10
51.1911311089859922
 20
140.9997955339458997
 30
0.0
  0
VERTEX
  5
2D90
  8
0
 10
51.0919498030356181
 20
140.9997200317995123
 30
0.0
  0
VERTEX
  5
2D91
  8
0
 10
50.9927482929716689
 20
140.9996561125720973
 30
0.0
  0
VERTEX
  5
2D92
  8
0
 10
50.893528091883347
 20
140.9996099008706096
 30
0.0
  0
VERTEX
  5
2D93
  8
0
 10
50.7942907386224007
 20
140.9995869499578021
 30
0.0
  0
VERTEX
  5
2D94
  8
0
 10
50.695038017230388
 20
140.9995873754944
 30
0.0
  0
VERTEX
  5
2D95
  8
0
 10
50.5957718474658122
 20
140.9996082833160926
 30
0.0
  0
VERTEX
  5
2D96
  8
0
 10
50.4964941505248817
 20
140.9996467473822008
 30
0.0
  0
VERTEX
  5
2D97
  8
0
 10
50.3972068476035702
 20
140.9996998416521024
 30
0.0
  0
VERTEX
  5
2D98
  8
0
 10
50.2979118598979724
 20
140.9997646400850044
 30
0.0
  0
VERTEX
  5
2D99
  8
0
 10
50.1986111086042115
 20
140.9998382166400859
 30
0.0
  0
VERTEX
  5
2D9A
  8
0
 10
50.0993065149182826
 20
140.999917645276696
 30
0.0
  0
VERTEX
  5
2D9B
  8
0
 10
50.0000000000362732
 20
140.9999999999539
 30
0.0
  0
SEQEND
  5
2D9C
  8
0
  0
POLYLINE
  5
2897
  8
0
 66
     1
 10
0.0
 20
0.0
 30
0.0
  0
VERTEX
  5
2D9D
  8
0
 10
55.1961524227429479
 20
137.9999999999540137
 30
0.0
  0
VERTEX
  5
2D9E
  8
0
 10
55.1537265327352202
 20
138.07339050086361
 30
0.0
  0
VERTEX
  5
2D9F
  8
0
 10
55.1113012368671775
 20
138.1467799550740096
 30
0.0
  0
VERTEX
  5
2DA0
  8
0
 10
55.0688771292786896
 20
138.2201673158863002
 30
0.0
  0
VERTEX
  5
2DA1
  8
0
 10
55.0264548041093917
 20
138.2935515366013988
 30
0.0
  0
VERTEX
  5
2DA2
  8
0
 10
54.9840348554990328
 20
138.3669315705201939
 30
0.0
  0
VERTEX
  5
2DA3
  8
0
 10
54.9416183679750176
 20
138.4403066624282985
 30
0.0
  0
VERTEX
  5
2DA4
  8
0
 10
54.8992090876062733
 20
138.5136776391233013
 30
0.0
  0
VERTEX
  5
2DA5
  8
0
 10
54.8568116591519015
 20
138.5870458615812879
 30
0.0
  0
VERTEX
  5
2DA6
  8
0
 10
54.8144307280693894
 20
138.6604126911931871
 30
0.0
  0
VERTEX
  5
2DA7
  8
0
 10
54.7720709398161034
 20
138.7337794893502974
 30
0.0
  0
VERTEX
  5
2DA8
  8
0
 10
54.7297361580763777
 20
138.8071471647994883
 30
0.0
  0
VERTEX
  5
2DA9
  8
0
 10
54.6874248958422911
 20
138.8805135282547099
 30
0.0
  0
VERTEX
  5
2DAA
  8
0
 10
54.6451334254024914
 20
138.9538750930699962
 30
0.0
  0
VERTEX
  5
2DAB
  8
0
 10
54.6028580114441411
 20
139.0272283681979957
 30
0.0
  0
VERTEX
  5
2DAC
  8
0
 10
54.5605949186543668
 20
139.1005698625916125
 30
0.0
  0
VERTEX
  5
2DAD
  8
0
 10
54.5183404779526199
 20
139.173896210704811
 30
0.0
  0
VERTEX
  5
2DAE
  8
0
 10
54.476091650336862
 20
139.2472052409083005
 30
0.0
  0
VERTEX
  5
2DAF
  8
0
 10
54.433845745449112
 20
139.3204954422076867
 30
0.0
  0
VERTEX
  5
2DB0
  8
0
 10
54.3916000766200227
 20
139.393765310597388
 30
0.0
  0
VERTEX
  5
2DB1
  8
0
 10
54.3493519571800334
 20
139.4670133420723062
 30
0.0
  0
VERTEX
  5
2DB2
  8
0
 10
54.3070988579231724
 20
139.5402380706777024
 30
0.0
  0
VERTEX
  5
2DB3
  8
0
 10
54.2648411711259087
 20
139.6134387364307941
 30
0.0
  0
VERTEX
  5
2DB4
  8
0
 10
54.2225818675462889
 20
139.6866152024348082
 30
0.0
  0
VERTEX
  5
2DB5
  8
0
 10
54.180324006469732
 20
139.7597673531855946
 30
0.0
  0
VERTEX
  5
2DB6
  8
0
 10
54.1380706471816211
 20
139.8328950731788893
 30
0.0
  0
VERTEX
  5
2DB7
  8
0
 10
54.0958248489673679
 20
139.9059982469104
 30
0.0
  0
VERTEX
  5
2DB8
  8
0
 10
54.0535896711124408
 20
139.9790767588758911
 30
0.0
  0
VERTEX
  5
2DB9
  8
0
 10
54.0113681729022801
 20
140.0521304935712976
 30
0.0
  0
VERTEX
  5
2DBA
  8
0
 10
53.9691634136222476
 20
140.1251593354922136
 30
0.0
  0
VERTEX
  5
2DBB
  8
0
 10
53.9269784525578828
 20
140.1981631691344035
 30
0.0
  0
VERTEX
  5
2DBC
  8
0
 10
53.8848162788529521
 20
140.2711419117551941
 30
0.0
  0
VERTEX
  5
2DBD
  8
0
 10
53.8426775394515928
 20
140.3440965745984954
 30
0.0
  0
VERTEX
  5
2DBE
  8
0
 10
53.8005600441660476
 20
140.4170294940660142
 30
0.0
  0
VERTEX
  5
2DBF
  8
0
 10
53.7584614325390291
 20
140.4899430860882887
 30
0.0
  0
VERTEX
  5
2DC0
  8
0
 10
53.7163793441132427
 20
140.5628397665961131
 30
0.0
  0
VERTEX
  5
2DC1
  8
0
 10
53.6743114184313299
 20
140.635721951519912
 30
0.0
  0
VERTEX
  5
2DC2
  8
0
 10
53.6322552950359821
 20
140.708592056790593
 30
0.0
  0
VERTEX
  5
2DC3
  8
0
 10
53.5902086134698834
 20
140.7814524983386946
 30
0.0
  0
VERTEX
  5
2DC4
  8
0
 10
53.5481690132757535
 20
140.854305692094897
 30
0.0
  0
VERTEX
  5
2DC5
  8
0
 10
53.5061341339962269
 20
140.9271540539897956
 30
0.0
  0
VERTEX
  5
2DC6
  8
0
 10
53.4641016151740018
 20
140.9999999999540137
 30
0.0
  0
SEQEND
  5
2DC7
  8
0
  0
POLYLINE
  5
2898
  8
0
 66
     1
 10
0.0
 20
0.0
 30
0.0
  0
VERTEX
  5
2DC8
  8
0
 10
46.5358983848986369
 20
128.9999999999540137
 30
0.0
  0
VERTEX
  5
2DC9
  8
0
 10
46.6343853158893396
 20
129.0000142555252864
 30
0.0
  0
VERTEX
  5
2DCA
  8
0
 10
46.7328801288348927
 20
129.0000280638224979
 30
0.0
  0
VERTEX
  5
2DCB
  8
0
 10
46.8313907056902892
 20
129.0000409775711887
 30
0.0
  0
VERTEX
  5
2DCC
  8
0
 10
46.9299249284103368
 20
129.0000525494972976
 30
0.0
  0
VERTEX
  5
2DCD
  8
0
 10
47.0284906789499928
 20
129.0000623323265927
 30
0.0
  0
VERTEX
  5
2DCE
  8
0
 10
47.127095839001008
 20
129.0000698787596036
 30
0.0
  0
VERTEX
  5
2DCF
  8
0
 10
47.2257462353900266
 20
129.0000745439608067
 30
0.0
  0
VERTEX
  5
2DD0
  8
0
 10
47.324440681908932
 20
129.0000750089257906
 30
0.0
  0
VERTEX
  5
2DD1
  8
0
 10
47.4231764975219718
 20
129.000069810950805
 30
0.0
  0
VERTEX
  5
2DD2
  8
0
 10
47.5219510011933721
 20
129.0000574873322989
 30
0.0
  0
VERTEX
  5
2DD3
  8
0
 10
47.6207615118873875
 20
129.0000365753666927
 30
0.0
  0
VERTEX
  5
2DD4
  8
0
 10
47.7196053549448607
 20
129.0000056340248022
 30
0.0
  0
VERTEX
  5
2DD5
  8
0
 10
47.8184806319611013
 20
128.9999658607858066
 30
0.0
  0
VERTEX
  5
2DD6
  8
0
 10
47.9173869546560169
 20
128.9999235860821045
 30
0.0
  0
VERTEX
  5
2DD7
  8
0
 10
48.0163241086061134
 20
128.9998857312880034
 30
0.0
  0
VERTEX
  5
2DD8
  8
0
 10
48.115291879387712
 20
128.9998592177782086
 30
0.0
  0
VERTEX
  5
2DD9
  8
0
 10
48.2142900525771623
 20
128.9998509669271982
 30
0.0
  0
VERTEX
  5
2DDA
  8
0
 10
48.3133183811579485
 20
128.9998675726916986
 30
0.0
  0
VERTEX
  5
2DDB
  8
0
 10
48.4123759702034206
 20
128.9999091203279136
 30
0.0
  0
VERTEX
  5
2DDC
  8
0
 10
48.5114613288081316
 20
128.9999697080801013
 30
0.0
  0
VERTEX
  5
2DDD
  8
0
 10
48.610572943883021
 20
129.0000432113413069
 30
0.0
  0
VERTEX
  5
2DDE
  8
0
 10
48.709709302338922
 20
129.0001235055046891
 30
0.0
  0
VERTEX
  5
2DDF
  8
0
 10
48.8088688910865969
 20
129.0002044659630087
 30
0.0
  0
VERTEX
  5
2DE0
  8
0
 10
48.9080501970370207
 20
129.0002799681095098
 30
0.0
  0
VERTEX
  5
2DE1
  8
0
 10
49.007251707100977
 20
129.0003438873368964
 30
0.0
  0
VERTEX
  5
2DE2
  8
0
 10
49.1064719081892918
 20
129.0003900990384125
 30
0.0
  0
VERTEX
  5
2DE3
  8
0
 10
49.2057092614501812
 20
129.0004130499511916
 30
0.0
  0
VERTEX
  5
2DE4
  8
0
 10
49.304961982842201
 20
129.0004126244145937
 30
0.0
  0
VERTEX
  5
2DE5
  8
0
 10
49.4042281526067768
 20
129.0003917165927874
 30
0.0
  0
VERTEX
  5
2DE6
  8
0
 10
49.5035058495477074
 20
129.0003532525265086
 30
0.0
  0
VERTEX
  5
2DE7
  8
0
 10
49.6027931524690189
 20
129.0003001582564934
 30
0.0
  0
VERTEX
  5
2DE8
  8
0
 10
49.7020881401745669
 20
129.0002353598235061
 30
0.0
  0
VERTEX
  5
2DE9
  8
0
 10
49.8013888914683776
 20
129.0001617832681973
 30
0.0
  0
VERTEX
  5
2DEA
  8
0
 10
49.9006934851542496
 20
129.0000823546315019
 30
0.0
  0
VERTEX
  5
2DEB
  8
0
 10
50.0000000000362732
 20
128.9999999999540137
 30
0.0
  0
SEQEND
  5
2DEC
  8
0
  0
POLYLINE
  5
2899
  8
0
 66
     1
 10
0.0
 20
0.0
 30
0.0
  0
VERTEX
  5
2DED
  8
0
 10
44.8038475773296909
 20
131.9999999999540137
 30
0.0
  0
VERTEX
  5
2DEE
  8
0
 10
44.846273467337312
 20
131.9266094990443889
 30
0.0
  0
VERTEX
  5
2DEF
  8
0
 10
44.8886987632051273
 20
131.8532200448337903
 30
0.0
  0
VERTEX
  5
2DF0
  8
0
 10
44.9311228707935015
 20
131.7798326840213861
 30
0.0
  0
VERTEX
  5
2DF1
  8
0
 10
44.9735451959626289
 20
131.7064484633062875
 30
0.0
  0
VERTEX
  5
2DF2
  8
0
 10
45.0159651445727604
 20
131.6330684293874071
 30
0.0
  0
VERTEX
  5
2DF3
  8
0
 10
45.0583816320964772
 20
131.5596933374791888
 30
0.0
  0
VERTEX
  5
2DF4
  8
0
 10
45.1007909124649515
 20
131.4863223607839871
 30
0.0
  0
VERTEX
  5
2DF5
  8
0
 10
45.1431883409189822
 20
131.4129541383258015
 30
0.0
  0
VERTEX
  5
2DF6
  8
0
 10
45.185569272001203
 20
131.3395873087137034
 30
0.0
  0
VERTEX
  5
2DF7
  8
0
 10
45.2279290602541479
 20
131.2662205105563942
 30
0.0
  0
VERTEX
  5
2DF8
  8
0
 10
45.2702638419936534
 20
131.1928528351070895
 30
0.0
  0
VERTEX
  5
2DF9
  8
0
 10
45.3125751042274985
 20
131.1194864716518111
 30
0.0
  0
VERTEX
  5
2DFA
  8
0
 10
45.3548665746671915
 20
131.0461249068364964
 30
0.0
  0
VERTEX
  5
2DFB
  8
0
 10
45.3971419886255418
 20
130.9727716317084116
 30
0.0
  0
VERTEX
  5
2DFC
  8
0
 10
45.4394050814154298
 20
130.8994301373149085
 30
0.0
  0
VERTEX
  5
2DFD
  8
0
 10
45.4816595221174609
 20
130.8261037892017953
 30
0.0
  0
VERTEX
  5
2DFE
  8
0
 10
45.5239083497337376
 20
130.7527947589985899
 30
0.0
  0
VERTEX
  5
2DFF
  8
0
 10
45.5661542546219991
 20
130.6795045576996017
 30
0.0
  0
VERTEX
  5
2E00
  8
0
 10
45.6083999234516497
 20
130.6062346893100994
 30
0.0
  0
VERTEX
  5
2E01
  8
0
 10
45.6506480428922714
 20
130.5329866578356075
 30
0.0
  0
VERTEX
  5
2E02
  8
0
 10
45.6929011421498075
 20
130.4597619292304955
 30
0.0
  0
VERTEX
  5
2E03
  8
0
 10
45.735158828947533
 20
130.386561263477688
 30
0.0
  0
VERTEX
  5
2E04
  8
0
 10
45.7774181325275933
 20
130.3133847974737876
 30
0.0
  0
VERTEX
  5
2E05
  8
0
 10
45.8196759936044984
 20
130.2402326467233138
 30
0.0
  0
VERTEX
  5
2E06
  8
0
 10
45.8619293528929575
 20
130.1671049267301896
 30
0.0
  0
VERTEX
  5
2E07
  8
0
 10
45.904175151107431
 20
130.0940017529987927
 30
0.0
  0
VERTEX
  5
2E08
  8
0
 10
45.9464103289624788
 20
130.0209232410333016
 30
0.0
  0
VERTEX
  5
2E09
  8
0
 10
45.9886318271728101
 20
129.9478695063380087
 30
0.0
  0
VERTEX
  5
2E0A
  8
0
 10
46.0308365864528284
 20
129.8748406644172064
 30
0.0
  0
VERTEX
  5
2E0B
  8
0
 10
46.0730215475172713
 20
129.8018368307749029
 30
0.0
  0
VERTEX
  5
2E0C
  8
0
 10
46.115183721222067
 20
129.7288580881541122
 30
0.0
  0
VERTEX
  5
2E0D
  8
0
 10
46.1573224606233268
 20
129.6559034253108109
 30
0.0
  0
VERTEX
  5
2E0E
  8
0
 10
46.1994399559087014
 20
129.5829705058432069
 30
0.0
  0
VERTEX
  5
2E0F
  8
0
 10
46.2415385675355424
 20
129.5100569138207902
 30
0.0
  0
VERTEX
  5
2E10
  8
0
 10
46.2836206559610872
 20
129.437160233312909
 30
0.0
  0
VERTEX
  5
2E11
  8
0
 10
46.3256885816427868
 20
129.3642780483889112
 30
0.0
  0
VERTEX
  5
2E12
  8
0
 10
46.3677447050378575
 20
129.291407943118088
 30
0.0
  0
VERTEX
  5
2E13
  8
0
 10
46.409791386603672
 20
129.2185475015697875
 30
0.0
  0
VERTEX
  5
2E14
  8
0
 10
46.4518309867975105
 20
129.1456943078134998
 30
0.0
  0
VERTEX
  5
2E15
  8
0
 10
46.4938658660767601
 20
129.0728459459184876
 30
0.0
  0
VERTEX
  5
2E16
  8
0
 10
46.5358983848986369
 20
128.9999999999540137
 30
0.0
  0
SEQEND
  5
2E17
  8
0
  0
POLYLINE
  5
289A
  8
0
 66
     1
 10
0.0
 20
0.0
 30
0.0
  0
VERTEX
  5
2E18
  8
0
 10
50.0000000000362732
 20
140.9999999999540137
 30
0.0
  0
VERTEX
  5
2E19
  8
0
 10
49.915229043622162
 20
140.9999549319095138
 30
0.0
  0
VERTEX
  5
2E1A
  8
0
 10
49.8304592921829226
 20
140.99991001424209
 30
0.0
  0
VERTEX
  5
2E1B
  8
0
 10
49.7456919506934696
 20
140.9998653973289038
 30
0.0
  0
VERTEX
  5
2E1C
  8
0
 10
49.660928224128547
 20
140.9998212315468891
 30
0.0
  0
VERTEX
  5
2E1D
  8
0
 10
49.5761693174630409
 20
140.9997776672730936
 30
0.0
  0
VERTEX
  5
2E1E
  8
0
 10
49.4914164282366116
 20
140.9997353850341142
 30
0.0
  0
VERTEX
  5
2E1F
  8
0
 10
49.4066707137121668
 20
140.9996979371510974
 30
0.0
  0
VERTEX
  5
2E20
  8
0
 10
49.3219333175782069
 20
140.9996698438363865
 30
0.0
  0
VERTEX
  5
2E21
  8
0
 10
49.2372053835127872
 20
140.9996556260414877
 30
0.0
  0
VERTEX
  5
2E22
  8
0
 10
49.1524880551939418
 20
140.999659804717794
 30
0.0
  0
VERTEX
  5
2E23
  8
0
 10
49.0677824771454425
 20
140.999686002924193
 30
0.0
  0
VERTEX
  5
2E24
  8
0
 10
48.9830897996708288
 20
140.9997317072715077
 30
0.0
  0
VERTEX
  5
2E25
  8
0
 10
48.8984111754907573
 20
140.9997918379912107
 30
0.0
  0
VERTEX
  5
2E26
  8
0
 10
48.8137477573341698
 20
140.9998613066676114
 30
0.0
  0
VERTEX
  5
2E27
  8
0
 10
48.7291006979297592
 20
140.9999350248847918
 30
0.0
  0
VERTEX
  5
2E28
  8
0
 10
48.6444710746568987
 20
141.0000080273233038
 30
0.0
  0
VERTEX
  5
2E29
  8
0
 10
48.5598592467455319
 20
141.0000765218765082
 30
0.0
  0
VERTEX
  5
2E2A
  8
0
 10
48.4752651754609474
 20
141.0001373665780875
 30
0.0
  0
VERTEX
  5
2E2B
  8
0
 10
48.3906888178380612
 20
141.0001874263730883
 30
0.0
  0
VERTEX
  5
2E2C
  8
0
 10
48.3061301309115834
 20
141.0002235662065004
 30
0.0
  0
VERTEX
  5
2E2D
  8
0
 10
48.2215891170098416
 20
141.0002428093453091
 30
0.0
  0
VERTEX
  5
2E2E
  8
0
 10
48.1370666276339989
 20
141.0002451473191059
 30
0.0
  0
VERTEX
  5
2E2F
  8
0
 10
48.0525642685229926
 20
141.000233208076196
 30
0.0
  0
VERTEX
  5
2E30
  8
0
 10
47.9680836716384533
 20
141.0002097112256934
 30
0.0
  0
VERTEX
  5
2E31
  8
0
 10
47.8836264689419409
 20
141.0001773763769108
 30
0.0
  0
VERTEX
  5
2E32
  8
0
 10
47.7991942923952067
 20
141.0001389231389055
 30
0.0
  0
VERTEX
  5
2E33
  8
0
 10
47.7147887739597465
 20
141.000097071120905
 30
0.0
  0
VERTEX
  5
2E34
  8
0
 10
47.6304115455973189
 20
141.0000545399319947
 30
0.0
  0
VERTEX
  5
2E35
  8
0
 10
47.5460642392695192
 20
141.0000140491816012
 30
0.0
  0
VERTEX
  5
2E36
  8
0
 10
47.4617484869379496
 20
140.9999783184786963
 30
0.0
  0
VERTEX
  5
2E37
  8
0
 10
47.3774658581616492
 20
140.9999500217994068
 30
0.0
  0
VERTEX
  5
2E38
  8
0
 10
47.2932158103113807
 20
140.9999302885391899
 30
0.0
  0
VERTEX
  5
2E39
  8
0
 10
47.2089952257844629
 20
140.9999183650924124
 30
0.0
  0
VERTEX
  5
2E3A
  8
0
 10
47.1248008308783071
 20
140.9999133837019087
 30
0.0
  0
VERTEX
  5
2E3B
  8
0
 10
47.0406293518903524
 20
140.9999144766107122
 30
0.0
  0
VERTEX
  5
2E3C
  8
0
 10
46.9564775151179106
 20
140.9999207760617139
 30
0.0
  0
VERTEX
  5
2E3D
  8
0
 10
46.8723420468584706
 20
140.9999314142978903
 30
0.0
  0
VERTEX
  5
2E3E
  8
0
 10
46.7882196734094578
 20
140.9999455235623032
 30
0.0
  0
VERTEX
  5
2E3F
  8
0
 10
46.7041071210682119
 20
140.9999622360977867
 30
0.0
  0
VERTEX
  5
2E40
  8
0
 10
46.6200011161321228
 20
140.9999806841474026
 30
0.0
  0
VERTEX
  5
2E41
  8
0
 10
46.5358983848986369
 20
140.9999999999540137
 30
0.0
  0
SEQEND
  5
2E42
  8
0
  0
POLYLINE
  5
289B
  8
0
 66
     1
 10
0.0
 20
0.0
 30
0.0
  0
VERTEX
  5
2E43
  8
0
 10
46.5358983848986369
 20
140.9999999999540137
 30
0.0
  0
VERTEX
  5
2E44
  8
0
 10
46.4866667573080008
 20
140.9147006356425038
 30
0.0
  0
VERTEX
  5
2E45
  8
0
 10
46.4374307762520928
 20
140.8293947210796091
 30
0.0
  0
VERTEX
  5
2E46
  8
0
 10
46.3881860882657406
 20
140.7440757060142005
 30
0.0
  0
VERTEX
  5
2E47
  8
0
 10
46.3389283398836369
 20
140.658737040195092
 30
0.0
  0
VERTEX
  5
2E48
  8
0
 10
46.2896531776405524
 20
140.5733721733707
 30
0.0
  0
VERTEX
  5
2E49
  8
0
 10
46.2403562480878279
 20
140.4879745553251951
 30
0.0
  0
VERTEX
  5
2E4A
  8
0
 10
46.1910340120643284
 20
140.4025393664261117
 30
0.0
  0
VERTEX
  5
2E4B
  8
0
 10
46.1416859249056799
 20
140.3170681511656994
 30
0.0
  0
VERTEX
  5
2E4C
  8
0
 10
46.0923121301248671
 20
140.2315639166014023
 30
0.0
  0
VERTEX
  5
2E4D
  8
0
 10
46.0429127712347892
 20
140.1460296697904084
 30
0.0
  0
VERTEX
  5
2E4E
  8
0
 10
45.9934879917484523
 20
140.0604684177901049
 30
0.0
  0
VERTEX
  5
2E4F
  8
0
 10
45.9440379431609287
 20
139.9748831592669092
 30
0.0
  0
VERTEX
  5
2E50
  8
0
 10
45.8945644656038709
 20
139.8892751177710068
 30
0.0
  0
VERTEX
  5
2E51
  8
0
 10
45.8450731650330496
 20
139.8036415581701135
 30
0.0
  0
VERTEX
  5
2E52
  8
0
 10
45.7955701566741027
 20
139.7179792099811095
 30
0.0
  0
VERTEX
  5
2E53
  8
0
 10
45.7460615557527603
 20
139.6322848027207897
 30
0.0
  0
VERTEX
  5
2E54
  8
0
 10
45.696553477494767
 20
139.5465550659058067
 30
0.0
  0
VERTEX
  5
2E55
  8
0
 10
45.6470518648079633
 20
139.4607868524865921
 30
0.0
  0
VERTEX
  5
2E56
  8
0
 10
45.5975578057814275
 20
139.3749804929869924
 30
0.0
  0
VERTEX
  5
2E57
  8
0
 10
45.5480669797614723
 20
139.289140192287789
 30
0.0
  0
VERTEX
  5
2E58
  8
0
 10
45.4985747825859903
 20
139.2032703583504087
 30
0.0
  0
VERTEX
  5
2E59
  8
0
 10
45.4490766100930088
 20
139.1173753991365061
 30
0.0
  0
VERTEX
  5
2E5A
  8
0
 10
45.3995678581205127
 20
139.0314597226077069
 30
0.0
  0
VERTEX
  5
2E5B
  8
0
 10
45.3500439225064724
 20
138.9455277367254098
 30
0.0
  0
VERTEX
  5
2E5C
  8
0
 10
45.3005001990889511
 20
138.8595838494514112
 30
0.0
  0
VERTEX
  5
2E5D
  8
0
 10
45.2509320837058908
 20
138.773632468746996
 30
0.0
  0
VERTEX
  5
2E5E
  8
0
 10
45.201335410268527
 20
138.6876777750200063
 30
0.0
  0
VERTEX
  5
2E5F
  8
0
 10
45.1517107478126718
 20
138.6017214890543983
 30
0.0
  0
VERTEX
  5
2E60
  8
0
 10
45.102061558692192
 20
138.5157638287217026
 30
0.0
  0
VERTEX
  5
2E61
  8
0
 10
45.0523913467163197
 20
138.4298049903601111
 30
0.0
  0
VERTEX
  5
2E62
  8
0
 10
45.0027036156943723
 20
138.3438451703077021
 30
0.0
  0
VERTEX
  5
2E63
  8
0
 10
44.9530018694354681
 20
138.2578845649028096
 30
0.0
  0
VERTEX
  5
2E64
  8
0
 10
44.9032896117489528
 20
138.1719233704833982
 30
0.0
  0
VERTEX
  5
2E65
  8
0
 10
44.8535703464439095
 20
138.0859617833878019
 30
0.0
  0
VERTEX
  5
2E66
  8
0
 10
44.8038475773296909
 20
137.9999999999539
 30
0.0
  0
SEQEND
  5
2E67
  8
0
  0
POLYLINE
  5
289C
  8
0
 66
     1
 10
0.0
 20
0.0
 30
0.0
  0
VERTEX
  5
2E68
  8
0
 10
50.0000000000362732
 20
128.9999999999540137
 30
0.0
  0
VERTEX
  5
2E69
  8
0
 10
50.0847709564503702
 20
129.0000450679985136
 30
0.0
  0
VERTEX
  5
2E6A
  8
0
 10
50.1695407078896096
 20
129.0000899856657952
 30
0.0
  0
VERTEX
  5
2E6B
  8
0
 10
50.2543080493791123
 20
129.0001346025790099
 30
0.0
  0
VERTEX
  5
2E6C
  8
0
 10
50.3390717759440918
 20
129.0001787683609962
 30
0.0
  0
VERTEX
  5
2E6D
  8
0
 10
50.4238306826095481
 20
129.0002223326347917
 30
0.0
  0
VERTEX
  5
2E6E
  8
0
 10
50.5085835718360272
 20
129.0002646148737142
 30
0.0
  0
VERTEX
  5
2E6F
  8
0
 10
50.593329286360472
 20
129.0003020627565888
 30
0.0
  0
VERTEX
  5
2E70
  8
0
 10
50.6780666824944319
 20
129.0003301560712998
 30
0.0
  0
VERTEX
  5
2E71
  8
0
 10
50.7627946165598516
 20
129.0003443738661133
 30
0.0
  0
VERTEX
  5
2E72
  8
0
 10
50.8475119448787609
 20
129.0003401951896933
 30
0.0
  0
VERTEX
  5
2E73
  8
0
 10
50.9322175229272602
 20
129.0003139969832944
 30
0.0
  0
VERTEX
  5
2E74
  8
0
 10
51.0169102004018669
 20
129.0002682926358943
 30
0.0
  0
VERTEX
  5
2E75
  8
0
 10
51.1015888245819312
 20
129.0002081619161061
 30
0.0
  0
VERTEX
  5
2E76
  8
0
 10
51.1862522427385329
 20
129.0001386932397907
 30
0.0
  0
VERTEX
  5
2E77
  8
0
 10
51.2708993021428796
 20
129.0000649750226103
 30
0.0
  0
VERTEX
  5
2E78
  8
0
 10
51.3555289254157401
 20
128.9999919725842119
 30
0.0
  0
VERTEX
  5
2E79
  8
0
 10
51.4401407533271069
 20
128.9999234780310928
 30
0.0
  0
VERTEX
  5
2E7A
  8
0
 10
51.5247348246116985
 20
128.9998626333295988
 30
0.0
  0
VERTEX
  5
2E7B
  8
0
 10
51.6093111822345918
 20
128.9998125735347116
 30
0.0
  0
VERTEX
  5
2E7C
  8
0
 10
51.6938698691610625
 20
128.9997764337014985
 30
0.0
  0
VERTEX
  5
2E7D
  8
0
 10
51.7784108830629108
 20
128.9997571905628888
 30
0.0
  0
VERTEX
  5
2E7E
  8
0
 10
51.8629333724387607
 20
128.9997548525892057
 30
0.0
  0
VERTEX
  5
2E7F
  8
0
 10
51.947435731549767
 20
128.9997667918322009
 30
0.0
  0
VERTEX
  5
2E80
  8
0
 10
52.0319163284343631
 20
128.9997902886827887
 30
0.0
  0
VERTEX
  5
2E81
  8
0
 10
52.1163735311308187
 20
128.9998226235315997
 30
0.0
  0
VERTEX
  5
2E82
  8
0
 10
52.2008057076776026
 20
128.9998610767696903
 30
0.0
  0
VERTEX
  5
2E83
  8
0
 10
52.2852112261130131
 20
128.9999029287876908
 30
0.0
  0
VERTEX
  5
2E84
  8
0
 10
52.3695884544754335
 20
128.9999454599764874
 30
0.0
  0
VERTEX
  5
2E85
  8
0
 10
52.4539357608032333
 20
128.9999859507269946
 30
0.0
  0
VERTEX
  5
2E86
  8
0
 10
52.53825151313481
 20
129.0000216814298994
 30
0.0
  0
VERTEX
  5
2E87
  8
0
 10
52.6225341419111103
 20
129.0000499781091889
 30
0.0
  0
VERTEX
  5
2E88
  8
0
 10
52.7067841897613789
 20
129.0000697113694059
 30
0.0
  0
VERTEX
  5
2E89
  8
0
 10
52.7910047742882966
 20
129.0000816348160981
 30
0.0
  0
VERTEX
  5
2E8A
  8
0
 10
52.8751991691944383
 20
129.0000866162066018
 30
0.0
  0
VERTEX
  5
2E8B
  8
0
 10
52.9593706481824071
 20
129.0000855232977983
 30
0.0
  0
VERTEX
  5
2E8C
  8
0
 10
53.0435224849547922
 20
129.0000792238467113
 30
0.0
  0
VERTEX
  5
2E8D
  8
0
 10
53.1276579532142179
 20
129.0000685856103928
 30
0.0
  0
VERTEX
  5
2E8E
  8
0
 10
53.2117803266633018
 20
129.0000544763460084
 30
0.0
  0
VERTEX
  5
2E8F
  8
0
 10
53.2958928790045476
 20
129.0000377638104112
 30
0.0
  0
VERTEX
  5
2E90
  8
0
 10
53.3799988839406865
 20
129.00001931576071
 30
0.0
  0
VERTEX
  5
2E91
  8
0
 10
53.4641016151741724
 20
128.9999999999540137
 30
0.0
  0
SEQEND
  5
2E92
  8
0
  0
POLYLINE
  5
289D
  8
0
 66
     1
 10
0.0
 20
0.0
 30
0.0
  0
VERTEX
  5
2E93
  8
0
 10
53.4641016151740018
 20
128.9999999999540137
 30
0.0
  0
VERTEX
  5
2E94
  8
0
 10
53.513333242764638
 20
129.0852993642656088
 30
0.0
  0
VERTEX
  5
2E95
  8
0
 10
53.5625692238205602
 20
129.1706052788285035
 30
0.0
  0
VERTEX
  5
2E96
  8
0
 10
53.6118139118068981
 20
129.2559242938937984
 30
0.0
  0
VERTEX
  5
2E97
  8
0
 10
53.661071660189009
 20
129.3412629597129921
 30
0.0
  0
VERTEX
  5
2E98
  8
0
 10
53.7103468224320935
 20
129.4266278265372989
 30
0.0
  0
VERTEX
  5
2E99
  8
0
 10
53.7596437519848109
 20
129.5120254445828891
 30
0.0
  0
VERTEX
  5
2E9A
  8
0
 10
53.8089659880083104
 20
129.5974606334818873
 30
0.0
  0
VERTEX
  5
2E9B
  8
0
 10
53.8583140751669589
 20
129.6829318487422995
 30
0.0
  0
VERTEX
  5
2E9C
  8
0
 10
53.9076878699477788
 20
129.7684360833065966
 30
0.0
  0
VERTEX
  5
2E9D
  8
0
 10
53.9570872288378496
 20
129.8539703301175905
 30
0.0
  0
VERTEX
  5
2E9E
  8
0
 10
54.0065120083241865
 20
129.939531582117894
 30
0.0
  0
VERTEX
  5
2E9F
  8
0
 10
54.0559620569117101
 20
130.0251168406410898
 30
0.0
  0
VERTEX
  5
2EA0
  8
0
 10
54.1054355344687679
 20
130.1107248821371059
 30
0.0
  0
VERTEX
  5
2EA1
  8
0
 10
54.1549268350395892
 20
130.1963584417379991
 30
0.0
  0
VERTEX
  5
2EA2
  8
0
 10
54.2044298433984935
 20
130.2820207899268894
 30
0.0
  0
VERTEX
  5
2EA3
  8
0
 10
54.2539384443198287
 20
130.3677151971872945
 30
0.0
  0
VERTEX
  5
2EA4
  8
0
 10
54.3034465225778078
 20
130.4534449340023059
 30
0.0
  0
VERTEX
  5
2EA5
  8
0
 10
54.3529481352646187
 20
130.5392131474214921
 30
0.0
  0
VERTEX
  5
2EA6
  8
0
 10
54.4024421942911474
 20
130.6250195069210918
 30
0.0
  0
VERTEX
  5
2EA7
  8
0
 10
54.4519330203111096
 20
130.7108598076204089
 30
0.0
  0
VERTEX
  5
2EA8
  8
0
 10
54.5014252174865916
 20
130.7967296415577039
 30
0.0
  0
VERTEX
  5
2EA9
  8
0
 10
54.5509233899795731
 20
130.8826246007716065
 30
0.0
  0
VERTEX
  5
2EAA
  8
0
 10
54.6004321419520693
 20
130.9685402773004057
 30
0.0
  0
VERTEX
  5
2EAB
  8
0
 10
54.6499560775661166
 20
131.0544722631827028
 30
0.0
  0
VERTEX
  5
2EAC
  8
0
 10
54.6994998009836877
 20
131.1404161504567867
 30
0.0
  0
VERTEX
  5
2EAD
  8
0
 10
54.7490679163667622
 20
131.2263675311610882
 30
0.0
  0
VERTEX
  5
2EAE
  8
0
 10
54.7986645898040479
 20
131.3123222248881063
 30
0.0
  0
VERTEX
  5
2EAF
  8
0
 10
54.8482892522599172
 20
131.3982785108536859
 30
0.0
  0
VERTEX
  5
2EB0
  8
0
 10
54.897938441380397
 20
131.48423617118641
 30
0.0
  0
VERTEX
  5
2EB1
  8
0
 10
54.9476086533562693
 20
131.5701950095480015
 30
0.0
  0
VERTEX
  5
2EB2
  8
0
 10
54.9972963843782168
 20
131.6561548296002968
 30
0.0
  0
VERTEX
  5
2EB3
  8
0
 10
55.046998130637121
 20
131.7421154350051893
 30
0.0
  0
VERTEX
  5
2EB4
  8
0
 10
55.0967103883236931
 20
131.828076629424487
 30
0.0
  0
VERTEX
  5
2EB5
  8
0
 10
55.1464296536286724
 20
131.914038216520197
 30
0.0
  0
VERTEX
  5
2EB6
  8
0
 10
55.1961524227429479
 20
131.9999999999540137
 30
0.0
  0
SEQEND
  5
2EB7
  8
0
  0
LINE
  5
289E
  8
1
 10
39.5000000000100613
 20
50.0
 30
0.0
 11
60.5000000000100613
 21
50.0
 31
0.0
  0
LINE
  5
289F
  8
1
 10
50.0000000000100613
 20
60.5
 30
0.0
 11
50.0000000000100613
 21
39.5
 31
0.0
  0
LINE
  5
28A1
  8
1
 10
50.0000000000100613
 20
108.0
 30
0.0
 11
50.0000000000100613
 21
77.0
 31
0.0
  0
LINE
  5
28A3
  8
1
 10
90.0000000000101181
 20
108.0
 30
0.0
 11
90.0000000000100755
 21
77.0
 31
0.0
  0
LINE
  5
28A4
  8
1
 10
39.5000000000100613
 20
135.0
 30
0.0
 11
60.5000000000100613
 21
135.0
 31
0.0
  0
LINE
  5
28A5
  8
1
 10
50.0000000000100613
 20
145.5
 30
0.0
 11
50.0000000000100613
 21
124.5
 31
0.0
  0
LINE
  5
28A6
  8
3
 10
45.7169999999892411
 20
97.0
 30
0.0
 11
45.7169999999892127
 21
104.9999999999790958
 31
0.0
  0
LINE
  5
28A7
  8
3
 10
54.2829999999891868
 20
97.0
 30
0.0
 11
54.2829999999892081
 21
105.0000000000209042
 31
0.0
  0
LINE
  5
28A8
  8
3
 10
85.7169999999892553
 20
97.0
 30
0.0
 11
85.7169999999892553
 21
104.9999999999790958
 31
0.0
  0
LINE
  5
28A9
  8
3
 10
94.2829999999892152
 20
97.0
 30
0.0
 11
94.2829999999892436
 21
105.0000000000209042
 31
0.0
  0
CIRCLE
  5
28AA
  8
3
 10
50.0000000000100613
 20
135.0
 30
0.0
 40
4.2830000000000004
  0
VIEWPORT
  5
22
 67
     1
  8
0
 10
261.517699115044195
 20
148.5
 30
0.0
 40
523.0353982300885036
 41
297.0
 68
     1
 69
     1
1001
ACAD
1000
MVIEW
1002
{
1070
    16
1010
0.0
1020
0.0
1030
0.0
1010
0.0
1020
0.0
1030
1.0
1040
0.0
1040
297.0
1040
261.517699115044195
1040
148.5
1040
50.0
1040
0.0
1040
0.0
1070
     0
1070
   100
1070
     1
1070
     1
1070
     0
1070
     0
1070
     0
1070
     0
1040
0.0
1040
0.0
1040
0.0
1040
1.0
1040
1.0
1040
10.0
1040
10.0
1070
     0
1002
{
1002
}
1002
}
  0
ENDSEC
  0
EOF
