  0
SECTION
  2
HEADER
  9
$ACADVER
  1
AC1009
  9
$INSBASE
 10
0.0
 20
0.0
 30
0.0
  9
$EXTMIN
 10
0.0
 20
-2.960436562073669
 30
0.0
  9
$EXTMAX
 10
96.0002451473500855
 20
143.0001642743602019
 30
0.0
  9
$LIMMIN
 10
0.0
 20
0.0
  9
$LIMMAX
 10
400.0
 20
277.0
  9
$ORTHOMODE
 70
     1
  9
$REGENMODE
 70
     1
  9
$FILLMODE
 70
     1
  9
$QTEXTMODE
 70
     0
  9
$MIRRTEXT
 70
     1
  9
$DRAGMODE
 70
     2
  9
$LTSCALE
 40
5.0
  9
$OSMODE
 70
    37
  9
$ATTMODE
 70
     1
  9
$TEXTSIZE
 40
2.5
  9
$TRACEWID
 40
1.0
  9
$TEXTSTYLE
  7
STANDARD
  9
$CLAYER
  8
0
  9
$CELTYPE
  6
BYLAYER
  9
$CECOLOR
 62
   256
  9
$DIMSCALE
 40
1.0
  9
$DIMASZ
 40
3.0
  9
$DIMEXO
 40
1.0
  9
$DIMDLI
 40
6.0
  9
$DIMRND
 40
0.0
  9
$DIMDLE
 40
0.0
  9
$DIMEXE
 40
1.0
  9
$DIMTP
 40
495.0
  9
$DIMTM
 40
0.0
  9
$DIMTXT
 40
3.0
  9
$DIMCEN
 40
0.0
  9
$DIMTSZ
 40
0.0
  9
$DIMTOL
 70
     0
  9
$DIMLIM
 70
     0
  9
$DIMTIH
 70
     0
  9
$DIMTOH
 70
     0
  9
$DIMSE1
 70
     0
  9
$DIMSE2
 70
     0
  9
$DIMTAD
 70
     3
  9
$DIMZIN
 70
     8
  9
$DIMBLK
  1

  9
$DIMASO
 70
     0
  9
$DIMSHO
 70
     1
  9
$DIMPOST
  1

  9
$DIMAPOST
  1

  9
$DIMALT
 70
     0
  9
$DIMALTD
 70
     2
  9
$DIMALTF
 40
25.3999999999999986
  9
$DIMLFAC
 40
1.0
  9
$DIMTOFL
 70
     1
  9
$DIMTVP
 40
0.0
  9
$DIMTIX
 70
     1
  9
$DIMSOXD
 70
     0
  9
$DIMSAH
 70
     1
  9
$DIMBLK1
  1
ARROW1
  9
$DIMBLK2
  1
ARROW1
  9
$DIMSTYLE
  2
ITM
  9
$DIMCLRD
 70
     4
  9
$DIMCLRE
 70
     4
  9
$DIMCLRT
 70
     4
  9
$DIMTFAC
 40
1.0
  9
$DIMGAP
 40
1.0
  9
$LUNITS
 70
     2
  9
$LUPREC
 70
     1
  9
$SKETCHINC
 40
1.0
  9
$FILLETRAD
 40
0.0
  9
$AUNITS
 70
     0
  9
$AUPREC
 70
     0
  9
$MENU
  1
.
  9
$ELEVATION
 40
0.0
  9
$PELEVATION
 40
0.0
  9
$THICKNESS
 40
0.0
  9
$LIMCHECK
 70
     0
  9
$BLIPMODE
 70
     0
  9
$CHAMFERA
 40
10.0
  9
$CHAMFERB
 40
10.0
  9
$SKPOLY
 70
     0
  9
$TDCREATE
 40
2451415.6127083338797092
  9
$TDUPDATE
 40
2460886.718587962910533
  9
$TDINDWG
 40
0.3768071875
  9
$TDUSRTIMER
 40
0.3768071875
  9
$USRTIMER
 70
     1
  9
$ANGBASE
 50
0.0
  9
$ANGDIR
 70
     0
  9
$PDMODE
 70
     0
  9
$PDSIZE
 40
0.0
  9
$PLINEWID
 40
0.0
  9
$COORDS
 70
     1
  9
$SPLFRAME
 70
     0
  9
$SPLINETYPE
 70
     6
  9
$SPLINESEGS
 70
     8
  9
$ATTDIA
 70
     1
  9
$ATTREQ
 70
     1
  9
$HANDLING
 70
     1
  9
$HANDSEED
  5
2EEC
  9
$SURFTAB1
 70
     6
  9
$SURFTAB2
 70
     6
  9
$SURFTYPE
 70
     6
  9
$SURFU
 70
     6
  9
$SURFV
 70
     6
  9
$UCSNAME
  2

  9
$UCSORG
 10
0.0
 20
0.0
 30
0.0
  9
$UCSXDIR
 10
1.0
 20
0.0
 30
0.0
  9
$UCSYDIR
 10
0.0
 20
1.0
 30
0.0
  9
$PUCSNAME
  2

  9
$PUCSORG
 10
0.0
 20
0.0
 30
0.0
  9
$PUCSXDIR
 10
1.0
 20
0.0
 30
0.0
  9
$PUCSYDIR
 10
0.0
 20
1.0
 30
0.0
  9
$USERI1
 70
     3
  9
$USERI2
 70
     1
  9
$USERI3
 70
     1
  9
$USERI4
 70
     0
  9
$USERI5
 70
     0
  9
$USERR1
 40
1.0
  9
$USERR2
 40
3.0
  9
$USERR3
 40
3.0
  9
$USERR4
 40
3.0
  9
$USERR5
 40
10.0
  9
$WORLDVIEW
 70
     1
  9
$SHADEDGE
 70
     3
  9
$SHADEDIF
 70
    70
  9
$TILEMODE
 70
     1
  9
$MAXACTVP
 70
    16
  9
$PLIMCHECK
 70
     0
  9
$PEXTMIN
 10
1.0000000000000000E+20
 20
1.0000000000000000E+20
 30
1.0000000000000000E+20
  9
$PEXTMAX
 10
-1.0000000000000000E+20
 20
-1.0000000000000000E+20
 30
-1.0000000000000000E+20
  9
$PLIMMIN
 10
0.0
 20
0.0
  9
$PLIMMAX
 10
420.0
 20
297.0
  9
$UNITMODE
 70
     0
  9
$VISRETAIN
 70
     0
  9
$PLINEGEN
 70
     0
  9
$PSLTSCALE
 70
     1
  0
ENDSEC
  0
SECTION
  2
TABLES
  0
TABLE
  2
VPORT
 70
     1
  0
VPORT
  2
*ACTIVE
 70
     0
 10
0.0
 20
0.0
 11
1.0
 21
1.0
 12
199.8363338788871033
 22
85.3912421994202191
 13
0.0
 23
0.0
 14
10.0
 24
10.0
 15
10.0
 25
10.0
 16
0.0
 26
0.0
 36
1.0
 17
0.0
 27
0.0
 37
0.0
 40
170.7824843988404098
 41
2.340243902439024
 42
50.0
 43
0.0
 44
0.0
 50
0.0
 51
0.0
 71
     0
 72
   100
 73
     1
 74
     1
 75
     0
 76
     0
 77
     0
 78
     0
  0
ENDTAB
  0
TABLE
  2
LTYPE
 70
     3
  0
LTYPE
  2
CONTINUOUS
 70
     0
  3
Solid line
 72
    65
 73
     0
 40
0.0
  0
LTYPE
  2
CENTER
 70
     0
  3
____ _ ____ _ ____ _ ____ _ ____ _ ____ _ ____ 
 72
    65
 73
     4
 40
2.0
 49
1.25
 49
-0.25
 49
0.25
 49
-0.25
  0
LTYPE
  2
PHANTOM2
 70
     0
  3
___ _ _ ___ _ _ ___ _ _ ___ _ _
 72
    65
 73
     6
 40
1.25
 49
0.625
 49
-0.125
 49
0.125
 49
-0.125
 49
0.125
 49
-0.125
  0
ENDTAB
  0
TABLE
  2
LAYER
 70
     5
  0
LAYER
  2
0
 70
     0
 62
     7
  6
CONTINUOUS
  0
LAYER
  2
WAKU
 70
     0
 62
     5
  6
CONTINUOUS
  0
LAYER
  2
1
 70
     0
 62
     1
  6
CENTER
  0
LAYER
  2
3
 70
     0
 62
     3
  6
CONTINUOUS
  0
LAYER
  2
DEFPOINTS
 70
     0
 62
     7
  6
CONTINUOUS
  0
ENDTAB
  0
TABLE
  2
STYLE
 70
     3
  0
STYLE
  2
STANDARD
 70
     0
 40
0.0
 41
1.0
 50
0.0
 71
     0
 42
2.5
  3
ROMANS
  4
EXTFONT
  0
STYLE
  2
K
 70
     0
 40
0.0
 41
1.0
 50
0.0
 71
     0
 42
3.0
  3
ROMANS
  4
bigfont
  0
STYLE
  2
STANDARD1
 70
     0
 40
0.0
 41
1.0
 50
0.0
 71
     0
 42
3.0
  3
txt
  4

  0
ENDTAB
  0
TABLE
  2
VIEW
 70
     0
  0
ENDTAB
  0
TABLE
  2
UCS
 70
     0
  0
ENDTAB
  0
TABLE
  2
APPID
 70
    45
  0
APPID
  2
ACAD
 70
     0
  0
APPID
  2
ACAD_NAV_VCDISPLAY
 70
     0
  0
APPID
  2
DCO15
 70
     0
  0
APPID
  2
GENIUS_GENOREF_13
 70
     0
  0
APPID
  2
GENIUS_GENOENT_13
 70
     0
  0
APPID
  2
GENIUS_GENBH_13
 70
     0
  0
APPID
  2
GENIUS_GENOBJ_13
 70
     0
  0
APPID
  2
GENIUS_GENODEF_13
 70
     0
  0
APPID
  2
GENIUS_GENOLIS_13
 70
     0
  0
APPID
  2
GENIUS_GENOBJ-NBEHI-BHF_13
 70
     0
  0
APPID
  2
GENIUS_GENOBJ-NBEHI-BHB_13
 70
     0
  0
APPID
  2
GENIUS_GENOBJ-F-PART_13
 70
     0
  0
APPID
  2
GENIUS_GEFSTDP_13
 70
     0
  0
APPID
  2
GENIUS_GENOBJ-N-RSSYM_13
 70
     0
  0
APPID
  2
GENIUS_GENSYMENT_13
 70
     0
  0
APPID
  2
GENIUS_GENOBJ-N-TIT_13
 70
     0
  0
APPID
  2
GENIUS_GENTITLE_13
 70
     0
  0
APPID
  2
GENIUS_GENZVEED_13
 70
     0
  0
APPID
  2
GENIUS_GENOBJ-N-LEADER_13
 70
     0
  0
APPID
  2
GENIUS_GENOBJ-N-FIL_13
 70
     0
  0
APPID
  2
GENIUS_GENOBJ-N-SEC_13
 70
     0
  0
APPID
  2
GENIUS_GENOBJ-N-CRS_13
 70
     0
  0
APPID
  2
GENIUS_GENOBJ-N-ZOO_13
 70
     0
  0
APPID
  2
GENIUS_GENZOO_13
 70
     0
  0
APPID
  2
GENIUS_GENOBJ-F-TOL_13
 70
     0
  0
APPID
  2
GENIUS_GENFIL_13
 70
     0
  0
APPID
  2
GENIUS_GENOBJ-N-CHA_13
 70
     0
  0
APPID
  2
_CALL_MAC$
 70
     0
  0
APPID
  2
ASM_BASE
 70
     0
  0
APPID
  2
ASM_EXPLO_VER_2_00
 70
     0
  0
APPID
  2
ASM_CADM_VER_12_00
 70
     0
  0
APPID
  2
ASM_BASEFORO
 70
     0
  0
APPID
  2
ASM_BASETRAVI
 70
     0
  0
APPID
  2
ASM_BASETRAVI1
 70
     0
  0
APPID
  2
ASM_GRUPPI
 70
     0
  0
APPID
  2
ASM_CADM_ALBERO
 70
     0
  0
APPID
  2
ASM_GOLE
 70
     0
  0
APPID
  2
ACAD_EXEMPT_FROM_CAD_STANDARDS
 70
     0
  0
APPID
  2
ACAD_DSTYLE_DIMJAG
 70
     0
  0
APPID
  2
ACAD_DSTYLE_DIMTALN
 70
     0
  0
APPID
  2
GRADIENTCOLOR1ACI
 70
     0
  0
APPID
  2
GRADIENTCOLOR2ACI
 70
     0
  0
APPID
  2
ACAD_MLEADERVER
 70
     0
  0
APPID
  2
ACAD_TC
 70
     0
  0
APPID
  2
ACAD_DSTYLE_DIMRADIAL_EXTENSION
 70
     0
  0
ENDTAB
  0
TABLE
  2
DIMSTYLE
 70
     2
  0
DIMSTYLE
  2
STANDARD
 70
     0
  3

  4

  5

  6

  7

 40
1.0
 41
0.18
 42
0.0625
 43
0.38
 44
0.18
 45
0.0
 46
0.0
 47
0.0
 48
0.0
140
0.18
141
0.09
142
0.0
143
25.3999999999999986
144
1.0
145
0.0
146
1.0
147
0.09
 71
     0
 72
     0
 73
     1
 74
     1
 75
     0
 76
     0
 77
     0
 78
     0
170
     0
171
     2
172
     0
173
     0
174
     0
175
     0
176
     0
177
     0
178
     0
  0
DIMSTYLE
  2
ITM
 70
     0
  3

  4

  5
ARROWANG
  6
ARROWANG
  7
ARROWANG
 40
1.0
 41
1.5
 42
1.0
 43
6.0
 44
1.0
 45
0.0
 46
0.0
 47
495.0
 48
0.0
140
3.0
141
0.0
142
0.0
143
25.3999999999999986
144
1.0
145
0.0
146
1.0
147
0.5
 71
     0
 72
     0
 73
     0
 74
     0
 75
     0
 76
     0
 77
     3
 78
     8
170
     0
171
     2
172
     1
173
     1
174
     1
175
     0
176
     0
177
     0
178
     0
  0
ENDTAB
  0
ENDSEC
  0
SECTION
  2
BLOCKS
  0
BLOCK
  8
0
  2
$MODEL_SPACE
 70
     0
 10
0.0
 20
0.0
 30
0.0
  3
$MODEL_SPACE
  1

  0
ENDBLK
  5
1C
  8
0
  0
BLOCK
 67
     1
  8
0
  2
$PAPER_SPACE
 70
     0
 10
0.0
 20
0.0
 30
0.0
  3
$PAPER_SPACE
  1

  0
ENDBLK
  5
19
 67
     1
  8
0
  0
BLOCK
  8
0
  2
ARROWANG
 70
     0
 10
0.0
 20
0.0
 30
0.0
  3
ARROWANG
  1

  0
LINE
  5
C9
  8
0
 10
0.0
 20
0.0
 30
0.0
 11
-1.4999999999999429
 21
0.4019237886467409
 31
0.0
  0
LINE
  5
CA
  8
0
 10
0.0
 20
0.0
 30
0.0
 11
-1.5
 21
-0.4019237886467124
 31
0.0
  0
ENDBLK
  5
CB
  8
0
  0
BLOCK
  8
0
  2
ARROW1
 70
     0
 10
0.0
 20
0.0
 30
0.0
  3
ARROW1
  1

  0
SOLID
  5
EE
  8
WAKU
  6
CONTINUOUS
 62
     4
 10
-1.0
 20
0.1666666666666714
 30
0.0
 11
-1.0
 21
-0.1666666666666714
 31
0.0
 12
0.0
 22
0.0
 32
0.0
 13
0.0
 23
0.0
 33
0.0
  0
ENDBLK
  5
F0
  8
0
  0
ENDSEC
  0
SECTION
  2
ENTITIES
  0
TEXT
  5
1BB9
  8
0
 62
     3
 10
0.0
 20
0.0
 30
0.0
 40
10.0
  1
VVH10-A-G1/8
  7
STANDARD1
  0
CIRCLE
  5
2576
  8
0
 10
50.0000000000309512
 20
134.0
 30
0.0
 40
2.0
  0
CIRCLE
  5
2578
  8
0
 10
50.0000000000309512
 20
134.0
 30
0.0
 40
4.8640000000000043
  0
ARC
  5
25F6
  8
0
 10
51.5214742183309795
 20
79.6128845309999917
 30
0.0
 40
3.499999999999984
 50
6.3501588790998342
 51
55.5773541851009725
  0
ARC
  5
25F7
  8
0
 10
48.4785257816309567
 20
79.6128845309999917
 30
0.0
 40
3.499999999999984
 50
124.4226458148989991
 51
173.6498411209001915
  0
LINE
  5
25F8
  8
0
 10
54.8640000000309769
 20
96.0
 30
0.0
 11
54.8640000000309769
 21
103.4189999999999969
 31
0.0
  0
LINE
  5
25F9
  8
0
 10
45.1360000000309682
 20
103.4189999999999969
 30
0.0
 11
45.1360000000309682
 21
96.0
 31
0.0
  0
LINE
  5
25FA
  8
0
 10
54.8640000000309769
 20
103.4189999999999969
 30
0.0
 11
54.2830000000309667
 21
104.0
 31
0.0
  0
LINE
  5
25FB
  8
0
 10
45.7170000000309571
 20
104.0
 30
0.0
 11
45.1360000000309682
 21
103.4189999999999969
 31
0.0
  0
LINE
  5
25FC
  8
0
 10
53.5000000000309797
 20
82.5
 30
0.0
 11
53.5000000000309797
 21
91.0
 31
0.0
  0
LINE
  5
25FD
  8
0
 10
46.5000000000309797
 20
91.0
 30
0.0
 11
46.5000000000309797
 21
82.5
 31
0.0
  0
LINE
  5
25FE
  8
0
 10
56.938384871230987
 20
95.7485605315999919
 30
0.0
 11
56.0000000000309797
 21
96.0
 31
0.0
  0
LINE
  5
25FF
  8
0
 10
43.0616151287309989
 20
91.2514394684999957
 30
0.0
 11
44.0000000000309797
 21
91.0
 31
0.0
  0
LINE
  5
2600
  8
0
 10
44.0000000000309797
 20
96.0
 30
0.0
 11
43.0616151287309989
 21
95.7485605315999919
 31
0.0
  0
LINE
  5
2601
  8
0
 10
56.0000000000309797
 20
91.0
 30
0.0
 11
56.938384871230987
 21
91.2514394684999957
 31
0.0
  0
LINE
  5
2604
  8
0
 10
46.5358983848310004
 20
91.2487113059999757
 30
0.0
 11
46.5358983848310004
 21
95.7512886940999834
 31
0.0
  0
LINE
  5
2607
  8
0
 10
53.4641016151309998
 20
91.2487113059999757
 30
0.0
 11
53.4641016151309998
 21
95.7512886940999834
 31
0.0
  0
LINE
  5
2609
  8
0
 10
55.1961524227309894
 20
96.0
 30
0.0
 11
50.0000000000309726
 21
96.0
 31
0.0
  0
LINE
  5
260B
  8
0
 10
50.0000000000309726
 20
91.0
 30
0.0
 11
44.8038475773309983
 21
91.0
 31
0.0
  0
LINE
  5
260D
  8
0
 10
50.0000000000309726
 20
96.0
 30
0.0
 11
44.8038475773309983
 21
96.0
 31
0.0
  0
LINE
  5
260F
  8
0
 10
55.1961524227309894
 20
91.0
 30
0.0
 11
50.0000000000309726
 21
91.0
 31
0.0
  0
LINE
  5
2612
  8
0
 10
56.9282032303310004
 20
91.2487113059999757
 30
0.0
 11
56.9282032303310004
 21
95.7512886940999834
 31
0.0
  0
LINE
  5
2614
  8
0
 10
43.0717967697309803
 20
91.2487113059999757
 30
0.0
 11
43.0717967697309803
 21
95.7512886940999834
 31
0.0
  0
LINE
  5
2616
  8
0
 10
53.4999999999827409
 20
82.5
 30
0.0
 11
46.5000000000309797
 21
82.5
 31
0.0
  0
LINE
  5
2618
  8
0
 10
54.9999999999891713
 20
80.0
 30
0.0
 11
45.0000000000309726
 21
80.0
 31
0.0
  0
LINE
  5
261A
  8
0
 10
54.8640000000309769
 20
103.4189999999999969
 30
0.0
 11
45.1360000000309682
 21
103.4189999999999969
 31
0.0
  0
LINE
  5
261C
  8
0
 10
54.2830000000309383
 20
104.0
 30
0.0
 11
45.7170000000309571
 21
104.0
 31
0.0
  0
LINE
  5
261E
  8
0
 10
56.0000000000309797
 20
96.0
 30
0.0
 11
55.1961524227309894
 21
96.0
 31
0.0
  0
LINE
  5
261F
  8
0
 10
44.8038475773309983
 20
91.0
 30
0.0
 11
44.0000000000309797
 21
91.0
 31
0.0
  0
LINE
  5
2620
  8
0
 10
44.8038475773309983
 20
96.0
 30
0.0
 11
44.0000000000309797
 21
96.0
 31
0.0
  0
LINE
  5
2621
  8
0
 10
56.0000000000309797
 20
91.0
 30
0.0
 11
55.1961524227309894
 21
91.0
 31
0.0
  0
CIRCLE
  5
2652
  8
0
 10
50.0
 20
50.0
 30
0.0
 40
5.0
  0
CIRCLE
  5
2653
  8
0
 10
50.0
 20
50.0
 30
0.0
 40
2.0
  0
ARC
  5
268E
  8
0
 10
91.5214742183100611
 20
79.6128845310000202
 30
0.0
 40
3.5000000000000031
 50
6.3501588790998342
 51
55.5773541851009725
  0
ARC
  5
268F
  8
0
 10
88.4785257816100739
 20
79.6128845310000202
 30
0.0
 40
3.5000000000000031
 50
124.4226458148989991
 51
173.6498411209001915
  0
LINE
  5
2690
  8
0
 10
94.864000000010094
 20
96.0
 30
0.0
 11
94.864000000010094
 21
103.4189999999999969
 31
0.0
  0
LINE
  5
2691
  8
0
 10
85.1360000000100854
 20
103.4189999999999969
 30
0.0
 11
85.1360000000100854
 21
96.0
 31
0.0
  0
LINE
  5
2692
  8
0
 10
94.864000000010094
 20
103.4189999999999969
 30
0.0
 11
94.2830000000100767
 21
104.0
 31
0.0
  0
LINE
  5
2693
  8
0
 10
85.7170000000101027
 20
104.0
 30
0.0
 11
85.1360000000100854
 21
103.4189999999999969
 31
0.0
  0
LINE
  5
2694
  8
0
 10
93.5000000000100613
 20
82.5
 30
0.0
 11
93.5000000000100613
 21
91.0
 31
0.0
  0
LINE
  5
2695
  8
0
 10
86.5000000000100471
 20
91.0
 30
0.0
 11
86.5000000000100471
 21
82.5
 31
0.0
  0
LINE
  5
2698
  8
0
 10
90.0000000000100755
 20
91.2487113060000183
 30
0.0
 11
90.0000000000100755
 21
95.7512886940999692
 31
0.0
  0
LINE
  5
269B
  8
0
 10
96.0000000000100613
 20
91.2487113060000183
 30
0.0
 11
96.0000000000100613
 21
95.7512886940999692
 31
0.0
  0
LINE
  5
269E
  8
0
 10
84.0000000000100471
 20
91.2487113060000183
 30
0.0
 11
84.0000000000100471
 21
95.7512886940999692
 31
0.0
  0
LINE
  5
26A1
  8
0
 10
93.0000000000100613
 20
96.0
 30
0.0
 11
87.0000000000100613
 21
96.0
 31
0.0
  0
LINE
  5
26A2
  8
0
 10
93.0000000000100613
 20
91.0
 30
0.0
 11
87.0000000000100613
 21
91.0
 31
0.0
  0
LINE
  5
26A3
  8
0
 10
96.0000000000100613
 20
96.0
 30
0.0
 11
93.0000000000100613
 21
96.0
 31
0.0
  0
LINE
  5
26A6
  8
0
 10
87.0000000000100613
 20
91.0
 30
0.0
 11
84.0000000000100471
 21
91.0
 31
0.0
  0
LINE
  5
26A8
  8
0
 10
87.0000000000100613
 20
96.0
 30
0.0
 11
84.0000000000100471
 21
96.0
 31
0.0
  0
LINE
  5
26AA
  8
0
 10
96.0000000000100613
 20
91.0
 30
0.0
 11
93.0000000000100613
 21
91.0
 31
0.0
  0
LINE
  5
26AB
  8
0
 10
93.5000000000100613
 20
82.5
 30
0.0
 11
86.5000000000100471
 21
82.5
 31
0.0
  0
LINE
  5
26AC
  8
0
 10
95.0000000000100755
 20
80.0
 30
0.0
 11
85.0000000000100755
 21
80.0
 31
0.0
  0
LINE
  5
26AD
  8
0
 10
94.864000000010094
 20
103.4189999999999969
 30
0.0
 11
85.1360000000100854
 21
103.4189999999999969
 31
0.0
  0
LINE
  5
26AE
  8
0
 10
94.2830000000100767
 20
104.0
 30
0.0
 11
85.7170000000101027
 21
104.0
 31
0.0
  0
POLYLINE
  5
26AF
  8
0
 66
     1
 10
0.0
 20
0.0
 30
0.0
  0
VERTEX
  5
276C
  8
0
 10
95.9999999999853912
 20
91.0000000000438263
 30
0.0
  0
VERTEX
  5
276D
  8
0
 10
95.9999549319409766
 20
91.0004739137501844
 30
0.0
  0
VERTEX
  5
276E
  8
0
 10
95.9999100142735955
 20
91.0010273336869062
 30
0.0
  0
VERTEX
  5
276F
  8
0
 10
95.999865397360395
 20
91.0017397660843841
 30
0.0
  0
VERTEX
  5
2770
  8
0
 10
95.999821231578423
 20
91.0026907171730102
 30
0.0
  0
VERTEX
  5
2771
  8
0
 10
95.9997776673047269
 20
91.0039596931831625
 30
0.0
  0
VERTEX
  5
2772
  8
0
 10
95.999735385065776
 20
91.005613857483624
 30
0.0
  0
VERTEX
  5
2773
  8
0
 10
95.9996979371828729
 20
91.0076535127294051
 30
0.0
  0
VERTEX
  5
2774
  8
0
 10
95.9996698438682756
 20
91.0100564272779735
 30
0.0
  0
VERTEX
  5
2775
  8
0
 10
95.9996556260734337
 20
91.0128003522746951
 30
0.0
  0
VERTEX
  5
2776
  8
0
 10
95.9996598047499106
 20
91.0158630388648504
 30
0.0
  0
VERTEX
  5
2777
  8
0
 10
95.9996860029562953
 20
91.019224607711763
 30
0.0
  0
VERTEX
  5
2778
  8
0
 10
95.9997317073037379
 20
91.0228813734167943
 30
0.0
  0
VERTEX
  5
2779
  8
0
 10
95.9997918380234978
 20
91.0268364231964711
 30
0.0
  0
VERTEX
  5
277A
  8
0
 10
95.999861306699799
 20
91.031092867086528
 30
0.0
  0
VERTEX
  5
277B
  8
0
 10
95.999935024917022
 20
91.035653815122572
 30
0.0
  0
VERTEX
  5
277C
  8
0
 10
96.0000080273553067
 20
91.0405215543304109
 30
0.0
  0
VERTEX
  5
277D
  8
0
 10
96.0000765219083405
 20
91.0456905277222006
 30
0.0
  0
VERTEX
  5
277E
  8
0
 10
96.0001373666098061
 20
91.0511508315233158
 30
0.0
  0
VERTEX
  5
277F
  8
0
 10
96.0001874264046933
 20
91.0568925157513291
 30
0.0
  0
VERTEX
  5
2780
  8
0
 10
96.0002235662378212
 20
91.0629056304238134
 30
0.0
  0
VERTEX
  5
2781
  8
0
 10
96.0002428093764451
 20
91.0691806136205457
 30
0.0
  0
VERTEX
  5
2782
  8
0
 10
96.0002451473500855
 20
91.0757151789051846
 30
0.0
  0
VERTEX
  5
2783
  8
0
 10
96.0002332081070904
 20
91.0825135019457974
 30
0.0
  0
VERTEX
  5
2784
  8
0
 10
96.0002097112565167
 20
91.0895799830796875
 30
0.0
  0
VERTEX
  5
2785
  8
0
 10
96.0001773764075779
 20
91.0969190226442436
 30
0.0
  0
VERTEX
  5
2786
  8
0
 10
96.0001389231695157
 20
91.1045350209768259
 30
0.0
  0
VERTEX
  5
2787
  8
0
 10
96.0000970711514583
 20
91.1124323784147663
 30
0.0
  0
VERTEX
  5
2788
  8
0
 10
96.0000545399626048
 20
91.1206154952954392
 30
0.0
  0
VERTEX
  5
2789
  8
0
 10
96.0000140492121545
 20
91.1290887719562051
 30
0.0
  0
VERTEX
  5
278A
  8
0
 10
95.9999783185092639
 20
91.1378566087344097
 30
0.0
  0
VERTEX
  5
278B
  8
0
 10
95.9999500218299744
 20
91.1469229820825149
 30
0.0
  0
VERTEX
  5
278C
  8
0
 10
95.9999302885698285
 20
91.1562775208997635
 30
0.0
  0
VERTEX
  5
278D
  8
0
 10
95.9999183651231078
 20
91.1658923629513254
 30
0.0
  0
VERTEX
  5
278E
  8
0
 10
95.9999133837327037
 20
91.1757385856556084
 30
0.0
  0
VERTEX
  5
278F
  8
0
 10
95.9999144766414929
 20
91.1857872664310207
 30
0.0
  0
VERTEX
  5
2790
  8
0
 10
95.9999207760926083
 20
91.1960094826959562
 30
0.0
  0
VERTEX
  5
2791
  8
0
 10
95.9999314143288842
 20
91.2063763118688655
 30
0.0
  0
VERTEX
  5
2792
  8
0
 10
95.9999455235933965
 20
91.2168588313681141
 30
0.0
  0
VERTEX
  5
2793
  8
0
 10
95.9999622361289653
 20
91.2274281186121243
 30
0.0
  0
VERTEX
  5
2794
  8
0
 10
95.9999806841786949
 20
91.2380552510193183
 30
0.0
  0
VERTEX
  5
2795
  8
0
 10
95.9999999999853912
 20
91.2487113060080901
 30
0.0
  0
SEQEND
  5
2796
  8
0
  0
POLYLINE
  5
26B0
  8
0
 66
     1
 10
0.0
 20
0.0
 30
0.0
  0
VERTEX
  5
2797
  8
0
 10
83.9999999999854055
 20
96.0000000000438831
 30
0.0
  0
VERTEX
  5
2798
  8
0
 10
84.0000450680298627
 20
95.9995260863375819
 30
0.0
  0
VERTEX
  5
2799
  8
0
 10
84.0000899856972865
 20
95.9989726664008884
 30
0.0
  0
VERTEX
  5
279A
  8
0
 10
84.0001346026106148
 20
95.998260234003439
 30
0.0
  0
VERTEX
  5
279B
  8
0
 10
84.0001787683926864
 20
95.9973092829148271
 30
0.0
  0
VERTEX
  5
279C
  8
0
 10
84.0002223326665245
 20
95.996040306904689
 30
0.0
  0
VERTEX
  5
279D
  8
0
 10
84.0002646149056744
 20
95.9943861426042417
 30
0.0
  0
VERTEX
  5
279E
  8
0
 10
84.000302062788748
 20
95.9923464873584891
 30
0.0
  0
VERTEX
  5
279F
  8
0
 10
84.0003301561035869
 20
95.989943572809949
 30
0.0
  0
VERTEX
  5
27A0
  8
0
 10
84.0003443738986562
 20
95.9871996478132701
 30
0.0
  0
VERTEX
  5
27A1
  8
0
 10
84.0003401952223641
 20
95.9841369612231574
 30
0.0
  0
VERTEX
  5
27A2
  8
0
 10
84.0003139970161214
 20
95.980775392376259
 30
0.0
  0
VERTEX
  5
27A3
  8
0
 10
84.0002682926688067
 20
95.9771186266712988
 30
0.0
  0
VERTEX
  5
27A4
  8
0
 10
84.0002081619491463
 20
95.9731635768916362
 30
0.0
  0
VERTEX
  5
27A5
  8
0
 10
84.0001386932727883
 20
95.9689071330015935
 30
0.0
  0
VERTEX
  5
27A6
  8
0
 10
84.0000649750554658
 20
95.9643461849655353
 30
0.0
  0
VERTEX
  5
27A7
  8
0
 10
83.9999919726169537
 20
95.9594784457576395
 30
0.0
  0
VERTEX
  5
27A8
  8
0
 10
83.9999234780636357
 20
95.9543094723657646
 30
0.0
  0
VERTEX
  5
27A9
  8
0
 10
83.9998626333617722
 20
95.9488491685645357
 30
0.0
  0
VERTEX
  5
27AA
  8
0
 10
83.999812573566544
 20
95.9431074843363945
 30
0.0
  0
VERTEX
  5
27AB
  8
0
 10
83.9997764337330182
 20
95.937094369663825
 30
0.0
  0
VERTEX
  5
27AC
  8
0
 10
83.9997571905939822
 20
95.9308193864669931
 30
0.0
  0
VERTEX
  5
27AD
  8
0
 10
83.9997548526200148
 20
95.9242848211822547
 30
0.0
  0
VERTEX
  5
27AE
  8
0
 10
83.9997667918627968
 20
95.9174864981415851
 30
0.0
  0
VERTEX
  5
27AF
  8
0
 10
83.9997902887131431
 20
95.910420017007624
 30
0.0
  0
VERTEX
  5
27B0
  8
0
 10
83.999822623561883
 20
95.9030809774430253
 30
0.0
  0
VERTEX
  5
27B1
  8
0
 10
83.9998610767997747
 20
95.895464979110443
 30
0.0
  0
VERTEX
  5
27B2
  8
0
 10
83.9999029288177184
 20
95.8875676216724742
 30
0.0
  0
VERTEX
  5
27B3
  8
0
 10
83.9999454600065292
 20
95.8793845047918154
 30
0.0
  0
VERTEX
  5
27B4
  8
0
 10
83.9999859507569937
 20
95.8709112281310638
 30
0.0
  0
VERTEX
  5
27B5
  8
0
 10
84.0000216814598275
 20
95.8621433913528591
 30
0.0
  0
VERTEX
  5
27B6
  8
0
 10
84.0000499781392591
 20
95.8530770180047682
 30
0.0
  0
VERTEX
  5
27B7
  8
0
 10
84.0000697113994761
 20
95.8437224791875337
 30
0.0
  0
VERTEX
  5
27B8
  8
0
 10
84.0000816348463104
 20
95.8341076371359861
 30
0.0
  0
VERTEX
  5
27B9
  8
0
 10
84.0000866162368567
 20
95.8242614144317741
 30
0.0
  0
VERTEX
  5
27BA
  8
0
 10
84.0000855233281527
 20
95.814212733656376
 30
0.0
  0
VERTEX
  5
27BB
  8
0
 10
84.0000792238771936
 20
95.803990517391469
 30
0.0
  0
VERTEX
  5
27BC
  8
0
 10
84.0000685856410172
 20
95.7936236882186165
 30
0.0
  0
VERTEX
  5
27BD
  8
0
 10
84.0000544763767607
 20
95.7831411687194247
 30
0.0
  0
VERTEX
  5
27BE
  8
0
 10
84.0000377638413767
 20
95.772571881475443
 30
0.0
  0
VERTEX
  5
27BF
  8
0
 10
84.0000193157919171
 20
95.7619447490682916
 30
0.0
  0
VERTEX
  5
27C0
  8
0
 10
83.9999999999854055
 20
95.7512886940795624
 30
0.0
  0
SEQEND
  5
27C1
  8
0
  0
POLYLINE
  5
26B1
  8
0
 66
     1
 10
0.0
 20
0.0
 30
0.0
  0
VERTEX
  5
27C2
  8
0
 10
83.9999999999854055
 20
91.2487113060080901
 30
0.0
  0
VERTEX
  5
27C3
  8
0
 10
84.0000142555568345
 20
91.2360079658078291
 30
0.0
  0
VERTEX
  5
27C4
  8
0
 10
84.0000280638540033
 20
91.2233697092643041
 30
0.0
  0
VERTEX
  5
27C5
  8
0
 10
84.0000409776028647
 20
91.210861620034251
 30
0.0
  0
VERTEX
  5
27C6
  8
0
 10
84.0000525495290589
 20
91.19854878177442
 30
0.0
  0
VERTEX
  5
27C7
  8
0
 10
84.0000623323585387
 20
91.1864962781415329
 30
0.0
  0
VERTEX
  5
27C8
  8
0
 10
84.0000698787916917
 20
91.1747691909907019
 30
0.0
  0
VERTEX
  5
27C9
  8
0
 10
84.0000745439930938
 20
91.1634185319345249
 30
0.0
  0
VERTEX
  5
27CA
  8
0
 10
84.000075008958234
 20
91.1524472923537843
 30
0.0
  0
VERTEX
  5
27CB
  8
0
 10
84.0000698109833337
 20
91.141848228121674
 30
0.0
  0
VERTEX
  5
27CC
  8
0
 10
84.0000574873649839
 20
91.1316140951114448
 30
0.0
  0
VERTEX
  5
27CD
  8
0
 10
84.000036575399406
 20
91.1217376491962341
 30
0.0
  0
VERTEX
  5
27CE
  8
0
 10
84.0000056340574446
 20
91.1122116651289531
 30
0.0
  0
VERTEX
  5
27CF
  8
0
 10
83.9999658608183495
 20
91.1030312159625169
 30
0.0
  0
VERTEX
  5
27D0
  8
0
 10
83.9999235861144058
 20
91.094195845861293
 30
0.0
  0
VERTEX
  5
27D1
  8
0
 10
83.9998857313200915
 20
91.0857056137359535
 30
0.0
  0
VERTEX
  5
27D2
  8
0
 10
83.9998592178099983
 20
91.0775605784973266
 30
0.0
  0
VERTEX
  5
27D3
  8
0
 10
83.9998509669587037
 20
91.0697607990560272
 30
0.0
  0
VERTEX
  5
27D4
  8
0
 10
83.9998675727229624
 20
91.0623069256587314
 30
0.0
  0
VERTEX
  5
27D5
  8
0
 10
83.9999091203588364
 20
91.0552113636522904
 30
0.0
  0
VERTEX
  5
27D6
  8
0
 10
83.9999697081108252
 20
91.0484973312820784
 30
0.0
  0
VERTEX
  5
27D7
  8
0
 10
84.0000432113719171
 20
91.0421884492764946
 30
0.0
  0
VERTEX
  5
27D8
  8
0
 10
84.0001235055351003
 20
91.0363083383638667
 30
0.0
  0
VERTEX
  5
27D9
  8
0
 10
84.0002044659933631
 20
91.0308806192726365
 30
0.0
  0
VERTEX
  5
27DA
  8
0
 10
84.0002799681397505
 20
91.0259289127311746
 30
0.0
  0
VERTEX
  5
27DB
  8
0
 10
84.0003438873671939
 20
91.0214768394678657
 30
0.0
  0
VERTEX
  5
27DC
  8
0
 10
84.0003900990686674
 20
91.0175480202111373
 30
0.0
  0
VERTEX
  5
27DD
  8
0
 10
84.0004130499814323
 20
91.014160579881505
 30
0.0
  0
VERTEX
  5
27DE
  8
0
 10
84.0004126244448912
 20
91.0112803386448945
 30
0.0
  0
VERTEX
  5
27DF
  8
0
 10
84.0003917166231844
 20
91.0088441649110109
 30
0.0
  0
VERTEX
  5
27E0
  8
0
 10
84.0003532525570336
 20
91.0067886204652439
 30
0.0
  0
VERTEX
  5
27E1
  8
0
 10
84.0003001582871747
 20
91.0050502670928836
 30
0.0
  0
VERTEX
  5
27E2
  8
0
 10
84.0002353598543436
 20
91.0035656665792345
 30
0.0
  0
VERTEX
  5
27E3
  8
0
 10
84.0001617832992338
 20
91.0022713807096153
 30
0.0
  0
VERTEX
  5
27E4
  8
0
 10
84.0000823546627089
 20
91.001103971269373
 30
0.0
  0
VERTEX
  5
27E5
  8
0
 10
83.9999999999854055
 20
91.0000000000438263
 30
0.0
  0
SEQEND
  5
27E6
  8
0
  0
POLYLINE
  5
26B2
  8
0
 66
     1
 10
0.0
 20
0.0
 30
0.0
  0
VERTEX
  5
27E7
  8
0
 10
95.9999999999853912
 20
95.7512886940795624
 30
0.0
  0
VERTEX
  5
27E8
  8
0
 10
95.9999857444138911
 20
95.7639920342798519
 30
0.0
  0
VERTEX
  5
27E9
  8
0
 10
95.9999719361165944
 20
95.7766302908233911
 30
0.0
  0
VERTEX
  5
27EA
  8
0
 10
95.9999590223677046
 20
95.7891383800534584
 30
0.0
  0
VERTEX
  5
27EB
  8
0
 10
95.9999474504413683
 20
95.8014512183133462
 30
0.0
  0
VERTEX
  5
27EC
  8
0
 10
95.9999376676118459
 20
95.8135037219462333
 30
0.0
  0
VERTEX
  5
27ED
  8
0
 10
95.999930121178636
 20
95.8252308090970928
 30
0.0
  0
VERTEX
  5
27EE
  8
0
 10
95.9999254559771344
 20
95.8365814681532839
 30
0.0
  0
VERTEX
  5
27EF
  8
0
 10
95.9999249910118948
 20
95.8475527077340388
 30
0.0
  0
VERTEX
  5
27F0
  8
0
 10
95.9999301889865819
 20
95.8581517719661349
 30
0.0
  0
VERTEX
  5
27F1
  8
0
 10
95.9999425126048749
 20
95.8683859049764067
 30
0.0
  0
VERTEX
  5
27F2
  8
0
 10
95.9999634245704101
 20
95.8782623508916174
 30
0.0
  0
VERTEX
  5
27F3
  8
0
 10
95.9999943659123574
 20
95.8877883349588558
 30
0.0
  0
VERTEX
  5
27F4
  8
0
 10
96.0000341391515235
 20
95.8969687841252352
 30
0.0
  0
VERTEX
  5
27F5
  8
0
 10
96.0000764138556661
 20
95.9058041542264448
 30
0.0
  0
VERTEX
  5
27F6
  8
0
 10
96.0001142686501794
 20
95.9142943863517132
 30
0.0
  0
VERTEX
  5
27F7
  8
0
 10
96.0001407821604857
 20
95.9224394215903118
 30
0.0
  0
VERTEX
  5
27F8
  8
0
 10
96.0001490330119935
 20
95.9302392010315543
 30
0.0
  0
VERTEX
  5
27F9
  8
0
 10
96.0001324272479337
 20
95.9376930744288074
 30
0.0
  0
VERTEX
  5
27FA
  8
0
 10
96.0000908796122445
 20
95.9447886364351916
 30
0.0
  0
VERTEX
  5
27FB
  8
0
 10
96.0000302918603552
 20
95.9515026688053467
 30
0.0
  0
VERTEX
  5
27FC
  8
0
 10
95.9999567885994338
 20
95.9578115508109306
 30
0.0
  0
VERTEX
  5
27FD
  8
0
 10
95.9998764944363643
 20
95.9636916617235443
 30
0.0
  0
VERTEX
  5
27FE
  8
0
 10
95.9997955339781441
 20
95.9691193808147602
 30
0.0
  0
VERTEX
  5
27FF
  8
0
 10
95.9997200318318136
 20
95.974071087356208
 30
0.0
  0
VERTEX
  5
2800
  8
0
 10
95.9996561126044412
 20
95.9785231606195168
 30
0.0
  0
VERTEX
  5
2801
  8
0
 10
95.9996099009029535
 20
95.9824519798762736
 30
0.0
  0
VERTEX
  5
2802
  8
0
 10
95.999586949990146
 20
95.9858394202059344
 30
0.0
  0
VERTEX
  5
2803
  8
0
 10
95.9995873755266302
 20
95.9887196614426017
 30
0.0
  0
VERTEX
  5
2804
  8
0
 10
95.999608283348266
 20
95.9911558351764853
 30
0.0
  0
VERTEX
  5
2805
  8
0
 10
95.9996467474143174
 20
95.9932113796223234
 30
0.0
  0
VERTEX
  5
2806
  8
0
 10
95.9996998416841052
 20
95.9949497329947121
 30
0.0
  0
VERTEX
  5
2807
  8
0
 10
95.9997646401168367
 20
95.9964343335084038
 30
0.0
  0
VERTEX
  5
2808
  8
0
 10
95.9998382166717761
 20
95.997728619378023
 30
0.0
  0
VERTEX
  5
2809
  8
0
 10
95.9999176453081731
 20
95.9988960288182938
 30
0.0
  0
VERTEX
  5
280A
  8
0
 10
95.9999999999853912
 20
96.0000000000438831
 30
0.0
  0
SEQEND
  5
280B
  8
0
  0
POLYLINE
  5
26B3
  8
0
 66
     1
 10
0.0
 20
0.0
 30
0.0
  0
VERTEX
  5
280C
  8
0
 10
86.9999999999853912
 20
96.0000000000438831
 30
0.0
  0
VERTEX
  5
280D
  8
0
 10
87.0734371489649561
 20
95.9995264586589769
 30
0.0
  0
VERTEX
  5
280E
  8
0
 10
87.1468732600548748
 20
95.9989734616704453
 30
0.0
  0
VERTEX
  5
280F
  8
0
 10
87.2203072953654441
 20
95.9982615534747055
 30
0.0
  0
VERTEX
  5
2810
  8
0
 10
87.2937382170070464
 20
95.9973112784681177
 30
0.0
  0
VERTEX
  5
2811
  8
0
 10
87.3671649870900637
 20
95.9960431810470141
 30
0.0
  0
VERTEX
  5
2812
  8
0
 10
87.4405862887791159
 20
95.9943901106234705
 30
0.0
  0
VERTEX
  5
2813
  8
0
 10
87.5139992912820048
 20
95.9923517011498433
 30
0.0
  0
VERTEX
  5
2814
  8
0
 10
87.587400652607414
 20
95.9899501368968657
 30
0.0
  0
VERTEX
  5
2815
  8
0
 10
87.6607870303666914
 20
95.9872076196575392
 30
0.0
  0
VERTEX
  5
2816
  8
0
 10
87.7341550821712559
 20
95.9841463512250357
 30
0.0
  0
VERTEX
  5
2817
  8
0
 10
87.8075019163459274
 20
95.9807861693744258
 30
0.0
  0
VERTEX
  5
2818
  8
0
 10
87.8808277260342834
 20
95.977130731827927
 30
0.0
  0
VERTEX
  5
2819
  8
0
 10
87.9541339962061244
 20
95.9731769206040468
 30
0.0
  0
VERTEX
  5
281A
  8
0
 10
88.0274222162135658
 20
95.9689215947354342
 30
0.0
  0
VERTEX
  5
281B
  8
0
 10
88.1006938754088651
 20
95.9643616132546953
 30
0.0
  0
VERTEX
  5
281C
  8
0
 10
88.1739504685361339
 20
95.9594946615116839
 30
0.0
  0
VERTEX
  5
281D
  8
0
 10
88.2471935416335782
 20
95.9543262857656458
 30
0.0
  0
VERTEX
  5
281E
  8
0
 10
88.3204246691221755
 20
95.9488663819862353
 30
0.0
  0
VERTEX
  5
281F
  8
0
 10
88.3936454257233066
 20
95.9431248921598154
 30
0.0
  0
VERTEX
  5
2820
  8
0
 10
88.4668573861582672
 20
95.9371117582727493
 30
0.0
  0
VERTEX
  5
2821
  8
0
 10
88.5400620078064975
 20
95.9308365301553749
 30
0.0
  0
VERTEX
  5
2822
  8
0
 10
88.6132585709549403
 20
95.9243014818072339
 30
0.0
  0
VERTEX
  5
2823
  8
0
 10
88.6864444344034268
 20
95.9175024656279334
 30
0.0
  0
VERTEX
  5
2824
  8
0
 10
88.7596168909809649
 20
95.9104351135430022
 30
0.0
  0
VERTEX
  5
2825
  8
0
 10
88.8327732335165337
 20
95.9030950574779553
 30
0.0
  0
VERTEX
  5
2826
  8
0
 10
88.9059107548391125
 20
95.8954779293583215
 30
0.0
  0
VERTEX
  5
2827
  8
0
 10
88.9790267477777093
 20
95.8875793611096015
 30
0.0
  0
VERTEX
  5
2828
  8
0
 10
89.0521185051613315
 20
95.8793949846573383
 30
0.0
  0
VERTEX
  5
2829
  8
0
 10
89.1251833198189161
 20
95.8709204319271038
 30
0.0
  0
VERTEX
  5
282A
  8
0
 10
89.1982184845794563
 20
95.8621513348443131
 30
0.0
  0
VERTEX
  5
282B
  8
0
 10
89.2712213693970398
 20
95.853083755993552
 30
0.0
  0
VERTEX
  5
282C
  8
0
 10
89.344191919623654
 20
95.8437281387373616
 30
0.0
  0
VERTEX
  5
282D
  8
0
 10
89.4171332002183163
 20
95.8341123460279505
 30
0.0
  0
VERTEX
  5
282E
  8
0
 10
89.4900484633623705
 20
95.8242652862490161
 30
0.0
  0
VERTEX
  5
282F
  8
0
 10
89.5629409612371745
 20
95.8142158677842275
 30
0.0
  0
VERTEX
  5
2830
  8
0
 10
89.6358139460240295
 20
95.8039929990173107
 30
0.0
  0
VERTEX
  5
2831
  8
0
 10
89.7086706699042651
 20
95.7936255883319063
 30
0.0
  0
VERTEX
  5
2832
  8
0
 10
89.7815143850592108
 20
95.7831425441117545
 30
0.0
  0
VERTEX
  5
2833
  8
0
 10
89.8543483436701536
 20
95.7725727747405244
 30
0.0
  0
VERTEX
  5
2834
  8
0
 10
89.927175797918423
 20
95.7619451886018851
 30
0.0
  0
VERTEX
  5
2835
  8
0
 10
89.9999999999854481
 20
95.7512886940795624
 30
0.0
  0
SEQEND
  5
2836
  8
0
  0
POLYLINE
  5
26B4
  8
0
 66
     1
 10
0.0
 20
0.0
 30
0.0
  0
VERTEX
  5
2837
  8
0
 10
83.9999999999854055
 20
95.7512886940795624
 30
0.0
  0
VERTEX
  5
2838
  8
0
 10
84.0852993642969153
 20
95.7639899967407757
 30
0.0
  0
VERTEX
  5
2839
  8
0
 10
84.1706052788597958
 20
95.7766264466831245
 30
0.0
  0
VERTEX
  5
283A
  8
0
 10
84.2559242939251334
 20
95.7891331911878439
 30
0.0
  0
VERTEX
  5
283B
  8
0
 10
84.3412629597443555
 20
95.801445377536055
 30
0.0
  0
VERTEX
  5
283C
  8
0
 10
84.4266278265686765
 20
95.813498153008922
 30
0.0
  0
VERTEX
  5
283D
  8
0
 10
84.5120254446142241
 20
95.8252266651527265
 30
0.0
  0
VERTEX
  5
283E
  8
0
 10
84.5974606335132648
 20
95.8365791110373948
 30
0.0
  0
VERTEX
  5
283F
  8
0
 10
84.6829318487735776
 20
95.8475516766197728
 30
0.0
  0
VERTEX
  5
2840
  8
0
 10
84.7684360833379174
 20
95.8581515763764855
 30
0.0
  0
VERTEX
  5
2841
  8
0
 10
84.8539703301488544
 20
95.8683860247841722
 30
0.0
  0
VERTEX
  5
2842
  8
0
 10
84.9395315821491863
 20
95.8782622363194861
 30
0.0
  0
VERTEX
  5
2843
  8
0
 10
85.0251168406724247
 20
95.8877874156882513
 30
0.0
  0
VERTEX
  5
2844
  8
0
 10
85.1107248821683839
 20
95.8969667005558648
 30
0.0
  0
VERTEX
  5
2845
  8
0
 10
85.1963584417692346
 20
95.9058006188861896
 30
0.0
  0
VERTEX
  5
2846
  8
0
 10
85.282020789958267
 20
95.9142890752516166
 30
0.0
  0
VERTEX
  5
2847
  8
0
 10
85.3677151972186721
 20
95.922431974224537
 30
0.0
  0
VERTEX
  5
2848
  8
0
 10
85.4534449340337119
 20
95.9302292203773419
 30
0.0
  0
VERTEX
  5
2849
  8
0
 10
85.5392131474528554
 20
95.9376803392534754
 30
0.0
  0
VERTEX
  5
284A
  8
0
 10
85.6250195069524693
 20
95.944774177771734
 30
0.0
  0
VERTEX
  5
284B
  8
0
 10
85.7108598076517438
 20
95.9514876858187904
 30
0.0
  0
VERTEX
  5
284C
  8
0
 10
85.7967296415891383
 20
95.9577971896786153
 30
0.0
  0
VERTEX
  5
284D
  8
0
 10
85.8826246008030125
 20
95.9636790156352788
 30
0.0
  0
VERTEX
  5
284E
  8
0
 10
85.9685402773318543
 20
95.9691094899727375
 30
0.0
  0
VERTEX
  5
284F
  8
0
 10
86.0544722632141088
 20
95.9740649389750757
 30
0.0
  0
VERTEX
  5
2850
  8
0
 10
86.1404161504881927
 20
95.9785216889262927
 30
0.0
  0
VERTEX
  5
2851
  8
0
 10
86.2263675311925653
 20
95.9824560661103874
 30
0.0
  0
VERTEX
  5
2852
  8
0
 10
86.3123222249194555
 20
95.9858491182213243
 30
0.0
  0
VERTEX
  5
2853
  8
0
 10
86.3982785108851203
 20
95.9887329265584697
 30
0.0
  0
VERTEX
  5
2854
  8
0
 10
86.4842361712177734
 20
95.9911707556518934
 30
0.0
  0
VERTEX
  5
2855
  8
0
 10
86.5701950095793791
 20
95.9932263168221169
 30
0.0
  0
VERTEX
  5
2856
  8
0
 10
86.6561548296317028
 20
95.994963321389676
 30
0.0
  0
VERTEX
  5
2857
  8
0
 10
86.7421154350366237
 20
95.9964454806750638
 30
0.0
  0
VERTEX
  5
2858
  8
0
 10
86.8280766294559498
 20
95.9977365059989154
 30
0.0
  0
VERTEX
  5
2859
  8
0
 10
86.914038216551603
 20
95.9989001086816529
 30
0.0
  0
VERTEX
  5
285A
  8
0
 10
86.9999999999853912
 20
96.0000000000438831
 30
0.0
  0
SEQEND
  5
285B
  8
0
  0
POLYLINE
  5
26B5
  8
0
 66
     1
 10
0.0
 20
0.0
 30
0.0
  0
VERTEX
  5
285C
  8
0
 10
86.9999999999853912
 20
91.0000000000438263
 30
0.0
  0
VERTEX
  5
285D
  8
0
 10
86.9266094990757097
 20
91.0004735414287325
 30
0.0
  0
VERTEX
  5
285E
  8
0
 10
86.8532200448650542
 20
91.0010265384172783
 30
0.0
  0
VERTEX
  5
285F
  8
0
 10
86.7798326840525647
 20
91.0017384466130466
 30
0.0
  0
VERTEX
  5
2860
  8
0
 10
86.706448463337324
 20
91.0026887216196769
 30
0.0
  0
VERTEX
  5
2861
  8
0
 10
86.6330684294183442
 20
91.0039568190407948
 30
0.0
  0
VERTEX
  5
2862
  8
0
 10
86.5596933375099269
 20
91.0056098894643952
 30
0.0
  0
VERTEX
  5
2863
  8
0
 10
86.486322360814583
 20
91.0076482989380793
 30
0.0
  0
VERTEX
  5
2864
  8
0
 10
86.4129541383563833
 20
91.0100498631911421
 30
0.0
  0
VERTEX
  5
2865
  8
0
 10
86.3395873087441146
 20
91.0127923804305112
 30
0.0
  0
VERTEX
  5
2866
  8
0
 10
86.2662205105867343
 20
91.0158536488630858
 30
0.0
  0
VERTEX
  5
2867
  8
0
 10
86.1928528351373302
 20
91.0192138307137384
 30
0.0
  0
VERTEX
  5
2868
  8
0
 10
86.1194864716818955
 20
91.0228692682602798
 30
0.0
  0
VERTEX
  5
2869
  8
0
 10
86.0461249068665097
 20
91.0268230794842026
 30
0.0
  0
VERTEX
  5
286A
  8
0
 10
85.9727716317384534
 20
91.0310784053528437
 30
0.0
  0
VERTEX
  5
286B
  8
0
 10
85.8994301373450071
 20
91.0356383868335541
 30
0.0
  0
VERTEX
  5
286C
  8
0
 10
85.826103789232036
 20
91.040505338576537
 30
0.0
  0
VERTEX
  5
286D
  8
0
 10
85.7527947590290154
 20
91.0456737143224757
 30
0.0
  0
VERTEX
  5
286E
  8
0
 10
85.6795045577302403
 20
91.0511336181017867
 30
0.0
  0
VERTEX
  5
286F
  8
0
 10
85.606234689341079
 20
91.0568751079280787
 30
0.0
  0
VERTEX
  5
2870
  8
0
 10
85.5329866578667861
 20
91.062888241815017
 30
0.0
  0
VERTEX
  5
2871
  8
0
 10
85.4597619292619441
 20
91.0691634699322492
 30
0.0
  0
VERTEX
  5
2872
  8
0
 10
85.3865612635093356
 20
91.0756985182803049
 30
0.0
  0
VERTEX
  5
2873
  8
0
 10
85.3133847975057051
 20
91.082497534459506
 30
0.0
  0
VERTEX
  5
2874
  8
0
 10
85.2402326467552456
 20
91.0895648865443661
 30
0.0
  0
VERTEX
  5
2875
  8
0
 10
85.1671049267623061
 20
91.0969049426093562
 30
0.0
  0
VERTEX
  5
2876
  8
0
 10
85.0940017530310229
 20
91.1045220707289616
 30
0.0
  0
VERTEX
  5
2877
  8
0
 10
85.0209232410655886
 20
91.1124206389776248
 30
0.0
  0
VERTEX
  5
2878
  8
0
 10
84.9478695063703952
 20
91.1206050154298595
 30
0.0
  0
VERTEX
  5
2879
  8
0
 10
84.8748406644495361
 20
91.1290795681601367
 30
0.0
  0
VERTEX
  5
287A
  8
0
 10
84.8018368308073036
 20
91.1378486652429132
 30
0.0
  0
VERTEX
  5
287B
  8
0
 10
84.7288580881864846
 20
91.1469162440937026
 30
0.0
  0
VERTEX
  5
287C
  8
0
 10
84.6559034253431264
 20
91.1562718613499072
 30
0.0
  0
VERTEX
  5
287D
  8
0
 10
84.5829705058754939
 20
91.165887654059361
 30
0.0
  0
VERTEX
  5
287E
  8
0
 10
84.5100569138530346
 20
91.1757347138383238
 30
0.0
  0
VERTEX
  5
287F
  8
0
 10
84.4371602333450681
 20
91.185784132303155
 30
0.0
  0
VERTEX
  5
2880
  8
0
 10
84.3642780484209567
 20
91.1960070010701429
 30
0.0
  0
VERTEX
  5
2881
  8
0
 10
84.2914079431499772
 20
91.2063744117555757
 30
0.0
  0
VERTEX
  5
2882
  8
0
 10
84.2185475016015488
 20
91.2168574559757701
 30
0.0
  0
VERTEX
  5
2883
  8
0
 10
84.1456943078451332
 20
91.2274272253470571
 30
0.0
  0
VERTEX
  5
2884
  8
0
 10
84.0728459459499646
 20
91.238054811485739
 30
0.0
  0
VERTEX
  5
2885
  8
0
 10
83.9999999999854055
 20
91.2487113060080901
 30
0.0
  0
SEQEND
  5
2886
  8
0
  0
POLYLINE
  5
26B6
  8
0
 66
     1
 10
0.0
 20
0.0
 30
0.0
  0
VERTEX
  5
2887
  8
0
 10
89.9999999999853912
 20
91.2487113060080901
 30
0.0
  0
VERTEX
  5
2888
  8
0
 10
89.9147144776665073
 20
91.2360100033468342
 30
0.0
  0
VERTEX
  5
2889
  8
0
 10
89.8294219100105238
 20
91.2233735534043859
 30
0.0
  0
VERTEX
  5
288A
  8
0
 10
89.7441152516802845
 20
91.2108668088996382
 30
0.0
  0
VERTEX
  5
288B
  8
0
 10
89.6587874573386898
 20
91.1985546225513559
 30
0.0
  0
VERTEX
  5
288C
  8
0
 10
89.5734314816485693
 20
91.1865018470784463
 30
0.0
  0
VERTEX
  5
288D
  8
0
 10
89.4880402793046841
 20
91.174773334934514
 30
0.0
  0
VERTEX
  5
288E
  8
0
 10
89.4026083754875458
 20
91.1634208890497746
 30
0.0
  0
VERTEX
  5
288F
  8
0
 10
89.3171360707499957
 20
91.1524483234672971
 30
0.0
  0
VERTEX
  5
2890
  8
0
 10
89.2316249929065748
 20
91.1418484237104991
 30
0.0
  0
VERTEX
  5
2891
  8
0
 10
89.146076769771696
 20
91.1316139753027983
 30
0.0
  0
VERTEX
  5
2892
  8
0
 10
89.0604930291600141
 20
91.1217377637674844
 30
0.0
  0
VERTEX
  5
2893
  8
0
 10
88.9748754016032564
 20
91.1122125843987334
 30
0.0
  0
VERTEX
  5
2894
  8
0
 10
88.8892260924771875
 20
91.1030332995312051
 30
0.0
  0
VERTEX
  5
2895
  8
0
 10
88.8035485891159055
 20
91.0941993812010082
 30
0.0
  0
VERTEX
  5
2896
  8
0
 10
88.717846552218532
 20
91.0857109248357375
 30
0.0
  0
VERTEX
  5
2897
  8
0
 10
88.6321236424843732
 20
91.0775680258629734
 30
0.0
  0
VERTEX
  5
2898
  8
0
 10
88.5463835206126078
 20
91.0697707797103106
 30
0.0
  0
VERTEX
  5
2899
  8
0
 10
88.4606297597876647
 20
91.0623196608343193
 30
0.0
  0
VERTEX
  5
289A
  8
0
 10
88.3748634675842339
 20
91.0552258223161886
 30
0.0
  0
VERTEX
  5
289B
  8
0
 10
88.2890830046468409
 20
91.0485123142692458
 30
0.0
  0
VERTEX
  5
289C
  8
0
 10
88.2032865876349064
 20
91.0422028104095205
 30
0.0
  0
VERTEX
  5
289D
  8
0
 10
88.1174724332079791
 20
91.0363209844529564
 30
0.0
  0
VERTEX
  5
289E
  8
0
 10
88.0316387580256219
 20
91.0308905101155403
 30
0.0
  0
VERTEX
  5
289F
  8
0
 10
87.945783778747284
 20
91.0259350611132447
 30
0.0
  0
VERTEX
  5
28A0
  8
0
 10
87.8599057120325142
 20
91.0214783111620278
 30
0.0
  0
VERTEX
  5
28A1
  8
0
 10
87.7740027745408611
 20
91.0175439339779473
 30
0.0
  0
VERTEX
  5
28A2
  8
0
 10
87.688073448537537
 20
91.0141508818669536
 30
0.0
  0
VERTEX
  5
28A3
  8
0
 10
87.6021190872136799
 20
91.0112670735297797
 30
0.0
  0
VERTEX
  5
28A4
  8
0
 10
87.5161427979917903
 20
91.008829244436285
 30
0.0
  0
VERTEX
  5
28A5
  8
0
 10
87.4301477134286955
 20
91.006773683266033
 30
0.0
  0
VERTEX
  5
28A6
  8
0
 10
87.344136966081237
 20
91.0050366786983886
 30
0.0
  0
VERTEX
  5
28A7
  8
0
 10
87.2581136885062847
 20
91.003554519412873
 30
0.0
  0
VERTEX
  5
28A8
  8
0
 10
87.1720810132607653
 20
91.002263494088993
 30
0.0
  0
VERTEX
  5
28A9
  8
0
 10
87.0860420729014777
 20
91.0010998914061418
 30
0.0
  0
VERTEX
  5
28AA
  8
0
 10
86.9999999999853912
 20
91.0000000000438263
 30
0.0
  0
SEQEND
  5
28AB
  8
0
  0
POLYLINE
  5
26B7
  8
0
 66
     1
 10
0.0
 20
0.0
 30
0.0
  0
VERTEX
  5
28AC
  8
0
 10
92.999999999985377
 20
96.0000000000438831
 30
0.0
  0
VERTEX
  5
28AD
  8
0
 10
93.0733905008949449
 20
95.9995264586589769
 30
0.0
  0
VERTEX
  5
28AE
  8
0
 10
93.1467799551055009
 20
95.9989734616704879
 30
0.0
  0
VERTEX
  5
28AF
  8
0
 10
93.2201673159178767
 20
95.9982615534747765
 30
0.0
  0
VERTEX
  5
28B0
  8
0
 10
93.2935515366330037
 20
95.9973112784681888
 30
0.0
  0
VERTEX
  5
28B1
  8
0
 10
93.3669315705517846
 20
95.9960431810471277
 30
0.0
  0
VERTEX
  5
28B2
  8
0
 10
93.4403066624601166
 20
95.9943901106236268
 30
0.0
  0
VERTEX
  5
28B3
  8
0
 10
93.5136776391552758
 20
95.9923517011500564
 30
0.0
  0
VERTEX
  5
28B4
  8
0
 10
93.5870458616133192
 20
95.9899501368970931
 30
0.0
  0
VERTEX
  5
28B5
  8
0
 10
93.6604126912254173
 20
95.9872076196578234
 30
0.0
  0
VERTEX
  5
28B6
  8
0
 10
93.7337794893825844
 20
95.9841463512253483
 30
0.0
  0
VERTEX
  5
28B7
  8
0
 10
93.8071471648318038
 20
95.9807861693747952
 30
0.0
  0
VERTEX
  5
28B8
  8
0
 10
93.8805135282871106
 20
95.9771307318283391
 30
0.0
  0
VERTEX
  5
28B9
  8
0
 10
93.9538750931023969
 20
95.9731769206044731
 30
0.0
  0
VERTEX
  5
28BA
  8
0
 10
94.0272283682304533
 20
95.9689215947358605
 30
0.0
  0
VERTEX
  5
28BB
  8
0
 10
94.1005698626240132
 20
95.9643616132550932
 30
0.0
  0
VERTEX
  5
28BC
  8
0
 10
94.1738962107371549
 20
95.959494661512025
 30
0.0
  0
VERTEX
  5
28BD
  8
0
 10
94.2472052409404455
 20
95.9543262857659442
 30
0.0
  0
VERTEX
  5
28BE
  8
0
 10
94.3204954422395758
 20
95.9488663819864342
 30
0.0
  0
VERTEX
  5
28BF
  8
0
 10
94.393765310629135
 20
95.9431248921599433
 30
0.0
  0
VERTEX
  5
28C0
  8
0
 10
94.467013342103769
 20
95.9371117582728061
 30
0.0
  0
VERTEX
  5
28C1
  8
0
 10
94.5402380707089947
 20
95.9308365301553749
 30
0.0
  0
VERTEX
  5
28C2
  8
0
 10
94.6134387364619442
 20
95.9243014818071487
 30
0.0
  0
VERTEX
  5
28C3
  8
0
 10
94.6866152024658163
 20
95.9175024656278055
 30
0.0
  0
VERTEX
  5
28C4
  8
0
 10
94.759767353216418
 20
95.9104351135428459
 30
0.0
  0
VERTEX
  5
28C5
  8
0
 10
94.8328950732096132
 20
95.9030950574777279
 30
0.0
  0
VERTEX
  5
28C6
  8
0
 10
94.905998246941067
 20
95.8954779293580941
 30
0.0
  0
VERTEX
  5
28C7
  8
0
 10
94.979076758906487
 20
95.8875793611093741
 30
0.0
  0
VERTEX
  5
28C8
  8
0
 10
95.0521304936017941
 20
95.8793949846570968
 30
0.0
  0
VERTEX
  5
28C9
  8
0
 10
95.1251593355226959
 20
95.8709204319268338
 30
0.0
  0
VERTEX
  5
28CA
  8
0
 10
95.1981631691648857
 20
95.8621513348440573
 30
0.0
  0
VERTEX
  5
28CB
  8
0
 10
95.271141911785719
 20
95.8530837559932962
 30
0.0
  0
VERTEX
  5
28CC
  8
0
 10
95.3440965746290203
 20
95.8437281387371343
 30
0.0
  0
VERTEX
  5
28CD
  8
0
 10
95.4170294940965249
 20
95.8341123460277657
 30
0.0
  0
VERTEX
  5
28CE
  8
0
 10
95.4899430861188989
 20
95.8242652862488455
 30
0.0
  0
VERTEX
  5
28CF
  8
0
 10
95.5628397666267801
 20
95.8142158677840712
 30
0.0
  0
VERTEX
  5
28D0
  8
0
 10
95.6357219515507353
 20
95.8039929990171686
 30
0.0
  0
VERTEX
  5
28D1
  8
0
 10
95.7085920568215442
 20
95.7936255883318069
 30
0.0
  0
VERTEX
  5
28D2
  8
0
 10
95.7814524983697311
 20
95.7831425441116835
 30
0.0
  0
VERTEX
  5
28D3
  8
0
 10
95.8543056921259904
 20
95.7725727747404534
 30
0.0
  0
VERTEX
  5
28D4
  8
0
 10
95.9271540540210168
 20
95.7619451886018567
 30
0.0
  0
VERTEX
  5
28D5
  8
0
 10
95.9999999999853344
 20
95.7512886940795624
 30
0.0
  0
SEQEND
  5
28D6
  8
0
  0
POLYLINE
  5
26B8
  8
0
 66
     1
 10
0.0
 20
0.0
 30
0.0
  0
VERTEX
  5
28D7
  8
0
 10
89.9999999999853912
 20
95.7512886940795624
 30
0.0
  0
VERTEX
  5
28D8
  8
0
 10
90.0852855223042752
 20
95.7639899967407899
 30
0.0
  0
VERTEX
  5
28D9
  8
0
 10
90.1705780899603724
 20
95.7766264466831814
 30
0.0
  0
VERTEX
  5
28DA
  8
0
 10
90.2558847482906685
 20
95.7891331911879149
 30
0.0
  0
VERTEX
  5
28DB
  8
0
 10
90.3412125426324337
 20
95.8014453775361261
 30
0.0
  0
VERTEX
  5
28DC
  8
0
 10
90.4265685183226537
 20
95.8134981530090073
 30
0.0
  0
VERTEX
  5
28DD
  8
0
 10
90.5119597206666953
 20
95.8252266651528117
 30
0.0
  0
VERTEX
  5
28DE
  8
0
 10
90.5973916244840325
 20
95.8365791110374943
 30
0.0
  0
VERTEX
  5
28DF
  8
0
 10
90.6828639292217531
 20
95.8475516766198581
 30
0.0
  0
VERTEX
  5
28E0
  8
0
 10
90.7683750070654014
 20
95.858151576376585
 30
0.0
  0
VERTEX
  5
28E1
  8
0
 10
90.8539232302003938
 20
95.8683860247842574
 30
0.0
  0
VERTEX
  5
28E2
  8
0
 10
90.9395069708121468
 20
95.8782622363195429
 30
0.0
  0
VERTEX
  5
28E3
  8
0
 10
91.0251245983689046
 20
95.8877874156883365
 30
0.0
  0
VERTEX
  5
28E4
  8
0
 10
91.1107739074948455
 20
95.8969667005559359
 30
0.0
  0
VERTEX
  5
28E5
  8
0
 10
91.196451410855957
 20
95.9058006188862322
 30
0.0
  0
VERTEX
  5
28E6
  8
0
 10
91.2821534477530463
 20
95.9142890752516166
 30
0.0
  0
VERTEX
  5
28E7
  8
0
 10
91.3678763574869208
 20
95.9224319742245086
 30
0.0
  0
VERTEX
  5
28E8
  8
0
 10
91.4536164793584163
 20
95.9302292203773135
 30
0.0
  0
VERTEX
  5
28E9
  8
0
 10
91.5393702401830183
 20
95.9376803392534327
 30
0.0
  0
VERTEX
  5
28EA
  8
0
 10
91.6251365323861933
 20
95.9447741777716772
 30
0.0
  0
VERTEX
  5
28EB
  8
0
 10
91.7109169953233732
 20
95.9514876858187051
 30
0.0
  0
VERTEX
  5
28EC
  8
0
 10
91.7967134123351229
 20
95.9577971896785158
 30
0.0
  0
VERTEX
  5
28ED
  8
0
 10
91.8825275667618939
 20
95.9636790156351651
 30
0.0
  0
VERTEX
  5
28EE
  8
0
 10
91.9683612419441943
 20
95.9691094899726238
 30
0.0
  0
VERTEX
  5
28EF
  8
0
 10
92.0542162212224184
 20
95.9740649389749336
 30
0.0
  0
VERTEX
  5
28F0
  8
0
 10
92.1400942879371456
 20
95.9785216889261505
 30
0.0
  0
VERTEX
  5
28F1
  8
0
 10
92.2259972254287845
 20
95.9824560661102311
 30
0.0
  0
VERTEX
  5
28F2
  8
0
 10
92.3119265514320659
 20
95.9858491182211822
 30
0.0
  0
VERTEX
  5
28F3
  8
0
 10
92.3978809127558947
 20
95.9887329265583276
 30
0.0
  0
VERTEX
  5
28F4
  8
0
 10
92.4838572019779122
 20
95.9911707556517513
 30
0.0
  0
VERTEX
  5
28F5
  8
0
 10
92.5698522865411633
 20
95.9932263168219748
 30
0.0
  0
VERTEX
  5
28F6
  8
0
 10
92.6558630338887497
 20
95.9949633213895339
 30
0.0
  0
VERTEX
  5
28F7
  8
0
 10
92.7418863114638157
 20
95.9964454806750069
 30
0.0
  0
VERTEX
  5
28F8
  8
0
 10
92.8279189867095482
 20
95.9977365059988443
 30
0.0
  0
VERTEX
  5
28F9
  8
0
 10
92.9139579270690206
 20
95.9989001086816245
 30
0.0
  0
VERTEX
  5
28FA
  8
0
 10
92.9999999999853344
 20
96.0000000000438831
 30
0.0
  0
SEQEND
  5
28FB
  8
0
  0
POLYLINE
  5
26B9
  8
0
 66
     1
 10
0.0
 20
0.0
 30
0.0
  0
VERTEX
  5
28FC
  8
0
 10
92.999999999985377
 20
91.0000000000438263
 30
0.0
  0
VERTEX
  5
28FD
  8
0
 10
92.9265628510057553
 20
91.0004735414286756
 30
0.0
  0
VERTEX
  5
28FE
  8
0
 10
92.8531267399158651
 20
91.0010265384171362
 30
0.0
  0
VERTEX
  5
28FF
  8
0
 10
92.7796927046052247
 20
91.001738446612876
 30
0.0
  0
VERTEX
  5
2900
  8
0
 10
92.7062617829635656
 20
91.0026887216194638
 30
0.0
  0
VERTEX
  5
2901
  8
0
 10
92.6328350128805482
 20
91.0039568190405248
 30
0.0
  0
VERTEX
  5
2902
  8
0
 10
92.5594137111914392
 20
91.0056098894640684
 30
0.0
  0
VERTEX
  5
2903
  8
0
 10
92.4860007086884934
 20
91.007648298937653
 30
0.0
  0
VERTEX
  5
2904
  8
0
 10
92.4125993473630842
 20
91.0100498631906589
 30
0.0
  0
VERTEX
  5
2905
  8
0
 10
92.33921296960375
 20
91.0127923804299428
 30
0.0
  0
VERTEX
  5
2906
  8
0
 10
92.265844917799086
 20
91.0158536488624321
 30
0.0
  0
VERTEX
  5
2907
  8
0
 10
92.1924980836243861
 20
91.0192138307130278
 30
0.0
  0
VERTEX
  5
2908
  8
0
 10
92.1191722739359733
 20
91.0228692682594982
 30
0.0
  0
VERTEX
  5
2909
  8
0
 10
92.0458660037641607
 20
91.0268230794833642
 30
0.0
  0
VERTEX
  5
290A
  8
0
 10
91.9725777837566625
 20
91.0310784053520052
 30
0.0
  0
VERTEX
  5
290B
  8
0
 10
91.899306124561349
 20
91.0356383868327583
 30
0.0
  0
VERTEX
  5
290C
  8
0
 10
91.826049531434137
 20
91.0405053385757839
 30
0.0
  0
VERTEX
  5
290D
  8
0
 10
91.7528064583368064
 20
91.0456737143218504
 30
0.0
  0
VERTEX
  5
290E
  8
0
 10
91.6795753308482517
 20
91.0511336181013036
 30
0.0
  0
VERTEX
  5
290F
  8
0
 10
91.6063545742471632
 20
91.0568751079277945
 30
0.0
  0
VERTEX
  5
2910
  8
0
 10
91.5331426138123447
 20
91.0628882418148748
 30
0.0
  0
VERTEX
  5
2911
  8
0
 10
91.4599379921642139
 20
91.0691634699322776
 30
0.0
  0
VERTEX
  5
2912
  8
0
 10
91.386741429015828
 20
91.0756985182804613
 30
0.0
  0
VERTEX
  5
2913
  8
0
 10
91.3135555655674125
 20
91.0824975344598045
 30
0.0
  0
VERTEX
  5
2914
  8
0
 10
91.2403831089899882
 20
91.089564886544764
 30
0.0
  0
VERTEX
  5
2915
  8
0
 10
91.167226766454462
 20
91.0969049426098252
 30
0.0
  0
VERTEX
  5
2916
  8
0
 10
91.0940892451318831
 20
91.1045220707294732
 30
0.0
  0
VERTEX
  5
2917
  8
0
 10
91.0209732521933574
 20
91.1124206389781648
 30
0.0
  0
VERTEX
  5
2918
  8
0
 10
90.947881494809792
 20
91.1206050154304279
 30
0.0
  0
VERTEX
  5
2919
  8
0
 10
90.8748166801521933
 20
91.1290795681607051
 30
0.0
  0
VERTEX
  5
291A
  8
0
 10
90.8017815153916672
 20
91.1378486652434816
 30
0.0
  0
VERTEX
  5
291B
  8
0
 10
90.7287786305741406
 20
91.1469162440942426
 30
0.0
  0
VERTEX
  5
291C
  8
0
 10
90.6558080803475264
 20
91.156271861350433
 30
0.0
  0
VERTEX
  5
291D
  8
0
 10
90.5828667997528214
 20
91.1658876540598442
 30
0.0
  0
VERTEX
  5
291E
  8
0
 10
90.509951536608753
 20
91.1757347138387644
 30
0.0
  0
VERTEX
  5
291F
  8
0
 10
90.4370590387339348
 20
91.1857841323035387
 30
0.0
  0
VERTEX
  5
2920
  8
0
 10
90.3641860539470372
 20
91.1960070010704555
 30
0.0
  0
VERTEX
  5
2921
  8
0
 10
90.2913293300667306
 20
91.2063744117558315
 30
0.0
  0
VERTEX
  5
2922
  8
0
 10
90.2184856149117991
 20
91.2168574559759833
 30
0.0
  0
VERTEX
  5
2923
  8
0
 10
90.1456516563007426
 20
91.2274272253471992
 30
0.0
  0
VERTEX
  5
2924
  8
0
 10
90.0728242020524164
 20
91.2380548114857959
 30
0.0
  0
VERTEX
  5
2925
  8
0
 10
89.9999999999853912
 20
91.2487113060080901
 30
0.0
  0
SEQEND
  5
2926
  8
0
  0
POLYLINE
  5
26BA
  8
0
 66
     1
 10
0.0
 20
0.0
 30
0.0
  0
VERTEX
  5
2927
  8
0
 10
95.9999999999852776
 20
91.2487113060080901
 30
0.0
  0
VERTEX
  5
2928
  8
0
 10
95.9147006356737393
 20
91.2360100033468484
 30
0.0
  0
VERTEX
  5
2929
  8
0
 10
95.829394721110873
 20
91.223373553404457
 30
0.0
  0
VERTEX
  5
292A
  8
0
 10
95.7440757060453933
 20
91.2108668088997092
 30
0.0
  0
VERTEX
  5
292B
  8
0
 10
95.6587370402261143
 20
91.1985546225514554
 30
0.0
  0
VERTEX
  5
292C
  8
0
 10
95.5733721734017649
 20
91.1865018470785031
 30
0.0
  0
VERTEX
  5
292D
  8
0
 10
95.4879745553561037
 20
91.1747733349346561
 30
0.0
  0
VERTEX
  5
292E
  8
0
 10
95.4025393664570061
 20
91.1634208890499309
 30
0.0
  0
VERTEX
  5
292F
  8
0
 10
95.3170681511965654
 20
91.152448323467496
 30
0.0
  0
VERTEX
  5
2930
  8
0
 10
95.2315639166321262
 20
91.1418484237107407
 30
0.0
  0
VERTEX
  5
2931
  8
0
 10
95.1460296698210755
 20
91.1316139753030257
 30
0.0
  0
VERTEX
  5
2932
  8
0
 10
95.0604684178207435
 20
91.1217377637677544
 30
0.0
  0
VERTEX
  5
2933
  8
0
 10
94.9748831592976188
 20
91.112212584398975
 30
0.0
  0
VERTEX
  5
2934
  8
0
 10
94.8892751178017448
 20
91.1030332995314183
 30
0.0
  0
VERTEX
  5
2935
  8
0
 10
94.8036415582009653
 20
91.0941993812011646
 30
0.0
  0
VERTEX
  5
2936
  8
0
 10
94.7179792100121034
 20
91.0857109248358654
 30
0.0
  0
VERTEX
  5
2937
  8
0
 10
94.632284802751883
 20
91.0775680258630445
 30
0.0
  0
VERTEX
  5
2938
  8
0
 10
94.5465550659370848
 20
91.0697707797103249
 30
0.0
  0
VERTEX
  5
2939
  8
0
 10
94.4607868525179555
 20
91.0623196608342766
 30
0.0
  0
VERTEX
  5
293A
  8
0
 10
94.3749804930184837
 20
91.0552258223160891
 30
0.0
  0
VERTEX
  5
293B
  8
0
 10
94.2891401923193939
 20
91.0485123142691037
 30
0.0
  0
VERTEX
  5
293C
  8
0
 10
94.2032703583820989
 20
91.0422028104093641
 30
0.0
  0
VERTEX
  5
293D
  8
0
 10
94.1173753991683242
 20
91.0363209844527432
 30
0.0
  0
VERTEX
  5
293E
  8
0
 10
94.0314597226395108
 20
91.030890510115313
 30
0.0
  0
VERTEX
  5
293F
  8
0
 10
93.945527736757299
 20
91.0259350611129889
 30
0.0
  0
VERTEX
  5
2940
  8
0
 10
93.8595838494832719
 20
91.0214783111617862
 30
0.0
  0
VERTEX
  5
2941
  8
0
 10
93.7736324687788851
 20
91.0175439339776915
 30
0.0
  0
VERTEX
  5
2942
  8
0
 10
93.6876777750520091
 20
91.0141508818667262
 30
0.0
  0
VERTEX
  5
2943
  8
0
 10
93.6017214890862874
 20
91.0112670735295524
 30
0.0
  0
VERTEX
  5
2944
  8
0
 10
93.5157638287535491
 20
91.0088292444361002
 30
0.0
  0
VERTEX
  5
2945
  8
0
 10
93.429804990391915
 20
91.0067736832658341
 30
0.0
  0
VERTEX
  5
2946
  8
0
 10
93.3438451703394776
 20
91.0050366786982465
 30
0.0
  0
VERTEX
  5
2947
  8
0
 10
93.2578845649344998
 20
91.0035545194127735
 30
0.0
  0
VERTEX
  5
2948
  8
0
 10
93.1719233705150742
 20
91.0022634940888935
 30
0.0
  0
VERTEX
  5
2949
  8
0
 10
93.0859617834192932
 20
91.0010998914060991
 30
0.0
  0
VERTEX
  5
294A
  8
0
 10
92.999999999985377
 20
91.0000000000438263
 30
0.0
  0
SEQEND
  5
294B
  8
0
  0
POLYLINE
  5
26BB
  8
0
 66
     1
 10
0.0
 20
0.0
 30
0.0
  0
VERTEX
  5
294C
  8
0
 10
44.8038475772891474
 20
52.9999999999753015
 30
0.0
  0
VERTEX
  5
294D
  8
0
 10
44.7615024841088029
 20
52.9265628509957082
 30
0.0
  0
VERTEX
  5
294E
  8
0
 10
44.7191580003265585
 20
52.8531267399057825
 30
0.0
  0
VERTEX
  5
294F
  8
0
 10
44.6768147353405425
 20
52.7796927045951421
 30
0.0
  0
VERTEX
  5
2950
  8
0
 10
44.6344732985488619
 20
52.7062617829534972
 30
0.0
  0
VERTEX
  5
2951
  8
0
 10
44.5921342993497092
 20
52.6328350128704514
 30
0.0
  0
VERTEX
  5
2952
  8
0
 10
44.5497978495140501
 20
52.5594137111813993
 30
0.0
  0
VERTEX
  5
2953
  8
0
 10
44.5074613599797999
 20
52.4860007086784677
 30
0.0
  0
VERTEX
  5
2954
  8
0
 10
44.4651213297276513
 20
52.4125993473530301
 30
0.0
  0
VERTEX
  5
2955
  8
0
 10
44.42277425702963
 20
52.339212969593703
 30
0.0
  0
VERTEX
  5
2956
  8
0
 10
44.3804166401576481
 20
52.2658449177890603
 30
0.0
  0
VERTEX
  5
2957
  8
0
 10
44.3380457602716476
 20
52.1924980836143035
 30
0.0
  0
VERTEX
  5
2958
  8
0
 10
44.2956642568530015
 20
52.1191722739258907
 30
0.0
  0
VERTEX
  5
2959
  8
0
 10
44.2532770132814335
 20
52.0458660037540497
 30
0.0
  0
VERTEX
  5
295A
  8
0
 10
44.210888920548939
 20
51.9725777837465728
 30
0.0
  0
VERTEX
  5
295B
  8
0
 10
44.1685048696474993
 20
51.8993061245512735
 30
0.0
  0
VERTEX
  5
295C
  8
0
 10
44.1261296097658189
 20
51.8260495314240686
 30
0.0
  0
VERTEX
  5
295D
  8
0
 10
44.0837665410910517
 20
51.7528064583267167
 30
0.0
  0
VERTEX
  5
295E
  8
0
 10
44.0414183173616607
 20
51.6795753308381833
 30
0.0
  0
VERTEX
  5
295F
  8
0
 10
43.9990875844192075
 20
51.6063545742371304
 30
0.0
  0
VERTEX
  5
2960
  8
0
 10
43.9567769881052186
 20
51.5331426138022479
 30
0.0
  0
VERTEX
  5
2961
  8
0
 10
43.9144890625767133
 20
51.4599379921541669
 30
0.0
  0
VERTEX
  5
2962
  8
0
 10
43.8722242698595934
 20
51.3867414290058093
 30
0.0
  0
VERTEX
  5
2963
  8
0
 10
43.8299812431310372
 20
51.3135555655573867
 30
0.0
  0
VERTEX
  5
2964
  8
0
 10
43.7877585527779729
 20
51.2403831089799127
 30
0.0
  0
VERTEX
  5
2965
  8
0
 10
43.7455547691872582
 20
51.1672267664443865
 30
0.0
  0
VERTEX
  5
2966
  8
0
 10
43.7033684627458001
 20
51.0940892451218431
 30
0.0
  0
VERTEX
  5
2967
  8
0
 10
43.6611982038404491
 20
51.0209732521832819
 30
0.0
  0
VERTEX
  5
2968
  8
0
 10
43.6190425628581693
 20
50.9478814947997094
 30
0.0
  0
VERTEX
  5
2969
  8
0
 10
43.5769001101856972
 20
50.8748166801421604
 30
0.0
  0
VERTEX
  5
296A
  8
0
 10
43.5347694162101106
 20
50.8017815153816272
 30
0.0
  0
VERTEX
  5
296B
  8
0
 10
43.4926490580166316
 20
50.7287786305640722
 30
0.0
  0
VERTEX
  5
296C
  8
0
 10
43.4505378363704082
 20
50.6558080803374722
 30
0.0
  0
VERTEX
  5
296D
  8
0
 10
43.4084348229820804
 20
50.5828667997427672
 30
0.0
  0
VERTEX
  5
296E
  8
0
 10
43.3663391058229308
 20
50.5099515365986775
 30
0.0
  0
VERTEX
  5
296F
  8
0
 10
43.324249772864377
 20
50.4370590387238522
 30
0.0
  0
VERTEX
  5
2970
  8
0
 10
43.2821659120777369
 20
50.3641860539369617
 30
0.0
  0
VERTEX
  5
2971
  8
0
 10
43.2400866114343216
 20
50.2913293300566906
 30
0.0
  0
VERTEX
  5
2972
  8
0
 10
43.198010958905563
 20
50.2184856149017094
 30
0.0
  0
VERTEX
  5
2973
  8
0
 10
43.1559380424627079
 20
50.1456516562907026
 30
0.0
  0
VERTEX
  5
2974
  8
0
 10
43.1138669500771812
 20
50.0728242020423409
 30
0.0
  0
VERTEX
  5
2975
  8
0
 10
43.0717967697203221
 20
49.9999999999753015
 30
0.0
  0
SEQEND
  5
2976
  8
0
  0
POLYLINE
  5
26BC
  8
0
 66
     1
 10
0.0
 20
0.0
 30
0.0
  0
VERTEX
  5
2977
  8
0
 10
43.0717967697203221
 20
49.9999999999753015
 30
0.0
  0
VERTEX
  5
2978
  8
0
 10
43.1210523723456092
 20
49.9147144776564389
 30
0.0
  0
VERTEX
  5
2979
  8
0
 10
43.170311470922293
 20
49.8294219100004625
 30
0.0
  0
VERTEX
  5
297A
  8
0
 10
43.2195775614017634
 20
49.7441152516702303
 30
0.0
  0
VERTEX
  5
297B
  8
0
 10
43.2688541397354172
 20
49.6587874573286214
 30
0.0
  0
VERTEX
  5
297C
  8
0
 10
43.3181447018746368
 20
49.5734314816384867
 30
0.0
  0
VERTEX
  5
297D
  8
0
 10
43.367452743748693
 20
49.488040279294637
 30
0.0
  0
VERTEX
  5
297E
  8
0
 10
43.4167806697009198
 20
49.4026083754774987
 30
0.0
  0
VERTEX
  5
297F
  8
0
 10
43.4661268698296723
 20
49.3171360707399415
 30
0.0
  0
VERTEX
  5
2980
  8
0
 10
43.5154888117033281
 20
49.2316249928964922
 30
0.0
  0
VERTEX
  5
2981
  8
0
 10
43.5648639628903993
 20
49.146076769761649
 30
0.0
  0
VERTEX
  5
2982
  8
0
 10
43.6142497909592066
 20
49.0604930291499599
 30
0.0
  0
VERTEX
  5
2983
  8
0
 10
43.6636437747359309
 20
48.9748754015931667
 30
0.0
  0
VERTEX
  5
2984
  8
0
 10
43.7130457746609267
 20
48.889226092467112
 30
0.0
  0
VERTEX
  5
2985
  8
0
 10
43.7624609624060099
 20
48.8035485891058229
 30
0.0
  0
VERTEX
  5
2986
  8
0
 10
43.8118952279056089
 20
48.717846552208492
 30
0.0
  0
VERTEX
  5
2987
  8
0
 10
43.8613544610942725
 20
48.6321236424743191
 30
0.0
  0
VERTEX
  5
2988
  8
0
 10
43.9108445519062798
 20
48.5463835206025607
 30
0.0
  0
VERTEX
  5
2989
  8
0
 10
43.9603711972206384
 20
48.4606297597776177
 30
0.0
  0
VERTEX
  5
298A
  8
0
 10
44.0099346548398671
 20
48.3748634675742224
 30
0.0
  0
VERTEX
  5
298B
  8
0
 10
44.0595291229035908
 20
48.2890830046367867
 30
0.0
  0
VERTEX
  5
298C
  8
0
 10
44.1091484819240733
 20
48.2032865876248593
 30
0.0
  0
VERTEX
  5
298D
  8
0
 10
44.1587866124135573
 20
48.1174724331979391
 30
0.0
  0
VERTEX
  5
298E
  8
0
 10
44.2084373948844629
 20
48.0316387580155535
 30
0.0
  0
VERTEX
  5
298F
  8
0
 10
44.2580947098489901
 20
47.9457837787372227
 30
0.0
  0
VERTEX
  5
2990
  8
0
 10
44.3077524378194809
 20
47.85990571202246
 30
0.0
  0
VERTEX
  5
2991
  8
0
 10
44.3574044593082704
 20
47.7740027745307927
 30
0.0
  0
VERTEX
  5
2992
  8
0
 10
44.4070450709317015
 20
47.6880734485274687
 30
0.0
  0
VERTEX
  5
2993
  8
0
 10
44.456673066965088
 20
47.602119087203647
 30
0.0
  0
VERTEX
  5
2994
  8
0
 10
44.5062899899030526
 20
47.5161427979817503
 30
0.0
  0
VERTEX
  5
2995
  8
0
 10
44.5558974216162298
 20
47.4301477134186413
 30
0.0
  0
VERTEX
  5
2996
  8
0
 10
44.6054969439755311
 20
47.3441369660711828
 30
0.0
  0
VERTEX
  5
2997
  8
0
 10
44.6550901388517332
 20
47.2581136884962518
 30
0.0
  0
VERTEX
  5
2998
  8
0
 10
44.7046785881155415
 20
47.1720810132507111
 30
0.0
  0
VERTEX
  5
2999
  8
0
 10
44.7542638736377398
 20
47.0860420728914377
 30
0.0
  0
VERTEX
  5
299A
  8
0
 10
44.8038475772891474
 20
46.9999999999753015
 30
0.0
  0
SEQEND
  5
299B
  8
0
  0
POLYLINE
  5
26BD
  8
0
 66
     1
 10
0.0
 20
0.0
 30
0.0
  0
VERTEX
  5
299C
  8
0
 10
55.1961524227023688
 20
46.9999999999753015
 30
0.0
  0
VERTEX
  5
299D
  8
0
 10
55.2384975158827771
 20
47.0734371489548877
 30
0.0
  0
VERTEX
  5
299E
  8
0
 10
55.2808419996650784
 20
47.1468732600448206
 30
0.0
  0
VERTEX
  5
299F
  8
0
 10
55.3231852646511015
 20
47.2203072953554468
 30
0.0
  0
VERTEX
  5
29A0
  8
0
 10
55.3655267014427821
 20
47.2937382169970988
 30
0.0
  0
VERTEX
  5
29A1
  8
0
 10
55.4078657006419917
 20
47.3671649870801375
 30
0.0
  0
VERTEX
  5
29A2
  8
0
 10
55.4502021504776508
 20
47.4405862887691967
 30
0.0
  0
VERTEX
  5
29A3
  8
0
 10
55.492538640011901
 20
47.5139992912721212
 30
0.0
  0
VERTEX
  5
29A4
  8
0
 10
55.5348786702640425
 20
47.587400652597573
 30
0.0
  0
VERTEX
  5
29A5
  8
0
 10
55.5772257429620709
 20
47.6607870303569001
 30
0.0
  0
VERTEX
  5
29A6
  8
0
 10
55.6195833598340528
 20
47.7341550821615286
 30
0.0
  0
VERTEX
  5
29A7
  8
0
 10
55.6619542397199893
 20
47.8075019163362924
 30
0.0
  0
VERTEX
  5
29A8
  8
0
 10
55.7043357431386426
 20
47.8808277260246911
 30
0.0
  0
VERTEX
  5
29A9
  8
0
 10
55.7467229867102105
 20
47.9541339961965321
 30
0.0
  0
VERTEX
  5
29AA
  8
0
 10
55.789111079442641
 20
48.0274222162040232
 30
0.0
  0
VERTEX
  5
29AB
  8
0
 10
55.8314951303440807
 20
48.1006938753993225
 30
0.0
  0
VERTEX
  5
29AC
  8
0
 10
55.8738703902256972
 20
48.1739504685265203
 30
0.0
  0
VERTEX
  5
29AD
  8
0
 10
55.9162334589004786
 20
48.247193541623858
 30
0.0
  0
VERTEX
  5
29AE
  8
0
 10
55.9585816826298696
 20
48.3204246691123984
 30
0.0
  0
VERTEX
  5
29AF
  8
0
 10
56.0009124155723086
 20
48.3936454257134514
 30
0.0
  0
VERTEX
  5
29B0
  8
0
 10
56.0432230118862478
 20
48.4668573861483409
 30
0.0
  0
VERTEX
  5
29B1
  8
0
 10
56.0855109374148171
 20
48.540062007796422
 30
0.0
  0
VERTEX
  5
29B2
  8
0
 10
56.1277757301319298
 20
48.6132585709447724
 30
0.0
  0
VERTEX
  5
29B3
  8
0
 10
56.1700187568604932
 20
48.6864444343932021
 30
0.0
  0
VERTEX
  5
29B4
  8
0
 10
56.2122414472135574
 20
48.7596168909706691
 30
0.0
  0
VERTEX
  5
29B5
  8
0
 10
56.254445230804258
 20
48.8327732335061881
 30
0.0
  0
VERTEX
  5
29B6
  8
0
 10
56.2966315372457302
 20
48.9059107548287386
 30
0.0
  0
VERTEX
  5
29B7
  8
0
 10
56.3388017961510812
 20
48.9790267477672998
 30
0.0
  0
VERTEX
  5
29B8
  8
0
 10
56.3809574371334179
 20
49.0521185051508724
 30
0.0
  0
VERTEX
  5
29B9
  8
0
 10
56.4230998898058189
 20
49.1251833198084427
 30
0.0
  0
VERTEX
  5
29BA
  8
0
 10
56.4652305837814197
 20
49.1982184845689687
 30
0.0
  0
VERTEX
  5
29BB
  8
0
 10
56.5073509419748916
 20
49.2712213693865309
 30
0.0
  0
VERTEX
  5
29BC
  8
0
 10
56.5494621636211221
 20
49.344191919613138
 30
0.0
  0
VERTEX
  5
29BD
  8
0
 10
56.5915651770094428
 20
49.4171332002078287
 30
0.0
  0
VERTEX
  5
29BE
  8
0
 10
56.6336608941685995
 20
49.4900484633519326
 30
0.0
  0
VERTEX
  5
29BF
  8
0
 10
56.6757502271271392
 20
49.562940961226758
 30
0.0
  0
VERTEX
  5
29C0
  8
0
 10
56.7178340879137792
 20
49.6358139460136627
 30
0.0
  0
VERTEX
  5
29C1
  8
0
 10
56.7599133885572087
 20
49.7086706698939196
 30
0.0
  0
VERTEX
  5
29C2
  8
0
 10
56.8019890410860171
 20
49.7815143850489079
 30
0.0
  0
VERTEX
  5
29C3
  8
0
 10
56.8440619575288224
 20
49.8543483436599075
 30
0.0
  0
VERTEX
  5
29C4
  8
0
 10
56.8861330499144131
 20
49.9271757979082693
 30
0.0
  0
VERTEX
  5
29C5
  8
0
 10
56.9282032302712722
 20
49.9999999999753015
 30
0.0
  0
SEQEND
  5
29C6
  8
0
  0
POLYLINE
  5
26BE
  8
0
 66
     1
 10
0.0
 20
0.0
 30
0.0
  0
VERTEX
  5
29C7
  8
0
 10
56.9282032302713219
 20
49.9999999999753015
 30
0.0
  0
VERTEX
  5
29C8
  8
0
 10
56.8789476276460775
 20
50.0852855222941713
 30
0.0
  0
VERTEX
  5
29C9
  8
0
 10
56.829688529069422
 20
50.1705780899501832
 30
0.0
  0
VERTEX
  5
29CA
  8
0
 10
56.7804224385900014
 20
50.255884748280458
 30
0.0
  0
VERTEX
  5
29CB
  8
0
 10
56.7311458602563903
 20
50.3412125426221166
 30
0.0
  0
VERTEX
  5
29CC
  8
0
 10
56.6818552981172203
 20
50.4265685183123082
 30
0.0
  0
VERTEX
  5
29CD
  8
0
 10
56.632547256243349
 20
50.511959720656229
 30
0.0
  0
VERTEX
  5
29CE
  8
0
 10
56.5832193302912287
 20
50.5973916244734525
 30
0.0
  0
VERTEX
  5
29CF
  8
0
 10
56.5338731301625899
 20
50.6828639292110879
 30
0.0
  0
VERTEX
  5
29D0
  8
0
 10
56.4845111882890478
 20
50.7683750070546225
 30
0.0
  0
VERTEX
  5
29D1
  8
0
 10
56.4351360371020974
 20
50.8539232301895083
 30
0.0
  0
VERTEX
  5
29D2
  8
0
 10
56.3857502090333469
 20
50.93950697080124
 30
0.0
  0
VERTEX
  5
29D3
  8
0
 10
56.3363562252565586
 20
51.0251245983580191
 30
0.0
  0
VERTEX
  5
29D4
  8
0
 10
56.2869542253314989
 20
51.1107739074840168
 30
0.0
  0
VERTEX
  5
29D5
  8
0
 10
56.2375390375862523
 20
51.1964514108452278
 30
0.0
  0
VERTEX
  5
29D6
  8
0
 10
56.1881047720864899
 20
51.2821534477424592
 30
0.0
  0
VERTEX
  5
29D7
  8
0
 10
56.1386455388976628
 20
51.3678763574764901
 30
0.0
  0
VERTEX
  5
29D8
  8
0
 10
56.0891554480854211
 20
51.4536164793481277
 30
0.0
  0
VERTEX
  5
29D9
  8
0
 10
56.039628802770892
 20
51.539370240172957
 30
0.0
  0
VERTEX
  5
29DA
  8
0
 10
55.9900653451514927
 20
51.6251365323762599
 30
0.0
  0
VERTEX
  5
29DB
  8
0
 10
55.9404708770875914
 20
51.710916995313589
 30
0.0
  0
VERTEX
  5
29DC
  8
0
 10
55.890851518066988
 20
51.7967134123254525
 30
0.0
  0
VERTEX
  5
29DD
  8
0
 10
55.8412133875773904
 20
51.8825275667523016
 30
0.0
  0
VERTEX
  5
29DE
  8
0
 10
55.791562605106428
 20
51.9683612419346304
 30
0.0
  0
VERTEX
  5
29DF
  8
0
 10
55.741905290141851
 20
52.0542162212129327
 30
0.0
  0
VERTEX
  5
29E0
  8
0
 10
55.6922475621713033
 20
52.140094287927667
 30
0.0
  0
VERTEX
  5
29E1
  8
0
 10
55.6425955406825707
 20
52.2259972254193201
 30
0.0
  0
VERTEX
  5
29E2
  8
0
 10
55.5929549290591396
 20
52.3119265514226512
 30
0.0
  0
VERTEX
  5
29E3
  8
0
 10
55.5433269330258099
 20
52.3978809127464871
 30
0.0
  0
VERTEX
  5
29E4
  8
0
 10
55.4937100100879732
 20
52.4838572019684193
 30
0.0
  0
VERTEX
  5
29E5
  8
0
 10
55.4441025783748316
 20
52.5698522865315709
 30
0.0
  0
VERTEX
  5
29E6
  8
0
 10
55.3945030560156511
 20
52.6558630338790934
 30
0.0
  0
VERTEX
  5
29E7
  8
0
 10
55.3449098611395698
 20
52.7418863114540883
 30
0.0
  0
VERTEX
  5
29E8
  8
0
 10
55.295321411875868
 20
52.8279189866997001
 30
0.0
  0
VERTEX
  5
29E9
  8
0
 10
55.2457361263537265
 20
52.9139579270590588
 30
0.0
  0
VERTEX
  5
29EA
  8
0
 10
55.1961524227023688
 20
52.9999999999753015
 30
0.0
  0
SEQEND
  5
29EB
  8
0
  0
POLYLINE
  5
26BF
  8
0
 66
     1
 10
0.0
 20
0.0
 30
0.0
  0
VERTEX
  5
29EC
  8
0
 10
46.5358983848581076
 20
43.9999999999753015
 30
0.0
  0
VERTEX
  5
29ED
  8
0
 10
46.6343853158487534
 20
44.0000142555467235
 30
0.0
  0
VERTEX
  5
29EE
  8
0
 10
46.7328801287943634
 20
44.0000280638439492
 30
0.0
  0
VERTEX
  5
29EF
  8
0
 10
46.8313907056497101
 20
44.0000409775927821
 30
0.0
  0
VERTEX
  5
29F0
  8
0
 10
46.9299249283698074
 20
44.0000525495190118
 30
0.0
  0
VERTEX
  5
29F1
  8
0
 10
47.0284906789094634
 20
44.0000623323484419
 30
0.0
  0
VERTEX
  5
29F2
  8
0
 10
47.1270958389604928
 20
44.0000698787815807
 30
0.0
  0
VERTEX
  5
29F3
  8
0
 10
47.2257462353494972
 20
44.0000745439829828
 30
0.0
  0
VERTEX
  5
29F4
  8
0
 10
47.3244406818683885
 20
44.0000750089480803
 30
0.0
  0
VERTEX
  5
29F5
  8
0
 10
47.4231764974814425
 20
44.0000698109732582
 30
0.0
  0
VERTEX
  5
29F6
  8
0
 10
47.5219510011528428
 20
44.0000574873548729
 30
0.0
  0
VERTEX
  5
29F7
  8
0
 10
47.6207615118468581
 20
44.0000365753893092
 30
0.0
  0
VERTEX
  5
29F8
  8
0
 10
47.719605354904381
 20
44.0000056340473265
 30
0.0
  0
VERTEX
  5
29F9
  8
0
 10
47.818480631920643
 20
43.9999658608082527
 30
0.0
  0
VERTEX
  5
29FA
  8
0
 10
47.9173869546156013
 20
43.9999235861042806
 30
0.0
  0
VERTEX
  5
29FB
  8
0
 10
48.0163241085656907
 20
43.9998857313099876
 30
0.0
  0
VERTEX
  5
29FC
  8
0
 10
48.1152918793472324
 20
43.9998592177999086
 30
0.0
  0
VERTEX
  5
29FD
  8
0
 10
48.2142900525366827
 20
43.9998509669485998
 30
0.0
  0
VERTEX
  5
29FE
  8
0
 10
48.3133183811174831
 20
43.999867572712887
 30
0.0
  0
VERTEX
  5
29FF
  8
0
 10
48.412375970162941
 20
43.9999091203487893
 30
0.0
  0
VERTEX
  5
2A00
  8
0
 10
48.5114613287676733
 20
43.9999697081007781
 30
0.0
  0
VERTEX
  5
2A01
  8
0
 10
48.6105729438425627
 20
44.00004321136187
 30
0.0
  0
VERTEX
  5
2A02
  8
0
 10
48.7097093022983927
 20
44.0001235055250604
 30
0.0
  0
VERTEX
  5
2A03
  8
0
 10
48.8088688910461315
 20
44.0002044659833302
 30
0.0
  0
VERTEX
  5
2A04
  8
0
 10
48.9080501969964985
 20
44.0002799681296821
 30
0.0
  0
VERTEX
  5
2A05
  8
0
 10
49.0072517070604476
 20
44.0003438873570971
 30
0.0
  0
VERTEX
  5
2A06
  8
0
 10
49.1064719081488192
 20
44.000390099058599
 30
0.0
  0
VERTEX
  5
2A07
  8
0
 10
49.2057092614097087
 20
44.0004130499713426
 30
0.0
  0
VERTEX
  5
2A08
  8
0
 10
49.3049619828017782
 20
44.0004126244348299
 30
0.0
  0
VERTEX
  5
2A09
  8
0
 10
49.4042281525662972
 20
44.0003917166131231
 30
0.0
  0
VERTEX
  5
2A0A
  8
0
 10
49.5035058495072278
 20
44.000353252546951
 30
0.0
  0
VERTEX
  5
2A0B
  8
0
 10
49.6027931524285393
 20
44.0003001582770708
 30
0.0
  0
VERTEX
  5
2A0C
  8
0
 10
49.7020881401340873
 20
44.0002353598442326
 30
0.0
  0
VERTEX
  5
2A0D
  8
0
 10
49.8013888914278482
 20
44.0001617832891583
 30
0.0
  0
VERTEX
  5
2A0E
  8
0
 10
49.9006934851137203
 20
44.0000823546525979
 30
0.0
  0
VERTEX
  5
2A0F
  8
0
 10
49.9999999999956799
 20
43.9999999999753015
 30
0.0
  0
SEQEND
  5
2A10
  8
0
  0
POLYLINE
  5
26C0
  8
0
 66
     1
 10
0.0
 20
0.0
 30
0.0
  0
VERTEX
  5
2A11
  8
0
 10
44.8038475772891474
 20
46.9999999999753015
 30
0.0
  0
VERTEX
  5
2A12
  8
0
 10
44.8462734672966619
 20
46.9266094990656129
 30
0.0
  0
VERTEX
  5
2A13
  8
0
 10
44.8886987631643706
 20
46.8532200448549929
 30
0.0
  0
VERTEX
  5
2A14
  8
0
 10
44.9311228707526311
 20
46.7798326840425105
 30
0.0
  0
VERTEX
  5
2A15
  8
0
 10
44.9735451959215879
 20
46.7064484633272485
 30
0.0
  0
VERTEX
  5
2A16
  8
0
 10
45.0159651445314921
 20
46.6330684294082687
 30
0.0
  0
VERTEX
  5
2A17
  8
0
 10
45.0583816320550383
 20
46.5596933374998514
 30
0.0
  0
VERTEX
  5
2A18
  8
0
 10
45.1007909124232427
 20
46.4863223608045288
 30
0.0
  0
VERTEX
  5
2A19
  8
0
 10
45.1431883408770318
 20
46.4129541383462723
 30
0.0
  0
VERTEX
  5
2A1A
  8
0
 10
45.1855692719590181
 20
46.3395873087339965
 30
0.0
  0
VERTEX
  5
2A1B
  8
0
 10
45.2279290602117499
 20
46.2662205105766304
 30
0.0
  0
VERTEX
  5
2A1C
  8
0
 10
45.2702638419510208
 20
46.1928528351271908
 30
0.0
  0
VERTEX
  5
2A1D
  8
0
 10
45.3125751041847025
 20
46.119486471671749
 30
0.0
  0
VERTEX
  5
2A1E
  8
0
 10
45.3548665746242818
 20
46.0461249068563916
 30
0.0
  0
VERTEX
  5
2A1F
  8
0
 10
45.397141988582689
 20
45.9727716317283424
 30
0.0
  0
VERTEX
  5
2A20
  8
0
 10
45.4394050813726835
 20
45.8994301373348605
 30
0.0
  0
VERTEX
  5
2A21
  8
0
 10
45.4816595220749491
 20
45.8261037892219392
 30
0.0
  0
VERTEX
  5
2A22
  8
0
 10
45.5239083496915597
 20
45.7527947590189328
 30
0.0
  0
VERTEX
  5
2A23
  8
0
 10
45.5661542545802831
 20
45.6795045577201719
 30
0.0
  0
VERTEX
  5
2A24
  8
0
 10
45.6083999234105022
 20
45.6062346893309893
 30
0.0
  0
VERTEX
  5
2A25
  8
0
 10
45.6506480428515715
 20
45.5329866578567319
 30
0.0
  0
VERTEX
  5
2A26
  8
0
 10
45.6929011421095197
 20
45.4597619292518971
 30
0.0
  0
VERTEX
  5
2A27
  8
0
 10
45.7351588289076219
 20
45.3865612634992885
 30
0.0
  0
VERTEX
  5
2A28
  8
0
 10
45.7774181324880303
 20
45.3133847974956367
 30
0.0
  0
VERTEX
  5
2A29
  8
0
 10
45.8196759935652835
 20
45.2402326467452127
 30
0.0
  0
VERTEX
  5
2A2A
  8
0
 10
45.8619293528538989
 20
45.1671049267522378
 30
0.0
  0
VERTEX
  5
2A2B
  8
0
 10
45.9041751510685572
 20
45.0940017530209403
 30
0.0
  0
VERTEX
  5
2A2C
  8
0
 10
45.9464103289237684
 20
45.0209232410555629
 30
0.0
  0
VERTEX
  5
2A2D
  8
0
 10
45.9886318271341494
 20
44.9478695063603269
 30
0.0
  0
VERTEX
  5
2A2E
  8
0
 10
46.0308365864143028
 20
44.874840664439489
 30
0.0
  0
VERTEX
  5
2A2F
  8
0
 10
46.0730215474786675
 20
44.8018368307972565
 30
0.0
  0
VERTEX
  5
2A30
  8
0
 10
46.1151837211834774
 20
44.7288580881764233
 30
0.0
  0
VERTEX
  5
2A31
  8
0
 10
46.1573224605846804
 20
44.655903425333058
 30
0.0
  0
VERTEX
  5
2A32
  8
0
 10
46.1994399558699271
 20
44.5829705058654611
 30
0.0
  0
VERTEX
  5
2A33
  8
0
 10
46.2415385674965975
 20
44.5100569138429805
 30
0.0
  0
VERTEX
  5
2A34
  8
0
 10
46.2836206559219931
 20
44.4371602333349927
 30
0.0
  0
VERTEX
  5
2A35
  8
0
 10
46.325688581603508
 20
44.3642780484108386
 30
0.0
  0
VERTEX
  5
2A36
  8
0
 10
46.3677447049983584
 20
44.2914079431398875
 30
0.0
  0
VERTEX
  5
2A37
  8
0
 10
46.4097913865639313
 20
44.2185475015915088
 30
0.0
  0
VERTEX
  5
2A38
  8
0
 10
46.4518309867574999
 20
44.1456943078350506
 30
0.0
  0
VERTEX
  5
2A39
  8
0
 10
46.4938658660364581
 20
44.0728459459398607
 30
0.0
  0
VERTEX
  5
2A3A
  8
0
 10
46.5358983848581076
 20
43.9999999999753015
 30
0.0
  0
SEQEND
  5
2A3B
  8
0
  0
POLYLINE
  5
26C1
  8
0
 66
     1
 10
0.0
 20
0.0
 30
0.0
  0
VERTEX
  5
2A3C
  8
0
 10
49.9999999999958504
 20
55.9999999999753015
 30
0.0
  0
VERTEX
  5
2A3D
  8
0
 10
49.9152290435817392
 20
55.9999549319308727
 30
0.0
  0
VERTEX
  5
2A3E
  8
0
 10
49.8304592921424501
 20
55.9999100142635271
 30
0.0
  0
VERTEX
  5
2A3F
  8
0
 10
49.7456919506529402
 20
55.9998653973503195
 30
0.0
  0
VERTEX
  5
2A40
  8
0
 10
49.6609282240880319
 20
55.9998212315683404
 30
0.0
  0
VERTEX
  5
2A41
  8
0
 10
49.5761693174225115
 20
55.9997776672946515
 30
0.0
  0
VERTEX
  5
2A42
  8
0
 10
49.4914164281960893
 20
55.9997353850557218
 30
0.0
  0
VERTEX
  5
2A43
  8
0
 10
49.4066707136716374
 20
55.9996979371728116
 30
0.0
  0
VERTEX
  5
2A44
  8
0
 10
49.3219333175377415
 20
55.999669843858193
 30
0.0
  0
VERTEX
  5
2A45
  8
0
 10
49.2372053834722507
 20
55.9996556260633511
 30
0.0
  0
VERTEX
  5
2A46
  8
0
 10
49.1524880551534125
 20
55.999659804739828
 30
0.0
  0
VERTEX
  5
2A47
  8
0
 10
49.06778247710497
 20
55.9996860029462127
 30
0.0
  0
VERTEX
  5
2A48
  8
0
 10
48.9830897996303705
 20
55.9997317072936482
 30
0.0
  0
VERTEX
  5
2A49
  8
0
 10
48.8984111754502919
 20
55.9997918380133797
 30
0.0
  0
VERTEX
  5
2A4A
  8
0
 10
48.8137477572936405
 20
55.9998613066897235
 30
0.0
  0
VERTEX
  5
2A4B
  8
0
 10
48.7291006978892867
 20
55.9999350249069465
 30
0.0
  0
VERTEX
  5
2A4C
  8
0
 10
48.6444710746163693
 20
56.0000080273453023
 30
0.0
  0
VERTEX
  5
2A4D
  8
0
 10
48.5598592467050025
 20
56.0000765218983503
 30
0.0
  0
VERTEX
  5
2A4E
  8
0
 10
48.4752651754204678
 20
56.000137366599823
 30
0.0
  0
VERTEX
  5
2A4F
  8
0
 10
48.3906888177975176
 20
56.0001874263946604
 30
0.0
  0
VERTEX
  5
2A50
  8
0
 10
48.3061301308710611
 20
56.0002235662278096
 30
0.0
  0
VERTEX
  5
2A51
  8
0
 10
48.2215891169692483
 20
56.0002428093664406
 30
0.0
  0
VERTEX
  5
2A52
  8
0
 10
48.1370666275934127
 20
56.0002451473400811
 30
0.0
  0
VERTEX
  5
2A53
  8
0
 10
48.0525642684823993
 20
56.0002332080970433
 30
0.0
  0
VERTEX
  5
2A54
  8
0
 10
47.9680836715978103
 20
56.0002097112464625
 30
0.0
  0
VERTEX
  5
2A55
  8
0
 10
47.8836264689013476
 20
56.0001773763975521
 30
0.0
  0
VERTEX
  5
2A56
  8
0
 10
47.7991942923545707
 20
56.0001389231594828
 30
0.0
  0
VERTEX
  5
2A57
  8
0
 10
47.7147887739191603
 20
56.0000970711414325
 30
0.0
  0
VERTEX
  5
2A58
  8
0
 10
47.6304115455567398
 20
56.0000545399525791
 30
0.0
  0
VERTEX
  5
2A59
  8
0
 10
47.5460642392289401
 20
56.0000140492021288
 30
0.0
  0
VERTEX
  5
2A5A
  8
0
 10
47.4617484868973634
 20
55.999978318499231
 30
0.0
  0
VERTEX
  5
2A5B
  8
0
 10
47.3774658581210133
 20
55.9999500218199202
 30
0.0
  0
VERTEX
  5
2A5C
  8
0
 10
47.2932158102707376
 20
55.9999302885597885
 30
0.0
  0
VERTEX
  5
2A5D
  8
0
 10
47.2089952257438199
 20
55.9999183651130323
 30
0.0
  0
VERTEX
  5
2A5E
  8
0
 10
47.1248008308376711
 20
55.9999133837225926
 30
0.0
  0
VERTEX
  5
2A5F
  8
0
 10
47.0406293518497023
 20
55.9999144766314387
 30
0.0
  0
VERTEX
  5
2A60
  8
0
 10
46.9564775150773173
 20
55.9999207760825399
 30
0.0
  0
VERTEX
  5
2A61
  8
0
 10
46.8723420468178773
 20
55.9999314143188371
 30
0.0
  0
VERTEX
  5
2A62
  8
0
 10
46.7882196733688076
 20
55.999945523583321
 30
0.0
  0
VERTEX
  5
2A63
  8
0
 10
46.7041071210275618
 20
55.9999622361188969
 30
0.0
  0
VERTEX
  5
2A64
  8
0
 10
46.6200011160915366
 20
55.999980684168591
 30
0.0
  0
VERTEX
  5
2A65
  8
0
 10
46.5358983848580579
 20
55.9999999999753015
 30
0.0
  0
SEQEND
  5
2A66
  8
0
  0
POLYLINE
  5
26C2
  8
0
 66
     1
 10
0.0
 20
0.0
 30
0.0
  0
VERTEX
  5
2A67
  8
0
 10
46.5358983848581076
 20
55.9999999999752092
 30
0.0
  0
VERTEX
  5
2A68
  8
0
 10
46.486666757267578
 20
55.9147006356636282
 30
0.0
  0
VERTEX
  5
2A69
  8
0
 10
46.4374307762117766
 20
55.829394721100762
 30
0.0
  0
VERTEX
  5
2A6A
  8
0
 10
46.3881860882254884
 20
55.7440757060353391
 30
0.0
  0
VERTEX
  5
2A6B
  8
0
 10
46.3389283398434983
 20
55.6587370402160602
 30
0.0
  0
VERTEX
  5
2A6C
  8
0
 10
46.2896531776005986
 20
55.5733721733916681
 30
0.0
  0
VERTEX
  5
2A6D
  8
0
 10
46.2403562480480375
 20
55.4879745553460424
 30
0.0
  0
VERTEX
  5
2A6E
  8
0
 10
46.1910340120247227
 20
55.4025393664468879
 30
0.0
  0
VERTEX
  5
2A6F
  8
0
 10
46.1416859248662306
 20
55.3170681511864615
 30
0.0
  0
VERTEX
  5
2A70
  8
0
 10
46.0923121300855314
 20
55.2315639166220507
 30
0.0
  0
VERTEX
  5
2A71
  8
0
 10
46.0429127711955672
 20
55.1460296698110071
 30
0.0
  0
VERTEX
  5
2A72
  8
0
 10
45.99348799170928
 20
55.060468417810668
 30
0.0
  0
VERTEX
  5
2A73
  8
0
 10
45.9440379431215931
 20
54.974883159287522
 30
0.0
  0
VERTEX
  5
2A74
  8
0
 10
45.8945644655644216
 20
54.8892751177916409
 30
0.0
  0
VERTEX
  5
2A75
  8
0
 10
45.84507316499338
 20
54.8036415581908827
 30
0.0
  0
VERTEX
  5
2A76
  8
0
 10
45.7955701566342483
 20
54.7179792100020066
 30
0.0
  0
VERTEX
  5
2A77
  8
0
 10
45.7460615557126218
 20
54.6322848027417791
 30
0.0
  0
VERTEX
  5
2A78
  8
0
 10
45.6965534774543585
 20
54.5465550659269525
 30
0.0
  0
VERTEX
  5
2A79
  8
0
 10
45.6470518647673131
 20
54.4607868525079013
 30
0.0
  0
VERTEX
  5
2A7A
  8
0
 10
45.5975578057405571
 20
54.3749804930084366
 30
0.0
  0
VERTEX
  5
2A7B
  8
0
 10
45.5480669797203674
 20
54.2891401923092971
 30
0.0
  0
VERTEX
  5
2A7C
  8
0
 10
45.498574782544722
 20
54.2032703583720377
 30
0.0
  0
VERTEX
  5
2A7D
  8
0
 10
45.44907661005157
 20
54.1173753991582487
 30
0.0
  0
VERTEX
  5
2A7E
  8
0
 10
45.3995678580789672
 20
54.0314597226294566
 30
0.0
  0
VERTEX
  5
2A7F
  8
0
 10
45.350043922464863
 20
53.9455277367472519
 30
0.0
  0
VERTEX
  5
2A80
  8
0
 10
45.300500199047292
 20
53.8595838494731822
 30
0.0
  0
VERTEX
  5
2A81
  8
0
 10
45.2509320836641606
 20
53.7736324687688168
 30
0.0
  0
VERTEX
  5
2A82
  8
0
 10
45.2013354102269318
 20
53.687677775041891
 30
0.0
  0
VERTEX
  5
2A83
  8
0
 10
45.1517107477711193
 20
53.6017214890761906
 30
0.0
  0
VERTEX
  5
2A84
  8
0
 10
45.1020615586506892
 20
53.5157638287434168
 30
0.0
  0
VERTEX
  5
2A85
  8
0
 10
45.0523913466749875
 20
53.4298049903817613
 30
0.0
  0
VERTEX
  5
2A86
  8
0
 10
45.0027036156531466
 20
53.3438451703293666
 30
0.0
  0
VERTEX
  5
2A87
  8
0
 10
44.95300186939442
 20
53.2578845649243675
 30
0.0
  0
VERTEX
  5
2A88
  8
0
 10
44.9032896117080327
 20
53.1719233705049206
 30
0.0
  0
VERTEX
  5
2A89
  8
0
 10
44.8535703464032167
 20
53.0859617834091893
 30
0.0
  0
VERTEX
  5
2A8A
  8
0
 10
44.8038475772891474
 20
52.9999999999753015
 30
0.0
  0
SEQEND
  5
2A8B
  8
0
  0
POLYLINE
  5
26C3
  8
0
 66
     1
 10
0.0
 20
0.0
 30
0.0
  0
VERTEX
  5
2A8C
  8
0
 10
49.9999999999956799
 20
43.9999999999753015
 30
0.0
  0
VERTEX
  5
2A8D
  8
0
 10
50.0847709564097769
 20
44.0000450680197801
 30
0.0
  0
VERTEX
  5
2A8E
  8
0
 10
50.1695407078490803
 20
44.0000899856871825
 30
0.0
  0
VERTEX
  5
2A8F
  8
0
 10
50.2543080493385901
 20
44.0001346026004327
 30
0.0
  0
VERTEX
  5
2A90
  8
0
 10
50.3390717759034985
 20
44.0001787683824688
 30
0.0
  0
VERTEX
  5
2A91
  8
0
 10
50.4238306825689619
 20
44.0002223326562216
 30
0.0
  0
VERTEX
  5
2A92
  8
0
 10
50.508583571795441
 20
44.0002646148952081
 30
0.0
  0
VERTEX
  5
2A93
  8
0
 10
50.5933292863198787
 20
44.0003020627781822
 30
0.0
  0
VERTEX
  5
2A94
  8
0
 10
50.6780666824538528
 20
44.0003301560928719
 30
0.0
  0
VERTEX
  5
2A95
  8
0
 10
50.7627946165192725
 20
44.0003443738877777
 30
0.0
  0
VERTEX
  5
2A96
  8
0
 10
50.8475119448381108
 20
44.0003401952113578
 30
0.0
  0
VERTEX
  5
2A97
  8
0
 10
50.9322175228866172
 20
44.000313997005037
 30
0.0
  0
VERTEX
  5
2A98
  8
0
 10
51.0169102003612167
 20
44.0002682926576583
 30
0.0
  0
VERTEX
  5
2A99
  8
0
 10
51.1015888245412881
 20
44.0002081619379624
 30
0.0
  0
VERTEX
  5
2A9A
  8
0
 10
51.1862522426979467
 20
44.0001386932616327
 30
0.0
  0
VERTEX
  5
2A9B
  8
0
 10
51.2708993021022934
 20
44.0000649750443671
 30
0.0
  0
VERTEX
  5
2A9C
  8
0
 10
51.3555289253752107
 20
43.9999919726059332
 30
0.0
  0
VERTEX
  5
2A9D
  8
0
 10
51.4401407532865917
 20
43.9999234780527786
 30
0.0
  0
VERTEX
  5
2A9E
  8
0
 10
51.5247348245711692
 20
43.9998626333511709
 30
0.0
  0
VERTEX
  5
2A9F
  8
0
 10
51.6093111821940624
 20
43.99981257355617
 30
0.0
  0
VERTEX
  5
2AA0
  8
0
 10
51.6938698691205332
 20
43.9997764337228716
 30
0.0
  0
VERTEX
  5
2AA1
  8
0
 10
51.7784108830223317
 20
43.9997571905840985
 30
0.0
  0
VERTEX
  5
2AA2
  8
0
 10
51.8629333723981674
 20
43.999754852610323
 30
0.0
  0
VERTEX
  5
2AA3
  8
0
 10
51.9474357315091879
 20
43.9997667918532613
 30
0.0
  0
VERTEX
  5
2AA4
  8
0
 10
52.0319163283937201
 20
43.9997902887037426
 30
0.0
  0
VERTEX
  5
2AA5
  8
0
 10
52.1163735310902325
 20
43.999822623552582
 30
0.0
  0
VERTEX
  5
2AA6
  8
0
 10
52.2008057076369596
 20
43.9998610767905802
 30
0.0
  0
VERTEX
  5
2AA7
  8
0
 10
52.2852112260724198
 20
43.9999029288085808
 30
0.0
  0
VERTEX
  5
2AA8
  8
0
 10
52.3695884544348473
 20
43.9999454599973987
 30
0.0
  0
VERTEX
  5
2AA9
  8
0
 10
52.45393576076264
 20
43.999985950747849
 30
0.0
  0
VERTEX
  5
2AAA
  8
0
 10
52.5382515130942167
 20
44.0000216814507397
 30
0.0
  0
VERTEX
  5
2AAB
  8
0
 10
52.6225341418704602
 20
44.0000499781300576
 30
0.0
  0
VERTEX
  5
2AAC
  8
0
 10
52.706784189720743
 20
44.0000697113902177
 30
0.0
  0
VERTEX
  5
2AAD
  8
0
 10
52.7910047742476607
 20
44.0000816348370307
 30
0.0
  0
VERTEX
  5
2AAE
  8
0
 10
52.8751991691538024
 20
44.000086616227513
 30
0.0
  0
VERTEX
  5
2AAF
  8
0
 10
52.9593706481417712
 20
44.0000855233187096
 30
0.0
  0
VERTEX
  5
2AB0
  8
0
 10
53.0435224849141989
 20
44.0000792238676866
 30
0.0
  0
VERTEX
  5
2AB1
  8
0
 10
53.1276579531736388
 20
44.0000685856314533
 30
0.0
  0
VERTEX
  5
2AB2
  8
0
 10
53.2117803266226588
 20
44.0000544763670476
 30
0.0
  0
VERTEX
  5
2AB3
  8
0
 10
53.2958928789639117
 20
44.0000377638315427
 30
0.0
  0
VERTEX
  5
2AB4
  8
0
 10
53.3799988838999795
 20
44.000019315781941
 30
0.0
  0
VERTEX
  5
2AB5
  8
0
 10
53.4641016151334725
 20
43.9999999999753015
 30
0.0
  0
SEQEND
  5
2AB6
  8
0
  0
POLYLINE
  5
26C4
  8
0
 66
     1
 10
0.0
 20
0.0
 30
0.0
  0
VERTEX
  5
2AB7
  8
0
 10
53.4641016151334725
 20
43.9999999999753015
 30
0.0
  0
VERTEX
  5
2AB8
  8
0
 10
53.5133332427240589
 20
44.0852993642869109
 30
0.0
  0
VERTEX
  5
2AB9
  8
0
 10
53.5625692237798603
 20
44.1706052788497985
 30
0.0
  0
VERTEX
  5
2ABA
  8
0
 10
53.6118139117661414
 20
44.2559242939152497
 30
0.0
  0
VERTEX
  5
2ABB
  8
0
 10
53.6610716601481315
 20
44.3412629597345429
 30
0.0
  0
VERTEX
  5
2ABC
  8
0
 10
53.7103468223910525
 20
44.426627826558942
 30
0.0
  0
VERTEX
  5
2ABD
  8
0
 10
53.7596437519435995
 20
44.5120254446045678
 30
0.0
  0
VERTEX
  5
2ABE
  8
0
 10
53.8089659879669284
 20
44.5974606335037222
 30
0.0
  0
VERTEX
  5
2ABF
  8
0
 10
53.8583140751253993
 20
44.6829318487641487
 30
0.0
  0
VERTEX
  5
2AC0
  8
0
 10
53.9076878699061126
 20
44.7684360833285524
 30
0.0
  0
VERTEX
  5
2AC1
  8
0
 10
53.9570872287960697
 20
44.8539703301396031
 30
0.0
  0
VERTEX
  5
2AC2
  8
0
 10
54.0065120082823
 20
44.9395315821399279
 30
0.0
  0
VERTEX
  5
2AC3
  8
0
 10
54.0559620568699302
 20
45.0251168406630811
 30
0.0
  0
VERTEX
  5
2AC4
  8
0
 10
54.1054355344271016
 20
45.1107248821589621
 30
0.0
  0
VERTEX
  5
2AC5
  8
0
 10
54.1549268349981503
 20
45.1963584417597133
 30
0.0
  0
VERTEX
  5
2AC6
  8
0
 10
54.2044298433573317
 20
45.2820207899485823
 30
0.0
  0
VERTEX
  5
2AC7
  8
0
 10
54.2539384442789014
 20
45.3677151972088097
 30
0.0
  0
VERTEX
  5
2AC8
  8
0
 10
54.3034465225372216
 20
45.4534449340236222
 30
0.0
  0
VERTEX
  5
2AC9
  8
0
 10
54.3529481352242669
 20
45.5392131474426733
 30
0.0
  0
VERTEX
  5
2ACA
  8
0
 10
54.402442194251023
 20
45.6250195069421309
 30
0.0
  0
VERTEX
  5
2ACB
  8
0
 10
54.4519330202712126
 20
45.7108598076412633
 30
0.0
  0
VERTEX
  5
2ACC
  8
0
 10
54.5014252174468723
 20
45.7967296415785228
 30
0.0
  0
VERTEX
  5
2ACD
  8
0
 10
54.5509233899400101
 20
45.8826246007923118
 30
0.0
  0
VERTEX
  5
2ACE
  8
0
 10
54.60043214191262
 20
45.9685402773211109
 30
0.0
  0
VERTEX
  5
2ACF
  8
0
 10
54.6499560775266602
 20
46.0544722632033228
 30
0.0
  0
VERTEX
  5
2AD0
  8
0
 10
54.6994998009443023
 20
46.1404161504773782
 30
0.0
  0
VERTEX
  5
2AD1
  8
0
 10
54.7490679163273626
 20
46.2263675311817366
 30
0.0
  0
VERTEX
  5
2AD2
  8
0
 10
54.7986645897646625
 20
46.3123222249086766
 30
0.0
  0
VERTEX
  5
2AD3
  8
0
 10
54.8482892522204608
 20
46.3982785108743983
 30
0.0
  0
VERTEX
  5
2AD4
  8
0
 10
54.8979384413408411
 20
46.4842361712071508
 30
0.0
  0
VERTEX
  5
2AD5
  8
0
 10
54.9476086533165926
 20
46.5701950095688204
 30
0.0
  0
VERTEX
  5
2AD6
  8
0
 10
54.9972963843384193
 20
46.6561548296212294
 30
0.0
  0
VERTEX
  5
2AD7
  8
0
 10
55.0469981305971601
 20
46.7421154350262285
 30
0.0
  0
VERTEX
  5
2AD8
  8
0
 10
55.0967103882834977
 20
46.8280766294456825
 30
0.0
  0
VERTEX
  5
2AD9
  8
0
 10
55.1464296535883065
 20
46.9140382165414067
 30
0.0
  0
VERTEX
  5
2ADA
  8
0
 10
55.1961524227023688
 20
46.9999999999753015
 30
0.0
  0
SEQEND
  5
2ADB
  8
0
  0
POLYLINE
  5
26C5
  8
0
 66
     1
 10
0.0
 20
0.0
 30
0.0
  0
VERTEX
  5
2ADC
  8
0
 10
55.1961524227023688
 20
52.9999999999753015
 30
0.0
  0
VERTEX
  5
2ADD
  8
0
 10
55.1537265326949111
 20
53.0733905008849902
 30
0.0
  0
VERTEX
  5
2ADE
  8
0
 10
55.1113012368272166
 20
53.1467799550956173
 30
0.0
  0
VERTEX
  5
2ADF
  8
0
 10
55.06887712923902
 20
53.2201673159080997
 30
0.0
  0
VERTEX
  5
2AE0
  8
0
 10
55.026454804070049
 20
53.2935515366233687
 30
0.0
  0
VERTEX
  5
2AE1
  8
0
 10
54.9840348554601519
 20
53.3669315705423486
 30
0.0
  0
VERTEX
  5
2AE2
  8
0
 10
54.9416183679365986
 20
53.4403066624507801
 30
0.0
  0
VERTEX
  5
2AE3
  8
0
 10
54.8992090875684084
 20
53.5136776391461169
 30
0.0
  0
VERTEX
  5
2AE4
  8
0
 10
54.8568116591146122
 20
53.5870458616043805
 30
0.0
  0
VERTEX
  5
2AE5
  8
0
 10
54.8144307280326686
 20
53.6604126912166635
 30
0.0
  0
VERTEX
  5
2AE6
  8
0
 10
54.7720709397800078
 20
53.7337794893740508
 30
0.0
  0
VERTEX
  5
2AE7
  8
0
 10
54.7297361580407866
 20
53.8071471648234976
 30
0.0
  0
VERTEX
  5
2AE8
  8
0
 10
54.6874248958071121
 20
53.8805135282789394
 30
0.0
  0
VERTEX
  5
2AE9
  8
0
 10
54.6451334253675327
 20
53.9538750930943181
 30
0.0
  0
VERTEX
  5
2AEA
  8
0
 10
54.6028580114091824
 20
54.0272283682223673
 30
0.0
  0
VERTEX
  5
2AEB
  8
0
 10
54.560594918619131
 20
54.1005698626158491
 30
0.0
  0
VERTEX
  5
2AEC
  8
0
 10
54.518340477916702
 20
54.1738962107287492
 30
0.0
  0
VERTEX
  5
2AED
  8
0
 10
54.4760916503000203
 20
54.2472052409317627
 30
0.0
  0
VERTEX
  5
2AEE
  8
0
 10
54.4338457454113112
 20
54.320495442230488
 30
0.0
  0
VERTEX
  5
2AEF
  8
0
 10
54.391600076581021
 20
54.3937653106196493
 30
0.0
  0
VERTEX
  5
2AF0
  8
0
 10
54.349351957139902
 20
54.4670133420938924
 30
0.0
  0
VERTEX
  5
2AF1
  8
0
 10
54.3070988578819467
 20
54.5402380706986989
 30
0.0
  0
VERTEX
  5
2AF2
  8
0
 10
54.2648411710837877
 20
54.6134387364513003
 30
0.0
  0
VERTEX
  5
2AF3
  8
0
 10
54.2225818675033793
 20
54.6866152024549166
 30
0.0
  0
VERTEX
  5
2AF4
  8
0
 10
54.1803240064261331
 20
54.7597673532053193
 30
0.0
  0
VERTEX
  5
2AF5
  8
0
 10
54.1380706471373969
 20
54.83289507319828
 30
0.0
  0
VERTEX
  5
2AF6
  8
0
 10
54.0958248489227529
 20
54.9059982469295704
 30
0.0
  0
VERTEX
  5
2AF7
  8
0
 10
54.0535896710675274
 20
54.9790767588949407
 30
0.0
  0
VERTEX
  5
2AF8
  8
0
 10
54.0113681728571393
 20
55.0521304935901625
 30
0.0
  0
VERTEX
  5
2AF9
  8
0
 10
53.9691634135770073
 20
55.1251593355110003
 30
0.0
  0
VERTEX
  5
2AFA
  8
0
 10
53.9269784525126212
 20
55.1981631691532328
 30
0.0
  0
VERTEX
  5
2AFB
  8
0
 10
53.8848162788078184
 20
55.2711419117740732
 30
0.0
  0
VERTEX
  5
2AFC
  8
0
 10
53.8426775394066794
 20
55.3440965746174314
 30
0.0
  0
VERTEX
  5
2AFD
  8
0
 10
53.8005600441214327
 20
55.4170294940850496
 30
0.0
  0
VERTEX
  5
2AFE
  8
0
 10
53.7584614324947481
 20
55.4899430861075302
 30
0.0
  0
VERTEX
  5
2AFF
  8
0
 10
53.7163793440693667
 20
55.5628397666155323
 30
0.0
  0
VERTEX
  5
2B00
  8
0
 10
53.6743114183879015
 20
55.6357219515396793
 30
0.0
  0
VERTEX
  5
2B01
  8
0
 10
53.632255294993108
 20
55.7085920568106303
 30
0.0
  0
VERTEX
  5
2B02
  8
0
 10
53.590208613427528
 20
55.7814524983590232
 30
0.0
  0
VERTEX
  5
2B03
  8
0
 10
53.5481690132339665
 20
55.8543056921154886
 30
0.0
  0
VERTEX
  5
2B04
  8
0
 10
53.5061341339550722
 20
55.9271540540106713
 30
0.0
  0
VERTEX
  5
2B05
  8
0
 10
53.4641016151334085
 20
55.9999999999752092
 30
0.0
  0
SEQEND
  5
2B06
  8
0
  0
POLYLINE
  5
26C6
  8
0
 66
     1
 10
0.0
 20
0.0
 30
0.0
  0
VERTEX
  5
2B07
  8
0
 10
53.4641016151334725
 20
55.9999999999753015
 30
0.0
  0
VERTEX
  5
2B08
  8
0
 10
53.3656146841428267
 20
55.9999857444038796
 30
0.0
  0
VERTEX
  5
2B09
  8
0
 10
53.2671198711972167
 20
55.999971936106661
 30
0.0
  0
VERTEX
  5
2B0A
  8
0
 10
53.1686092943418771
 20
55.9999590223578423
 30
0.0
  0
VERTEX
  5
2B0B
  8
0
 10
53.0700750716217726
 20
55.9999474504316126
 30
0.0
  0
VERTEX
  5
2B0C
  8
0
 10
52.9715093210821308
 20
55.9999376676021683
 30
0.0
  0
VERTEX
  5
2B0D
  8
0
 10
52.8729041610311015
 20
55.9999301211690295
 30
0.0
  0
VERTEX
  5
2B0E
  8
0
 10
52.7742537646420828
 20
55.9999254559676203
 30
0.0
  0
VERTEX
  5
2B0F
  8
0
 10
52.6755593181231916
 20
55.9999249910025227
 30
0.0
  0
VERTEX
  5
2B10
  8
0
 10
52.5768235025101305
 20
55.9999301889773378
 30
0.0
  0
VERTEX
  5
2B11
  8
0
 10
52.4780489988387373
 20
55.9999425125957231
 30
0.0
  0
VERTEX
  5
2B12
  8
0
 10
52.3792384881447219
 20
55.9999634245612867
 30
0.0
  0
VERTEX
  5
2B13
  8
0
 10
52.2803946450872488
 20
55.9999943659032624
 30
0.0
  0
VERTEX
  5
2B14
  8
0
 10
52.181519368071001
 20
56.0000341391423504
 30
0.0
  0
VERTEX
  5
2B15
  8
0
 10
52.0826130453760427
 20
56.0000764138463225
 30
0.0
  0
VERTEX
  5
2B16
  8
0
 10
51.9836758914260031
 20
56.0001142686406226
 30
0.0
  0
VERTEX
  5
2B17
  8
0
 10
51.8847081206444116
 20
56.0001407821507016
 30
0.0
  0
VERTEX
  5
2B18
  8
0
 10
51.7857099474549614
 20
56.0001490330020104
 30
0.0
  0
VERTEX
  5
2B19
  8
0
 10
51.6866816188741609
 20
56.0001324272377232
 30
0.0
  0
VERTEX
  5
2B1A
  8
0
 10
51.587624029828703
 20
56.000090879601828
 30
0.0
  0
VERTEX
  5
2B1B
  8
0
 10
51.4885386712239708
 20
56.0000302918498321
 30
0.0
  0
VERTEX
  5
2B1C
  8
0
 10
51.3894270561490814
 20
55.9999567885887402
 30
0.0
  0
VERTEX
  5
2B1D
  8
0
 10
51.2902906976932016
 20
55.9998764944255569
 30
0.0
  0
VERTEX
  5
2B1E
  8
0
 10
51.1911311089455126
 20
55.9997955339672799
 30
0.0
  0
VERTEX
  5
2B1F
  8
0
 10
51.0919498029950887
 20
55.9997200318209281
 30
0.0
  0
VERTEX
  5
2B20
  8
0
 10
50.9927482929311395
 20
55.9996561125934988
 30
0.0
  0
VERTEX
  5
2B21
  8
0
 10
50.8935280918428319
 20
55.9996099008920112
 30
0.0
  0
VERTEX
  5
2B22
  8
0
 10
50.7942907385819282
 20
55.9995869499792605
 30
0.0
  0
VERTEX
  5
2B23
  8
0
 10
50.6950380171899084
 20
55.9995873755157803
 30
0.0
  0
VERTEX
  5
2B24
  8
0
 10
50.5957718474253397
 20
55.9996082833374871
 30
0.0
  0
VERTEX
  5
2B25
  8
0
 10
50.4964941504844091
 20
55.9996467474036521
 30
0.0
  0
VERTEX
  5
2B26
  8
0
 10
50.3972068475630977
 20
55.9996998416735323
 30
0.0
  0
VERTEX
  5
2B27
  8
0
 10
50.2979118598575496
 20
55.9997646401063705
 30
0.0
  0
VERTEX
  5
2B28
  8
0
 10
50.198611108563739
 20
55.9998382166614519
 30
0.0
  0
VERTEX
  5
2B29
  8
0
 10
50.0993065148778669
 20
55.9999176452979981
 30
0.0
  0
VERTEX
  5
2B2A
  8
0
 10
49.9999999999958504
 20
55.9999999999753015
 30
0.0
  0
SEQEND
  5
2B2B
  8
0
  0
POLYLINE
  5
26C7
  8
0
 66
     1
 10
0.0
 20
0.0
 30
0.0
  0
VERTEX
  5
2B2C
  8
0
 10
43.0717967697335027
 20
95.751288694070567
 30
0.0
  0
VERTEX
  5
2B2D
  8
0
 10
43.1210523723585197
 20
95.763989996731766
 30
0.0
  0
VERTEX
  5
2B2E
  8
0
 10
43.170311470934962
 20
95.7766264466741148
 30
0.0
  0
VERTEX
  5
2B2F
  8
0
 10
43.2195775614141482
 20
95.78913319117882
 30
0.0
  0
VERTEX
  5
2B30
  8
0
 10
43.268854139747468
 20
95.8014453775270169
 30
0.0
  0
VERTEX
  5
2B31
  8
0
 10
43.3181447018863466
 20
95.8134981529998555
 30
0.0
  0
VERTEX
  5
2B32
  8
0
 10
43.3674527437599906
 20
95.8252266651436031
 30
0.0
  0
VERTEX
  5
2B33
  8
0
 10
43.4167806697117769
 20
95.8365791110282146
 30
0.0
  0
VERTEX
  5
2B34
  8
0
 10
43.4661268698400818
 20
95.8475516766105642
 30
0.0
  0
VERTEX
  5
2B35
  8
0
 10
43.5154888117133396
 20
95.8581515763671916
 30
0.0
  0
VERTEX
  5
2B36
  8
0
 10
43.5648639629001124
 20
95.8683860247748356
 30
0.0
  0
VERTEX
  5
2B37
  8
0
 10
43.6142497909687492
 20
95.8782622363101069
 30
0.0
  0
VERTEX
  5
2B38
  8
0
 10
43.6636437747455304
 20
95.8877874156788863
 30
0.0
  0
VERTEX
  5
2B39
  8
0
 10
43.7130457746708814
 20
95.8969667005465283
 30
0.0
  0
VERTEX
  5
2B3A
  8
0
 10
43.762460962416462
 20
95.9058006188768815
 30
0.0
  0
VERTEX
  5
2B3B
  8
0
 10
43.811895227916807
 20
95.9142890752423511
 30
0.0
  0
VERTEX
  5
2B3C
  8
0
 10
43.8613544611061386
 20
95.9224319742153284
 30
0.0
  0
VERTEX
  5
2B3D
  8
0
 10
43.9108445519189488
 20
95.9302292203682043
 30
0.0
  0
VERTEX
  5
2B3E
  8
0
 10
43.9603711972339894
 20
95.9376803392444231
 30
0.0
  0
VERTEX
  5
2B3F
  8
0
 10
44.0099346548539074
 20
95.9447741777627527
 30
0.0
  0
VERTEX
  5
2B40
  8
0
 10
44.0595291229181498
 20
95.9514876858098233
 30
0.0
  0
VERTEX
  5
2B41
  8
0
 10
44.10914848193908
 20
95.9577971896697051
 30
0.0
  0
VERTEX
  5
2B42
  8
0
 10
44.158786612428969
 20
95.9636790156264254
 30
0.0
  0
VERTEX
  5
2B43
  8
0
 10
44.2084373949001588
 20
95.9691094899639268
 30
0.0
  0
VERTEX
  5
2B44
  8
0
 10
44.2580947098648991
 20
95.974064938966265
 30
0.0
  0
VERTEX
  5
2B45
  8
0
 10
44.3077524378355179
 20
95.9785216889174819
 30
0.0
  0
VERTEX
  5
2B46
  8
0
 10
44.3574044593243002
 20
95.9824560661015767
 30
0.0
  0
VERTEX
  5
2B47
  8
0
 10
44.4070450709476106
 20
95.9858491182124993
 30
0.0
  0
VERTEX
  5
2B48
  8
0
 10
44.4566730669808408
 20
95.9887329265496163
 30
0.0
  0
VERTEX
  5
2B49
  8
0
 10
44.5062899899185069
 20
95.9911707556430116
 30
0.0
  0
VERTEX
  5
2B4A
  8
0
 10
44.555897421631407
 20
95.9932263168132067
 30
0.0
  0
VERTEX
  5
2B4B
  8
0
 10
44.6054969439903672
 20
95.994963321380709
 30
0.0
  0
VERTEX
  5
2B4C
  8
0
 10
44.6550901388661075
 20
95.9964454806661251
 30
0.0
  0
VERTEX
  5
2B4D
  8
0
 10
44.7046785881295179
 20
95.9977365059899057
 30
0.0
  0
VERTEX
  5
2B4E
  8
0
 10
44.7542638736513183
 20
95.9989001086726148
 30
0.0
  0
VERTEX
  5
2B4F
  8
0
 10
44.8038475773022924
 20
96.0000000000348166
 30
0.0
  0
SEQEND
  5
2B50
  8
0
  0
POLYLINE
  5
26C8
  8
0
 66
     1
 10
0.0
 20
0.0
 30
0.0
  0
VERTEX
  5
2B51
  8
0
 10
44.8038475773023421
 20
91.000000000034774
 30
0.0
  0
VERTEX
  5
2B52
  8
0
 10
44.7615024841219267
 20
91.0004735414196233
 30
0.0
  0
VERTEX
  5
2B53
  8
0
 10
44.7191580003396822
 20
91.0010265384081265
 30
0.0
  0
VERTEX
  5
2B54
  8
0
 10
44.6768147353536733
 20
91.0017384466038664
 30
0.0
  0
VERTEX
  5
2B55
  8
0
 10
44.6344732985619999
 20
91.0026887216104257
 30
0.0
  0
VERTEX
  5
2B56
  8
0
 10
44.59213429936284
 20
91.0039568190315151
 30
0.0
  0
VERTEX
  5
2B57
  8
0
 10
44.5497978495271809
 20
91.0056098894550303
 30
0.0
  0
VERTEX
  5
2B58
  8
0
 10
44.5074613599929307
 20
91.0076482989286148
 30
0.0
  0
VERTEX
  5
2B59
  8
0
 10
44.4651213297407821
 20
91.0100498631815924
 30
0.0
  0
VERTEX
  5
2B5A
  8
0
 10
44.4227742570426969
 20
91.0127923804208763
 30
0.0
  0
VERTEX
  5
2B5B
  8
0
 10
44.3804166401707718
 20
91.0158536488533656
 30
0.0
  0
VERTEX
  5
2B5C
  8
0
 10
44.3380457602847784
 20
91.0192138307039471
 30
0.0
  0
VERTEX
  5
2B5D
  8
0
 10
44.2956642568661323
 20
91.0228692682504175
 30
0.0
  0
VERTEX
  5
2B5E
  8
0
 10
44.2532770132945572
 20
91.0268230794742976
 30
0.0
  0
VERTEX
  5
2B5F
  8
0
 10
44.2108889205620628
 20
91.0310784053429387
 30
0.0
  0
VERTEX
  5
2B60
  8
0
 10
44.1685048696606373
 20
91.035638386823706
 30
0.0
  0
VERTEX
  5
2B61
  8
0
 10
44.1261296097789
 20
91.0405053385667458
 30
0.0
  0
VERTEX
  5
2B62
  8
0
 10
44.0837665411041186
 20
91.0456737143128265
 30
0.0
  0
VERTEX
  5
2B63
  8
0
 10
44.0414183173747276
 20
91.0511336180922939
 30
0.0
  0
VERTEX
  5
2B64
  8
0
 10
43.9990875844322886
 20
91.0568751079187706
 30
0.0
  0
VERTEX
  5
2B65
  8
0
 10
43.9567769881182926
 20
91.0628882418058652
 30
0.0
  0
VERTEX
  5
2B66
  8
0
 10
43.9144890625898299
 20
91.0691634699232964
 30
0.0
  0
VERTEX
  5
2B67
  8
0
 10
43.8722242698727314
 20
91.0756985182714942
 30
0.0
  0
VERTEX
  5
2B68
  8
0
 10
43.8299812431441822
 20
91.082497534450809
 30
0.0
  0
VERTEX
  5
2B69
  8
0
 10
43.7877585527910966
 20
91.0895648865357686
 30
0.0
  0
VERTEX
  5
2B6A
  8
0
 10
43.745554769200389
 20
91.0969049426008439
 30
0.0
  0
VERTEX
  5
2B6B
  8
0
 10
43.7033684627589167
 20
91.1045220707204777
 30
0.0
  0
VERTEX
  5
2B6C
  8
0
 10
43.6611982038535871
 20
91.1124206389691977
 30
0.0
  0
VERTEX
  5
2B6D
  8
0
 10
43.6190425628713001
 20
91.1206050154214466
 30
0.0
  0
VERTEX
  5
2B6E
  8
0
 10
43.576900110198892
 20
91.1290795681517238
 30
0.0
  0
VERTEX
  5
2B6F
  8
0
 10
43.5347694162232415
 20
91.1378486652344861
 30
0.0
  0
VERTEX
  5
2B70
  8
0
 10
43.4926490580297695
 20
91.1469162440852472
 30
0.0
  0
VERTEX
  5
2B71
  8
0
 10
43.4505378363835533
 20
91.1562718613414233
 30
0.0
  0
VERTEX
  5
2B72
  8
0
 10
43.4084348229952113
 20
91.1658876540508345
 30
0.0
  0
VERTEX
  5
2B73
  8
0
 10
43.3663391058361185
 20
91.1757347138297689
 30
0.0
  0
VERTEX
  5
2B74
  8
0
 10
43.324249772877522
 20
91.1857841322945291
 30
0.0
  0
VERTEX
  5
2B75
  8
0
 10
43.2821659120908677
 20
91.1960070010614459
 30
0.0
  0
VERTEX
  5
2B76
  8
0
 10
43.2400866114475093
 20
91.2063744117468218
 30
0.0
  0
VERTEX
  5
2B77
  8
0
 10
43.1980109589187009
 20
91.2168574559669594
 30
0.0
  0
VERTEX
  5
2B78
  8
0
 10
43.1559380424759027
 20
91.2274272253381611
 30
0.0
  0
VERTEX
  5
2B79
  8
0
 10
43.1138669500903617
 20
91.2380548114767436
 30
0.0
  0
VERTEX
  5
2B7A
  8
0
 10
43.0717967697335027
 20
91.2487113059990378
 30
0.0
  0
SEQEND
  5
2B7B
  8
0
  0
POLYLINE
  5
26C9
  8
0
 66
     1
 10
0.0
 20
0.0
 30
0.0
  0
VERTEX
  5
2B7C
  8
0
 10
55.1961524227155493
 20
96.0000000000348166
 30
0.0
  0
VERTEX
  5
2B7D
  8
0
 10
55.2384975158959719
 20
95.9995264586499246
 30
0.0
  0
VERTEX
  5
2B7E
  8
0
 10
55.2808419996782732
 20
95.9989734616614356
 30
0.0
  0
VERTEX
  5
2B7F
  8
0
 10
55.3231852646643389
 20
95.99826155346571
 30
0.0
  0
VERTEX
  5
2B80
  8
0
 10
55.3655267014560195
 20
95.9973112784591081
 30
0.0
  0
VERTEX
  5
2B81
  8
0
 10
55.407865700655293
 20
95.9960431810380044
 30
0.0
  0
VERTEX
  5
2B82
  8
0
 10
55.450202150491009
 20
95.994390110614475
 30
0.0
  0
VERTEX
  5
2B83
  8
0
 10
55.4925386400253089
 20
95.9923517011408336
 30
0.0
  0
VERTEX
  5
2B84
  8
0
 10
55.5348786702775783
 20
95.9899501368878276
 30
0.0
  0
VERTEX
  5
2B85
  8
0
 10
55.5772257429757133
 20
95.9872076196485438
 30
0.0
  0
VERTEX
  5
2B86
  8
0
 10
55.619583359847752
 20
95.984146351216026
 30
0.0
  0
VERTEX
  5
2B87
  8
0
 10
55.6619542397338023
 20
95.9807861693654303
 30
0.0
  0
VERTEX
  5
2B88
  8
0
 10
55.7043357431525124
 20
95.9771307318189315
 30
0.0
  0
VERTEX
  5
2B89
  8
0
 10
55.7467229867241372
 20
95.9731769205950513
 30
0.0
  0
VERTEX
  5
2B8A
  8
0
 10
55.7891110794566316
 20
95.9689215947264245
 30
0.0
  0
VERTEX
  5
2B8B
  8
0
 10
55.8314951303580074
 20
95.9643616132456572
 30
0.0
  0
VERTEX
  5
2B8C
  8
0
 10
55.8738703902395102
 20
95.9594946615026458
 30
0.0
  0
VERTEX
  5
2B8D
  8
0
 10
55.916233458914121
 20
95.9543262857565935
 30
0.0
  0
VERTEX
  5
2B8E
  8
0
 10
55.9585816826433984
 20
95.948866381977183
 30
0.0
  0
VERTEX
  5
2B8F
  8
0
 10
56.0009124155856668
 20
95.9431248921507347
 30
0.0
  0
VERTEX
  5
2B90
  8
0
 10
56.0432230118994994
 20
95.937111758263697
 30
0.0
  0
VERTEX
  5
2B91
  8
0
 10
56.0855109374279621
 20
95.9308365301462942
 30
0.0
  0
VERTEX
  5
2B92
  8
0
 10
56.1277757301449398
 20
95.9243014817981674
 30
0.0
  0
VERTEX
  5
2B93
  8
0
 10
56.1700187568733895
 20
95.9175024656188668
 30
0.0
  0
VERTEX
  5
2B94
  8
0
 10
56.2122414472263472
 20
95.9104351135339357
 30
0.0
  0
VERTEX
  5
2B95
  8
0
 10
56.254445230816998
 20
95.9030950574688887
 30
0.0
  0
VERTEX
  5
2B96
  8
0
 10
56.2966315372583992
 20
95.895477929349255
 30
0.0
  0
VERTEX
  5
2B97
  8
0
 10
56.3388017961636933
 20
95.8875793611005633
 30
0.0
  0
VERTEX
  5
2B98
  8
0
 10
56.3809574371459803
 20
95.8793949846483144
 30
0.0
  0
VERTEX
  5
2B99
  8
0
 10
56.4230998898183884
 20
95.8709204319180373
 30
0.0
  0
VERTEX
  5
2B9A
  8
0
 10
56.4652305837940389
 20
95.8621513348352465
 30
0.0
  0
VERTEX
  5
2B9B
  8
0
 10
56.5073509419875109
 20
95.8530837559844855
 30
0.0
  0
VERTEX
  5
2B9C
  8
0
 10
56.5494621636337413
 20
95.8437281387282951
 30
0.0
  0
VERTEX
  5
2B9D
  8
0
 10
56.5915651770221189
 20
95.834112346018884
 30
0.0
  0
VERTEX
  5
2B9E
  8
0
 10
56.6336608941812685
 20
95.8242652862399638
 30
0.0
  0
VERTEX
  5
2B9F
  8
0
 10
56.6757502271399289
 20
95.8142158677751752
 30
0.0
  0
VERTEX
  5
2BA0
  8
0
 10
56.7178340879266329
 20
95.8039929990082442
 30
0.0
  0
VERTEX
  5
2BA1
  8
0
 10
56.7599133885700624
 20
95.793625588322854
 30
0.0
  0
VERTEX
  5
2BA2
  8
0
 10
56.8019890410989206
 20
95.7831425441027164
 30
0.0
  0
VERTEX
  5
2BA3
  8
0
 10
56.8440619575418395
 20
95.7725727747314721
 30
0.0
  0
VERTEX
  5
2BA4
  8
0
 10
56.8861330499274231
 20
95.7619451885928754
 30
0.0
  0
VERTEX
  5
2BA5
  8
0
 10
56.9282032302843888
 20
95.751288694070567
 30
0.0
  0
SEQEND
  5
2BA6
  8
0
  0
POLYLINE
  5
26CA
  8
0
 66
     1
 10
0.0
 20
0.0
 30
0.0
  0
VERTEX
  5
2BA7
  8
0
 10
56.9282032302843888
 20
91.2487113059990378
 30
0.0
  0
VERTEX
  5
2BA8
  8
0
 10
56.8789476276591017
 20
91.2360100033377819
 30
0.0
  0
VERTEX
  5
2BA9
  8
0
 10
56.8296885290824321
 20
91.2233735533953762
 30
0.0
  0
VERTEX
  5
2BAA
  8
0
 10
56.7804224386029475
 20
91.2108668088906001
 30
0.0
  0
VERTEX
  5
2BAB
  8
0
 10
56.7311458602693008
 20
91.1985546225423462
 30
0.0
  0
VERTEX
  5
2BAC
  8
0
 10
56.6818552981300101
 20
91.186501847069394
 30
0.0
  0
VERTEX
  5
2BAD
  8
0
 10
56.6325472562560321
 20
91.1747733349255043
 30
0.0
  0
VERTEX
  5
2BAE
  8
0
 10
56.5832193303037911
 20
91.1634208890407365
 30
0.0
  0
VERTEX
  5
2BAF
  8
0
 10
56.5338731301750315
 20
91.1524483234582732
 30
0.0
  0
VERTEX
  5
2BB0
  8
0
 10
56.4845111883013189
 20
91.1418484237015036
 30
0.0
  0
VERTEX
  5
2BB1
  8
0
 10
56.4351360371143187
 20
91.1316139752937602
 30
0.0
  0
VERTEX
  5
2BB2
  8
0
 10
56.3857502090455114
 20
91.1217377637584462
 30
0.0
  0
VERTEX
  5
2BB3
  8
0
 10
56.3363562252687302
 20
91.1122125843897237
 30
0.0
  0
VERTEX
  5
2BB4
  8
0
 10
56.2869542253437203
 20
91.103033299522167
 30
0.0
  0
VERTEX
  5
2BB5
  8
0
 10
56.2375390375986512
 20
91.0941993811919701
 30
0.0
  0
VERTEX
  5
2BB6
  8
0
 10
56.1881047720990523
 20
91.0857109248266852
 30
0.0
  0
VERTEX
  5
2BB7
  8
0
 10
56.1386455389104029
 20
91.0775680258539211
 30
0.0
  0
VERTEX
  5
2BB8
  8
0
 10
56.0891554480983814
 20
91.0697707797012583
 30
0.0
  0
VERTEX
  5
2BB9
  8
0
 10
56.0396288027840228
 20
91.062319660825267
 30
0.0
  0
VERTEX
  5
2BBA
  8
0
 10
55.9900653451648012
 20
91.0552258223071362
 30
0.0
  0
VERTEX
  5
2BBB
  8
0
 10
55.9404708771010633
 20
91.0485123142602077
 30
0.0
  0
VERTEX
  5
2BBC
  8
0
 10
55.8908515180805807
 20
91.0422028104004681
 30
0.0
  0
VERTEX
  5
2BBD
  8
0
 10
55.8412133875910968
 20
91.0363209844439041
 30
0.0
  0
VERTEX
  5
2BBE
  8
0
 10
55.7915626051201912
 20
91.0308905101064738
 30
0.0
  0
VERTEX
  5
2BBF
  8
0
 10
55.7419052901556711
 20
91.0259350611041782
 30
0.0
  0
VERTEX
  5
2BC0
  8
0
 10
55.6922475621851731
 20
91.0214783111529897
 30
0.0
  0
VERTEX
  5
2BC1
  8
0
 10
55.6425955406963908
 20
91.0175439339688808
 30
0.0
  0
VERTEX
  5
2BC2
  8
0
 10
55.5929549290730165
 20
91.0141508818579013
 30
0.0
  0
VERTEX
  5
2BC3
  8
0
 10
55.5433269330396229
 20
91.011267073520699
 30
0.0
  0
VERTEX
  5
2BC4
  8
0
 10
55.4937100101017222
 20
91.0088292444272469
 30
0.0
  0
VERTEX
  5
2BC5
  8
0
 10
55.4441025783885379
 20
91.0067736832569665
 30
0.0
  0
VERTEX
  5
2BC6
  8
0
 10
55.3945030560292295
 20
91.0050366786893363
 30
0.0
  0
VERTEX
  5
2BC7
  8
0
 10
55.3449098611530417
 20
91.0035545194038349
 30
0.0
  0
VERTEX
  5
2BC8
  8
0
 10
55.2953214118892333
 20
91.0022634940799264
 30
0.0
  0
VERTEX
  5
2BC9
  8
0
 10
55.2457361263669711
 20
91.0010998913970752
 30
0.0
  0
VERTEX
  5
2BCA
  8
0
 10
55.1961524227155493
 20
91.0000000000347455
 30
0.0
  0
SEQEND
  5
2BCB
  8
0
  0
POLYLINE
  5
26CB
  8
0
 66
     1
 10
0.0
 20
0.0
 30
0.0
  0
VERTEX
  5
2BCC
  8
0
 10
55.1961524227155493
 20
91.000000000034774
 30
0.0
  0
VERTEX
  5
2BCD
  8
0
 10
55.153726532708049
 20
91.0004735414196659
 30
0.0
  0
VERTEX
  5
2BCE
  8
0
 10
55.1113012368402906
 20
91.0010265384081833
 30
0.0
  0
VERTEX
  5
2BCF
  8
0
 10
55.06887712925203
 20
91.0017384466039374
 30
0.0
  0
VERTEX
  5
2BD0
  8
0
 10
55.0264548040830803
 20
91.0026887216106104
 30
0.0
  0
VERTEX
  5
2BD1
  8
0
 10
54.984034855473169
 20
91.0039568190317851
 30
0.0
  0
VERTEX
  5
2BD2
  8
0
 10
54.9416183679496228
 20
91.0056098894553855
 30
0.0
  0
VERTEX
  5
2BD3
  8
0
 10
54.8992090875814327
 20
91.0076482989290838
 30
0.0
  0
VERTEX
  5
2BD4
  8
0
 10
54.8568116591276294
 20
91.0100498631821608
 30
0.0
  0
VERTEX
  5
2BD5
  8
0
 10
54.8144307280456289
 20
91.0127923804215158
 30
0.0
  0
VERTEX
  5
2BD6
  8
0
 10
54.7720709397929681
 20
91.0158536488541046
 30
0.0
  0
VERTEX
  5
2BD7
  8
0
 10
54.7297361580536403
 20
91.0192138307047429
 30
0.0
  0
VERTEX
  5
2BD8
  8
0
 10
54.6874248958199587
 20
91.0228692682512843
 30
0.0
  0
VERTEX
  5
2BD9
  8
0
 10
54.6451334253803793
 20
91.0268230794751929
 30
0.0
  0
VERTEX
  5
2BDA
  8
0
 10
54.602858011422029
 20
91.031078405343834
 30
0.0
  0
VERTEX
  5
2BDB
  8
0
 10
54.5605949186320416
 20
91.0356383868245445
 30
0.0
  0
VERTEX
  5
2BDC
  8
0
 10
54.5183404779297121
 20
91.0405053385674847
 30
0.0
  0
VERTEX
  5
2BDD
  8
0
 10
54.4760916503130872
 20
91.0456737143134234
 30
0.0
  0
VERTEX
  5
2BDE
  8
0
 10
54.433845745424378
 20
91.0511336180927344
 30
0.0
  0
VERTEX
  5
2BDF
  8
0
 10
54.391600076594159
 20
91.0568751079190406
 30
0.0
  0
VERTEX
  5
2BE0
  8
0
 10
54.3493519571530328
 20
91.0628882418059646
 30
0.0
  0
VERTEX
  5
2BE1
  8
0
 10
54.3070988578951415
 20
91.0691634699232111
 30
0.0
  0
VERTEX
  5
2BE2
  8
0
 10
54.2648411710970322
 20
91.0756985182712526
 30
0.0
  0
VERTEX
  5
2BE3
  8
0
 10
54.2225818675166167
 20
91.0824975344504679
 30
0.0
  0
VERTEX
  5
2BE4
  8
0
 10
54.1803240064393705
 20
91.0895648865353138
 30
0.0
  0
VERTEX
  5
2BE5
  8
0
 10
54.1380706471507622
 20
91.0969049426003039
 30
0.0
  0
VERTEX
  5
2BE6
  8
0
 10
54.09582484893604
 20
91.1045220707198951
 30
0.0
  0
VERTEX
  5
2BE7
  8
0
 10
54.0535896710808288
 20
91.1124206389685583
 30
0.0
  0
VERTEX
  5
2BE8
  8
0
 10
54.0113681728704478
 20
91.1206050154207929
 30
0.0
  0
VERTEX
  5
2BE9
  8
0
 10
53.9691634135903726
 20
91.1290795681510701
 30
0.0
  0
VERTEX
  5
2BEA
  8
0
 10
53.9269784525259794
 20
91.1378486652338466
 30
0.0
  0
VERTEX
  5
2BEB
  8
0
 10
53.8848162788211766
 20
91.1469162440846361
 30
0.0
  0
VERTEX
  5
2BEC
  8
0
 10
53.8426775394199808
 20
91.1562718613408549
 30
0.0
  0
VERTEX
  5
2BED
  8
0
 10
53.8005600441347198
 20
91.1658876540502945
 30
0.0
  0
VERTEX
  5
2BEE
  8
0
 10
53.7584614325080565
 20
91.1757347138292715
 30
0.0
  0
VERTEX
  5
2BEF
  8
0
 10
53.7163793440826609
 20
91.1857841322941027
 30
0.0
  0
VERTEX
  5
2BF0
  8
0
 10
53.674311418401139
 20
91.1960070010610764
 30
0.0
  0
VERTEX
  5
2BF1
  8
0
 10
53.6322552950063027
 20
91.206374411746495
 30
0.0
  0
VERTEX
  5
2BF2
  8
0
 10
53.5902086134407227
 20
91.216857455966732
 30
0.0
  0
VERTEX
  5
2BF3
  8
0
 10
53.5481690132471613
 20
91.2274272253380047
 30
0.0
  0
VERTEX
  5
2BF4
  8
0
 10
53.5061341339682031
 20
91.2380548114766867
 30
0.0
  0
VERTEX
  5
2BF5
  8
0
 10
53.4641016151466033
 20
91.2487113059990378
 30
0.0
  0
SEQEND
  5
2BF6
  8
0
  0
POLYLINE
  5
26CC
  8
0
 66
     1
 10
0.0
 20
0.0
 30
0.0
  0
VERTEX
  5
2BF7
  8
0
 10
44.8038475773023421
 20
96.0000000000348166
 30
0.0
  0
VERTEX
  5
2BF8
  8
0
 10
44.8462734673099703
 20
95.9995264586499246
 30
0.0
  0
VERTEX
  5
2BF9
  8
0
 10
44.8886987631778425
 20
95.9989734616614641
 30
0.0
  0
VERTEX
  5
2BFA
  8
0
 10
44.9311228707662735
 20
95.9982615534657384
 30
0.0
  0
VERTEX
  5
2BFB
  8
0
 10
44.9735451959354009
 20
95.9973112784591365
 30
0.0
  0
VERTEX
  5
2BFC
  8
0
 10
45.0159651445455893
 20
95.9960431810380754
 30
0.0
  0
VERTEX
  5
2BFD
  8
0
 10
45.0583816320694197
 20
95.9943901106145745
 30
0.0
  0
VERTEX
  5
2BFE
  8
0
 10
45.1007909124379509
 20
95.9923517011409757
 30
0.0
  0
VERTEX
  5
2BFF
  8
0
 10
45.1431883408920385
 20
95.9899501368880124
 30
0.0
  0
VERTEX
  5
2C00
  8
0
 10
45.1855692719743089
 20
95.9872076196487569
 30
0.0
  0
VERTEX
  5
2C01
  8
0
 10
45.2279290602273178
 20
95.9841463512162534
 30
0.0
  0
VERTEX
  5
2C02
  8
0
 10
45.2702638419668801
 20
95.9807861693656577
 30
0.0
  0
VERTEX
  5
2C03
  8
0
 10
45.3125751042007821
 20
95.9771307318191873
 30
0.0
  0
VERTEX
  5
2C04
  8
0
 10
45.3548665746404822
 20
95.9731769205953356
 30
0.0
  0
VERTEX
  5
2C05
  8
0
 10
45.3971419885988325
 20
95.9689215947267087
 30
0.0
  0
VERTEX
  5
2C06
  8
0
 10
45.4394050813887134
 20
95.9643616132459272
 30
0.0
  0
VERTEX
  5
2C07
  8
0
 10
45.4816595220906876
 20
95.9594946615028732
 30
0.0
  0
VERTEX
  5
2C08
  8
0
 10
45.5239083497068577
 20
95.9543262857567925
 30
0.0
  0
VERTEX
  5
2C09
  8
0
 10
45.5661542545949985
 20
95.9488663819773251
 30
0.0
  0
VERTEX
  5
2C0A
  8
0
 10
45.6083999234245425
 20
95.9431248921508342
 30
0.0
  0
VERTEX
  5
2C0B
  8
0
 10
45.6506480428649866
 20
95.9371117582637112
 30
0.0
  0
VERTEX
  5
2C0C
  8
0
 10
45.6929011421223592
 20
95.9308365301462942
 30
0.0
  0
VERTEX
  5
2C0D
  8
0
 10
45.7351588289199569
 20
95.9243014817980963
 30
0.0
  0
VERTEX
  5
2C0E
  8
0
 10
45.7774181324999176
 20
95.9175024656187531
 30
0.0
  0
VERTEX
  5
2C0F
  8
0
 10
45.8196759935767588
 20
95.9104351135337936
 30
0.0
  0
VERTEX
  5
2C10
  8
0
 10
45.8619293528650971
 20
95.9030950574687324
 30
0.0
  0
VERTEX
  5
2C11
  8
0
 10
45.904175151079528
 20
95.8954779293490844
 30
0.0
  0
VERTEX
  5
2C12
  8
0
 10
45.9464103289345687
 20
95.8875793611003644
 30
0.0
  0
VERTEX
  5
2C13
  8
0
 10
45.9886318271448431
 20
95.8793949846481155
 30
0.0
  0
VERTEX
  5
2C14
  8
0
 10
46.0308365864248685
 20
95.8709204319178383
 30
0.0
  0
VERTEX
  5
2C15
  8
0
 10
46.0730215474892404
 20
95.8621513348350618
 30
0.0
  0
VERTEX
  5
2C16
  8
0
 10
46.1151837211941071
 20
95.8530837559843008
 30
0.0
  0
VERTEX
  5
2C17
  8
0
 10
46.1573224605953598
 20
95.8437281387281246
 30
0.0
  0
VERTEX
  5
2C18
  8
0
 10
46.1994399558807913
 20
95.8341123460187276
 30
0.0
  0
VERTEX
  5
2C19
  8
0
 10
46.2415385675076323
 20
95.8242652862398074
 30
0.0
  0
VERTEX
  5
2C1A
  8
0
 10
46.2836206559332979
 20
95.8142158677750331
 30
0.0
  0
VERTEX
  5
2C1B
  8
0
 10
46.3256885816149975
 20
95.8039929990081305
 30
0.0
  0
VERTEX
  5
2C1C
  8
0
 10
46.3677447050101819
 20
95.7936255883227545
 30
0.0
  0
VERTEX
  5
2C1D
  8
0
 10
46.4097913865760532
 20
95.7831425441026454
 30
0.0
  0
VERTEX
  5
2C1E
  8
0
 10
46.4518309867699415
 20
95.7725727747314153
 30
0.0
  0
VERTEX
  5
2C1F
  8
0
 10
46.4938658660492479
 20
95.761945188592847
 30
0.0
  0
VERTEX
  5
2C20
  8
0
 10
46.5358983848711887
 20
95.7512886940705528
 30
0.0
  0
SEQEND
  5
2C21
  8
0
  0
POLYLINE
  5
26CD
  8
0
 66
     1
 10
0.0
 20
0.0
 30
0.0
  0
VERTEX
  5
2C22
  8
0
 10
46.5358983848711887
 20
91.2487113059990378
 30
0.0
  0
VERTEX
  5
2C23
  8
0
 10
46.4866667572806023
 20
91.2360100033377961
 30
0.0
  0
VERTEX
  5
2C24
  8
0
 10
46.4374307762248009
 20
91.2233735533953904
 30
0.0
  0
VERTEX
  5
2C25
  8
0
 10
46.3881860882385624
 20
91.2108668088906427
 30
0.0
  0
VERTEX
  5
2C26
  8
0
 10
46.3389283398565723
 20
91.1985546225423889
 30
0.0
  0
VERTEX
  5
2C27
  8
0
 10
46.2896531776136726
 20
91.1865018470694793
 30
0.0
  0
VERTEX
  5
2C28
  8
0
 10
46.2403562480610617
 20
91.1747733349256464
 30
0.0
  0
VERTEX
  5
2C29
  8
0
 10
46.1910340120377327
 20
91.163420889040907
 30
0.0
  0
VERTEX
  5
2C2A
  8
0
 10
46.1416859248792477
 20
91.1524483234584864
 30
0.0
  0
VERTEX
  5
2C2B
  8
0
 10
46.0923121300985983
 20
91.141848423701731
 30
0.0
  0
VERTEX
  5
2C2C
  8
0
 10
46.0429127712086412
 20
91.131613975294016
 30
0.0
  0
VERTEX
  5
2C2D
  8
0
 10
45.9934879917223469
 20
91.1217377637587163
 30
0.0
  0
VERTEX
  5
2C2E
  8
0
 10
45.9440379431347807
 20
91.1122125843899653
 30
0.0
  0
VERTEX
  5
2C2F
  8
0
 10
45.8945644655776093
 20
91.1030332995223944
 30
0.0
  0
VERTEX
  5
2C30
  8
0
 10
45.8450731650065677
 20
91.0941993811921549
 30
0.0
  0
VERTEX
  5
2C31
  8
0
 10
45.7955701566473934
 20
91.0857109248268131
 30
0.0
  0
VERTEX
  5
2C32
  8
0
 10
45.7460615557258095
 20
91.0775680258540206
 30
0.0
  0
VERTEX
  5
2C33
  8
0
 10
45.6965534774674822
 20
91.0697707797012868
 30
0.0
  0
VERTEX
  5
2C34
  8
0
 10
45.6470518647804511
 20
91.0623196608252243
 30
0.0
  0
VERTEX
  5
2C35
  8
0
 10
45.5975578057536879
 20
91.055225822307051
 30
0.0
  0
VERTEX
  5
2C36
  8
0
 10
45.5480669797334983
 20
91.0485123142600941
 30
0.0
  0
VERTEX
  5
2C37
  8
0
 10
45.4985747825578528
 20
91.0422028104003118
 30
0.0
  0
VERTEX
  5
2C38
  8
0
 10
45.4490766100647079
 20
91.0363209844437051
 30
0.0
  0
VERTEX
  5
2C39
  8
0
 10
45.3995678580920909
 20
91.0308905101062749
 30
0.0
  0
VERTEX
  5
2C3A
  8
0
 10
45.3500439224779868
 20
91.0259350611039508
 30
0.0
  0
VERTEX
  5
2C3B
  8
0
 10
45.3005001990603589
 20
91.0214783111527339
 30
0.0
  0
VERTEX
  5
2C3C
  8
0
 10
45.2509320836772986
 20
91.0175439339686392
 30
0.0
  0
VERTEX
  5
2C3D
  8
0
 10
45.2013354102400129
 20
91.0141508818576881
 30
0.0
  0
VERTEX
  5
2C3E
  8
0
 10
45.1517107477841932
 20
91.0112670735205143
 30
0.0
  0
VERTEX
  5
2C3F
  8
0
 10
45.1020615586638201
 20
91.0088292444270479
 30
0.0
  0
VERTEX
  5
2C40
  8
0
 10
45.0523913466881183
 20
91.0067736832568244
 30
0.0
  0
VERTEX
  5
2C41
  8
0
 10
45.0027036156662916
 20
91.0050366786891942
 30
0.0
  0
VERTEX
  5
2C42
  8
0
 10
44.9530018694075508
 20
91.0035545194037354
 30
0.0
  0
VERTEX
  5
2C43
  8
0
 10
44.9032896117212204
 20
91.0022634940798838
 30
0.0
  0
VERTEX
  5
2C44
  8
0
 10
44.8535703464163973
 20
91.0010998913970468
 30
0.0
  0
VERTEX
  5
2C45
  8
0
 10
44.8038475773023421
 20
91.000000000034774
 30
0.0
  0
SEQEND
  5
2C46
  8
0
  0
POLYLINE
  5
26CE
  8
0
 66
     1
 10
0.0
 20
0.0
 30
0.0
  0
VERTEX
  5
2C47
  8
0
 10
53.4641016151466033
 20
95.751288694070567
 30
0.0
  0
VERTEX
  5
2C48
  8
0
 10
53.5133332427373034
 20
95.7639899967317945
 30
0.0
  0
VERTEX
  5
2C49
  8
0
 10
53.5625692237932185
 20
95.7766264466741859
 30
0.0
  0
VERTEX
  5
2C4A
  8
0
 10
53.6118139117796204
 20
95.789133191178891
 30
0.0
  0
VERTEX
  5
2C4B
  8
0
 10
53.661071660161717
 20
95.8014453775271022
 30
0.0
  0
VERTEX
  5
2C4C
  8
0
 10
53.7103468224048015
 20
95.813498152999955
 30
0.0
  0
VERTEX
  5
2C4D
  8
0
 10
53.7596437519575332
 20
95.8252266651437736
 30
0.0
  0
VERTEX
  5
2C4E
  8
0
 10
53.8089659879810185
 20
95.8365791110284135
 30
0.0
  0
VERTEX
  5
2C4F
  8
0
 10
53.8583140751397309
 20
95.8475516766107631
 30
0.0
  0
VERTEX
  5
2C50
  8
0
 10
53.9076878699206077
 20
95.8581515763674759
 30
0.0
  0
VERTEX
  5
2C51
  8
0
 10
53.9570872288106713
 20
95.868386024775134
 30
0.0
  0
VERTEX
  5
2C52
  8
0
 10
54.0065120082970225
 20
95.8782622363104196
 30
0.0
  0
VERTEX
  5
2C53
  8
0
 10
54.0559620568844821
 20
95.8877874156791847
 30
0.0
  0
VERTEX
  5
2C54
  8
0
 10
54.1054355344415399
 20
95.8969667005468125
 30
0.0
  0
VERTEX
  5
2C55
  8
0
 10
54.1549268350123114
 20
95.9058006188771088
 30
0.0
  0
VERTEX
  5
2C56
  8
0
 10
54.2044298433712015
 20
95.9142890752425075
 30
0.0
  0
VERTEX
  5
2C57
  8
0
 10
54.2539384442924799
 20
95.9224319742154279
 30
0.0
  0
VERTEX
  5
2C58
  8
0
 10
54.3034465225504803
 20
95.9302292203682612
 30
0.0
  0
VERTEX
  5
2C59
  8
0
 10
54.3529481352372912
 20
95.9376803392443946
 30
0.0
  0
VERTEX
  5
2C5A
  8
0
 10
54.4024421942637488
 20
95.9447741777626533
 30
0.0
  0
VERTEX
  5
2C5B
  8
0
 10
54.4519330202837111
 20
95.9514876858096954
 30
0.0
  0
VERTEX
  5
2C5C
  8
0
 10
54.5014252174591434
 20
95.9577971896695345
 30
0.0
  0
VERTEX
  5
2C5D
  8
0
 10
54.5509233899521107
 20
95.9636790156261839
 30
0.0
  0
VERTEX
  5
2C5E
  8
0
 10
54.6004321419246068
 20
95.969109489963671
 30
0.0
  0
VERTEX
  5
2C5F
  8
0
 10
54.6499560775385973
 20
95.974064938965995
 30
0.0
  0
VERTEX
  5
2C60
  8
0
 10
54.6994998009561186
 20
95.9785216889171835
 30
0.0
  0
VERTEX
  5
2C61
  8
0
 10
54.7490679163392429
 20
95.9824560661013066
 30
0.0
  0
VERTEX
  5
2C62
  8
0
 10
54.7986645897764788
 20
95.9858491182122435
 30
0.0
  0
VERTEX
  5
2C63
  8
0
 10
54.8482892522323482
 20
95.9887329265493889
 30
0.0
  0
VERTEX
  5
2C64
  8
0
 10
54.8979384413528422
 20
95.9911707556427842
 30
0.0
  0
VERTEX
  5
2C65
  8
0
 10
54.9476086533287003
 20
95.9932263168130078
 30
0.0
  0
VERTEX
  5
2C66
  8
0
 10
54.9972963843506975
 20
95.9949633213805669
 30
0.0
  0
VERTEX
  5
2C67
  8
0
 10
55.0469981306096088
 20
95.996445480665983
 30
0.0
  0
VERTEX
  5
2C68
  8
0
 10
55.0967103882961666
 20
95.9977365059898062
 30
0.0
  0
VERTEX
  5
2C69
  8
0
 10
55.14642965360121
 20
95.9989001086725864
 30
0.0
  0
VERTEX
  5
2C6A
  8
0
 10
55.1961524227155493
 20
96.0000000000347882
 30
0.0
  0
SEQEND
  5
2C6B
  8
0
  0
POLYLINE
  5
26CF
  8
0
 66
     1
 10
0.0
 20
0.0
 30
0.0
  0
VERTEX
  5
2C6C
  8
0
 10
50.0000000000088676
 20
96.0000000000348166
 30
0.0
  0
VERTEX
  5
2C6D
  8
0
 10
50.0847709564230286
 20
95.9995260863285012
 30
0.0
  0
VERTEX
  5
2C6E
  8
0
 10
50.1695407078622608
 20
95.9989726663918219
 30
0.0
  0
VERTEX
  5
2C6F
  8
0
 10
50.2543080493517778
 20
95.9982602339943867
 30
0.0
  0
VERTEX
  5
2C70
  8
0
 10
50.3390717759167501
 20
95.997309282905789
 30
0.0
  0
VERTEX
  5
2C71
  8
0
 10
50.4238306825822065
 20
95.9960403068956651
 30
0.0
  0
VERTEX
  5
2C72
  8
0
 10
50.5085835718086784
 20
95.9943861425952463
 30
0.0
  0
VERTEX
  5
2C73
  8
0
 10
50.5933292863331303
 20
95.9923464873494936
 30
0.0
  0
VERTEX
  5
2C74
  8
0
 10
50.6780666824670902
 20
95.9899435728009536
 30
0.0
  0
VERTEX
  5
2C75
  8
0
 10
50.762794616532517
 20
95.9871996478042746
 30
0.0
  0
VERTEX
  5
2C76
  8
0
 10
50.8475119448513624
 20
95.9841369612141762
 30
0.0
  0
VERTEX
  5
2C77
  8
0
 10
50.932217522899812
 20
95.9807753923672919
 30
0.0
  0
VERTEX
  5
2C78
  8
0
 10
51.0169102003744115
 20
95.9771186266623033
 30
0.0
  0
VERTEX
  5
2C79
  8
0
 10
51.1015888245544829
 20
95.9731635768826266
 30
0.0
  0
VERTEX
  5
2C7A
  8
0
 10
51.1862522427110775
 20
95.9689071329925838
 30
0.0
  0
VERTEX
  5
2C7B
  8
0
 10
51.2708993021154313
 20
95.9643461849564829
 30
0.0
  0
VERTEX
  5
2C7C
  8
0
 10
51.3555289253883416
 20
95.9594784457486014
 30
0.0
  0
VERTEX
  5
2C7D
  8
0
 10
51.4401407532997084
 20
95.9543094723567265
 30
0.0
  0
VERTEX
  5
2C7E
  8
0
 10
51.5247348245842431
 20
95.9488491685555118
 30
0.0
  0
VERTEX
  5
2C7F
  8
0
 10
51.6093111822072004
 20
95.9431074843273848
 30
0.0
  0
VERTEX
  5
2C80
  8
0
 10
51.6938698691336569
 20
95.9370943696548153
 30
0.0
  0
VERTEX
  5
2C81
  8
0
 10
51.7784108830354626
 20
95.930819386457955
 30
0.0
  0
VERTEX
  5
2C82
  8
0
 10
51.8629333724113124
 20
95.9242848211732166
 30
0.0
  0
VERTEX
  5
2C83
  8
0
 10
51.9474357315223187
 20
95.917486498132547
 30
0.0
  0
VERTEX
  5
2C84
  8
0
 10
52.0319163284068509
 20
95.9104200169985859
 30
0.0
  0
VERTEX
  5
2C85
  8
0
 10
52.1163735311032994
 20
95.9030809774340156
 30
0.0
  0
VERTEX
  5
2C86
  8
0
 10
52.2008057076500904
 20
95.8954649791014049
 30
0.0
  0
VERTEX
  5
2C87
  8
0
 10
52.2852112260854867
 20
95.8875676216634361
 30
0.0
  0
VERTEX
  5
2C88
  8
0
 10
52.3695884544479213
 20
95.8793845047827631
 30
0.0
  0
VERTEX
  5
2C89
  8
0
 10
52.4539357607757211
 20
95.8709112281220257
 30
0.0
  0
VERTEX
  5
2C8A
  8
0
 10
52.5382515131072978
 20
95.8621433913438352
 30
0.0
  0
VERTEX
  5
2C8B
  8
0
 10
52.622534141883591
 20
95.8530770179957301
 30
0.0
  0
VERTEX
  5
2C8C
  8
0
 10
52.7067841897338596
 20
95.8437224791785098
 30
0.0
  0
VERTEX
  5
2C8D
  8
0
 10
52.7910047742607773
 20
95.8341076371269764
 30
0.0
  0
VERTEX
  5
2C8E
  8
0
 10
52.8751991691669332
 20
95.824261414422736
 30
0.0
  0
VERTEX
  5
2C8F
  8
0
 10
52.959370648154902
 20
95.8142127336473663
 30
0.0
  0
VERTEX
  5
2C90
  8
0
 10
53.0435224849273297
 20
95.8039905173824735
 30
0.0
  0
VERTEX
  5
2C91
  8
0
 10
53.1276579531867696
 20
95.793623688209621
 30
0.0
  0
VERTEX
  5
2C92
  8
0
 10
53.2117803266358464
 20
95.7831411687104151
 30
0.0
  0
VERTEX
  5
2C93
  8
0
 10
53.2958928789770994
 20
95.7725718814664333
 30
0.0
  0
VERTEX
  5
2C94
  8
0
 10
53.3799988839132311
 20
95.7619447490592961
 30
0.0
  0
VERTEX
  5
2C95
  8
0
 10
53.464101615146717
 20
95.7512886940705528
 30
0.0
  0
SEQEND
  5
2C96
  8
0
  0
POLYLINE
  5
26D0
  8
0
 66
     1
 10
0.0
 20
0.0
 30
0.0
  0
VERTEX
  5
2C97
  8
0
 10
46.5358983848711887
 20
95.7512886940705528
 30
0.0
  0
VERTEX
  5
2C98
  8
0
 10
46.6343853158618913
 20
95.763992034270828
 30
0.0
  0
VERTEX
  5
2C99
  8
0
 10
46.7328801288074871
 20
95.7766302908143814
 30
0.0
  0
VERTEX
  5
2C9A
  8
0
 10
46.8313907056628409
 20
95.7891383800444345
 30
0.0
  0
VERTEX
  5
2C9B
  8
0
 10
46.9299249283829383
 20
95.8014512183042939
 30
0.0
  0
VERTEX
  5
2C9C
  8
0
 10
47.0284906789225374
 20
95.8135037219372236
 30
0.0
  0
VERTEX
  5
2C9D
  8
0
 10
47.1270958389735597
 20
95.8252308090880831
 30
0.0
  0
VERTEX
  5
2C9E
  8
0
 10
47.2257462353625783
 20
95.8365814681442743
 30
0.0
  0
VERTEX
  5
2C9F
  8
0
 10
47.3244406818814625
 20
95.8475527077250149
 30
0.0
  0
VERTEX
  5
2CA0
  8
0
 10
47.4231764974945165
 20
95.8581517719571394
 30
0.0
  0
VERTEX
  5
2CA1
  8
0
 10
47.5219510011659096
 20
95.868385904967397
 30
0.0
  0
VERTEX
  5
2CA2
  8
0
 10
47.6207615118599321
 20
95.8782623508826077
 30
0.0
  0
VERTEX
  5
2CA3
  8
0
 10
47.7196053549174621
 20
95.8877883349498745
 30
0.0
  0
VERTEX
  5
2CA4
  8
0
 10
47.8184806319337099
 20
95.8969687841162681
 30
0.0
  0
VERTEX
  5
2CA5
  8
0
 10
47.9173869546286824
 20
95.9058041542174493
 30
0.0
  0
VERTEX
  5
2CA6
  8
0
 10
48.0163241085787718
 20
95.914294386342732
 30
0.0
  0
VERTEX
  5
2CA7
  8
0
 10
48.1152918793603703
 20
95.9224394215813447
 30
0.0
  0
VERTEX
  5
2CA8
  8
0
 10
48.2142900525498135
 20
95.9302392010225731
 30
0.0
  0
VERTEX
  5
2CA9
  8
0
 10
48.313318381130621
 20
95.9376930744198262
 30
0.0
  0
VERTEX
  5
2CAA
  8
0
 10
48.4123759701760719
 20
95.9447886364262104
 30
0.0
  0
VERTEX
  5
2CAB
  8
0
 10
48.511461328780797
 20
95.9515026687963797
 30
0.0
  0
VERTEX
  5
2CAC
  8
0
 10
48.6105729438556793
 20
95.9578115508019351
 30
0.0
  0
VERTEX
  5
2CAD
  8
0
 10
48.7097093023115804
 20
95.9636916617145346
 30
0.0
  0
VERTEX
  5
2CAE
  8
0
 10
48.8088688910592623
 20
95.9691193808057506
 30
0.0
  0
VERTEX
  5
2CAF
  8
0
 10
48.9080501970096932
 20
95.9740710873471841
 30
0.0
  0
VERTEX
  5
2CB0
  8
0
 10
49.0072517070736424
 20
95.9785231606104929
 30
0.0
  0
VERTEX
  5
2CB1
  8
0
 10
49.1064719081619501
 20
95.982451979867264
 30
0.0
  0
VERTEX
  5
2CB2
  8
0
 10
49.2057092614228395
 20
95.9858394201968963
 30
0.0
  0
VERTEX
  5
2CB3
  8
0
 10
49.3049619828148593
 20
95.9887196614335352
 30
0.0
  0
VERTEX
  5
2CB4
  8
0
 10
49.404228152579428
 20
95.991155835167433
 30
0.0
  0
VERTEX
  5
2CB5
  8
0
 10
49.5035058495203728
 20
95.9932113796132285
 30
0.0
  0
VERTEX
  5
2CB6
  8
0
 10
49.6027931524416772
 20
95.9949497329856456
 30
0.0
  0
VERTEX
  5
2CB7
  8
0
 10
49.7020881401472181
 20
95.9964343334992947
 30
0.0
  0
VERTEX
  5
2CB8
  8
0
 10
49.801388891440979
 20
95.9977286193689565
 30
0.0
  0
VERTEX
  5
2CB9
  8
0
 10
49.9006934851269008
 20
95.998896028809213
 30
0.0
  0
VERTEX
  5
2CBA
  8
0
 10
50.0000000000088676
 20
96.0000000000348308
 30
0.0
  0
SEQEND
  5
2CBB
  8
0
  0
POLYLINE
  5
26D1
  8
0
 66
     1
 10
0.0
 20
0.0
 30
0.0
  0
VERTEX
  5
2CBC
  8
0
 10
50.0000000000088676
 20
91.000000000034774
 30
0.0
  0
VERTEX
  5
2CBD
  8
0
 10
49.9152290435947634
 20
91.0004739137411036
 30
0.0
  0
VERTEX
  5
2CBE
  8
0
 10
49.8304592921555312
 20
91.0010273336777971
 30
0.0
  0
VERTEX
  5
2CBF
  8
0
 10
49.7456919506660071
 20
91.0017397660752465
 30
0.0
  0
VERTEX
  5
2CC0
  8
0
 10
49.6609282241010987
 20
91.0026907171638584
 30
0.0
  0
VERTEX
  5
2CC1
  8
0
 10
49.5761693174356424
 20
91.0039596931740249
 30
0.0
  0
VERTEX
  5
2CC2
  8
0
 10
49.4914164282091633
 20
91.0056138574744864
 30
0.0
  0
VERTEX
  5
2CC3
  8
0
 10
49.4066707136847185
 20
91.0076535127202533
 30
0.0
  0
VERTEX
  5
2CC4
  8
0
 10
49.3219333175507586
 20
91.0100564272687933
 30
0.0
  0
VERTEX
  5
2CC5
  8
0
 10
49.2372053834853318
 20
91.0128003522655149
 30
0.0
  0
VERTEX
  5
2CC6
  8
0
 10
49.1524880551664793
 20
91.015863038855656
 30
0.0
  0
VERTEX
  5
2CC7
  8
0
 10
49.0677824771180369
 20
91.0192246077025402
 30
0.0
  0
VERTEX
  5
2CC8
  8
0
 10
48.9830897996434373
 20
91.022881373407543
 30
0.0
  0
VERTEX
  5
2CC9
  8
0
 10
48.8984111754633588
 20
91.026836423187234
 30
0.0
  0
VERTEX
  5
2CCA
  8
0
 10
48.8137477573067073
 20
91.0310928670772483
 30
0.0
  0
VERTEX
  5
2CCB
  8
0
 10
48.7291006979023607
 20
91.035653815113335
 30
0.0
  0
VERTEX
  5
2CCC
  8
0
 10
48.6444710746294504
 20
91.0405215543211881
 30
0.0
  0
VERTEX
  5
2CCD
  8
0
 10
48.5598592467180765
 20
91.0456905277130062
 30
0.0
  0
VERTEX
  5
2CCE
  8
0
 10
48.475265175433492
 20
91.0511508315142066
 30
0.0
  0
VERTEX
  5
2CCF
  8
0
 10
48.3906888178105916
 20
91.0568925157422768
 30
0.0
  0
VERTEX
  5
2CD0
  8
0
 10
48.306130130884128
 20
91.0629056304148037
 30
0.0
  0
VERTEX
  5
2CD1
  8
0
 10
48.2215891169823294
 20
91.0691806136115929
 30
0.0
  0
VERTEX
  5
2CD2
  8
0
 10
48.1370666276064796
 20
91.0757151788962744
 30
0.0
  0
VERTEX
  5
2CD3
  8
0
 10
48.0525642684954732
 20
91.0825135019369014
 30
0.0
  0
VERTEX
  5
2CD4
  8
0
 10
47.9680836716109269
 20
91.0895799830708057
 30
0.0
  0
VERTEX
  5
2CD5
  8
0
 10
47.8836264689144215
 20
91.0969190226354044
 30
0.0
  0
VERTEX
  5
2CD6
  8
0
 10
47.7991942923677016
 20
91.1045350209679725
 30
0.0
  0
VERTEX
  5
2CD7
  8
0
 10
47.7147887739322982
 20
91.1124323784059129
 30
0.0
  0
VERTEX
  5
2CD8
  8
0
 10
47.6304115455698707
 20
91.1206154952865859
 30
0.0
  0
VERTEX
  5
2CD9
  8
0
 10
47.546064239242007
 20
91.1290887719473517
 30
0.0
  0
VERTEX
  5
2CDA
  8
0
 10
47.4617484869104302
 20
91.1378566087255422
 30
0.0
  0
VERTEX
  5
2CDB
  8
0
 10
47.377465858134201
 20
91.1469229820736331
 30
0.0
  0
VERTEX
  5
2CDC
  8
0
 10
47.2932158102839324
 20
91.1562775208908675
 30
0.0
  0
VERTEX
  5
2CDD
  8
0
 10
47.2089952257570076
 20
91.1658923629424436
 30
0.0
  0
VERTEX
  5
2CDE
  8
0
 10
47.1248008308508517
 20
91.175738585646684
 30
0.0
  0
VERTEX
  5
2CDF
  8
0
 10
47.0406293518628829
 20
91.1857872664220821
 30
0.0
  0
VERTEX
  5
2CE0
  8
0
 10
46.956477515090512
 20
91.1960094826870034
 30
0.0
  0
VERTEX
  5
2CE1
  8
0
 10
46.8723420468310721
 20
91.2063763118598843
 30
0.0
  0
VERTEX
  5
2CE2
  8
0
 10
46.7882196733820024
 20
91.2168588313591044
 30
0.0
  0
VERTEX
  5
2CE3
  8
0
 10
46.7041071210407424
 20
91.2274281186031146
 30
0.0
  0
VERTEX
  5
2CE4
  8
0
 10
46.6200011161046675
 20
91.2380552510102802
 30
0.0
  0
VERTEX
  5
2CE5
  8
0
 10
46.5358983848711887
 20
91.2487113059990378
 30
0.0
  0
SEQEND
  5
2CE6
  8
0
  0
POLYLINE
  5
26D2
  8
0
 66
     1
 10
0.0
 20
0.0
 30
0.0
  0
VERTEX
  5
2CE7
  8
0
 10
53.4641016151466602
 20
91.2487113059990378
 30
0.0
  0
VERTEX
  5
2CE8
  8
0
 10
53.3656146841559504
 20
91.2360079657987768
 30
0.0
  0
VERTEX
  5
2CE9
  8
0
 10
53.2671198712103475
 20
91.2233697092552518
 30
0.0
  0
VERTEX
  5
2CEA
  8
0
 10
53.1686092943549511
 20
91.2108616200251845
 30
0.0
  0
VERTEX
  5
2CEB
  8
0
 10
53.0700750716348466
 20
91.1985487817653393
 30
0.0
  0
VERTEX
  5
2CEC
  8
0
 10
52.9715093210951977
 20
91.1864962781324664
 30
0.0
  0
VERTEX
  5
2CED
  8
0
 10
52.8729041610441826
 20
91.1747691909816211
 30
0.0
  0
VERTEX
  5
2CEE
  8
0
 10
52.7742537646551497
 20
91.1634185319254584
 30
0.0
  0
VERTEX
  5
2CEF
  8
0
 10
52.6755593181362585
 20
91.1524472923447462
 30
0.0
  0
VERTEX
  5
2CF0
  8
0
 10
52.5768235025232116
 20
91.1418482281126643
 30
0.0
  0
VERTEX
  5
2CF1
  8
0
 10
52.4780489988518113
 20
91.1316140951024209
 30
0.0
  0
VERTEX
  5
2CF2
  8
0
 10
52.3792384881577888
 20
91.1217376491872244
 30
0.0
  0
VERTEX
  5
2CF3
  8
0
 10
52.280394645100273
 20
91.1122116651199434
 30
0.0
  0
VERTEX
  5
2CF4
  8
0
 10
52.1815193680840324
 20
91.103031215953564
 30
0.0
  0
VERTEX
  5
2CF5
  8
0
 10
52.0826130453891096
 20
91.0941958458522976
 30
0.0
  0
VERTEX
  5
2CF6
  8
0
 10
51.9836758914390202
 20
91.0857056137269865
 30
0.0
  0
VERTEX
  5
2CF7
  8
0
 10
51.8847081206574217
 20
91.0775605784883453
 30
0.0
  0
VERTEX
  5
2CF8
  8
0
 10
51.7857099474679785
 20
91.0697607990470601
 30
0.0
  0
VERTEX
  5
2CF9
  8
0
 10
51.6866816188871709
 20
91.0623069256497644
 30
0.0
  0
VERTEX
  5
2CFA
  8
0
 10
51.5876240298417201
 20
91.0552113636433234
 30
0.0
  0
VERTEX
  5
2CFB
  8
0
 10
51.4885386712369879
 20
91.0484973312731114
 30
0.0
  0
VERTEX
  5
2CFC
  8
0
 10
51.3894270561620985
 20
91.0421884492674991
 30
0.0
  0
VERTEX
  5
2CFD
  8
0
 10
51.2902906977062685
 20
91.0363083383548854
 30
0.0
  0
VERTEX
  5
2CFE
  8
0
 10
51.1911311089585865
 20
91.0308806192636553
 30
0.0
  0
VERTEX
  5
2CFF
  8
0
 10
51.0919498030082195
 20
91.0259289127221791
 30
0.0
  0
VERTEX
  5
2D00
  8
0
 10
50.9927482929442704
 20
91.0214768394588845
 30
0.0
  0
VERTEX
  5
2D01
  8
0
 10
50.8935280918558988
 20
91.0175480202021276
 30
0.0
  0
VERTEX
  5
2D02
  8
0
 10
50.794290738595123
 20
91.0141605798724953
 30
0.0
  0
VERTEX
  5
2D03
  8
0
 10
50.6950380172031032
 20
91.0112803386358564
 30
0.0
  0
VERTEX
  5
2D04
  8
0
 10
50.5957718474385274
 20
91.0088441649020155
 30
0.0
  0
VERTEX
  5
2D05
  8
0
 10
50.4964941504975968
 20
91.0067886204562058
 30
0.0
  0
VERTEX
  5
2D06
  8
0
 10
50.3972068475762924
 20
91.0050502670838455
 30
0.0
  0
VERTEX
  5
2D07
  8
0
 10
50.2979118598706805
 20
91.003565666570168
 30
0.0
  0
VERTEX
  5
2D08
  8
0
 10
50.1986111085768698
 20
91.0022713807005772
 30
0.0
  0
VERTEX
  5
2D09
  8
0
 10
50.0993065148909409
 20
91.0011039712603349
 30
0.0
  0
VERTEX
  5
2D0A
  8
0
 10
50.0000000000089173
 20
91.0000000000347455
 30
0.0
  0
SEQEND
  5
2D0B
  8
0
  0
POLYLINE
  5
26D3
  8
0
 66
     1
 10
0.0
 20
0.0
 30
0.0
  0
VERTEX
  5
2D0C
  8
0
 10
43.0717967697334814
 20
133.9999999999753015
 30
0.0
  0
VERTEX
  5
2D0D
  8
0
 10
43.1210523723584913
 20
133.9147144776563039
 30
0.0
  0
VERTEX
  5
2D0E
  8
0
 10
43.1703114709349265
 20
133.8294219100002067
 30
0.0
  0
VERTEX
  5
2D0F
  8
0
 10
43.2195775614141198
 20
133.7441152516697969
 30
0.0
  0
VERTEX
  5
2D10
  8
0
 10
43.2688541397474467
 20
133.6587874573280033
 30
0.0
  0
VERTEX
  5
2D11
  8
0
 10
43.3181447018863182
 20
133.5734314816376127
 30
0.0
  0
VERTEX
  5
2D12
  8
0
 10
43.3674527437599693
 20
133.4880402792936138
 30
0.0
  0
VERTEX
  5
2D13
  8
0
 10
43.4167806697117626
 20
133.4026083754760919
 30
0.0
  0
VERTEX
  5
2D14
  8
0
 10
43.4661268698400534
 20
133.317136070738286
 30
0.0
  0
VERTEX
  5
2D15
  8
0
 10
43.5154888117133112
 20
133.2316249928946092
 30
0.0
  0
VERTEX
  5
2D16
  8
0
 10
43.5648639629000911
 20
133.1460767697595884
 30
0.0
  0
VERTEX
  5
2D17
  8
0
 10
43.6142497909687279
 20
133.060493029147807
 30
0.0
  0
VERTEX
  5
2D18
  8
0
 10
43.6636437747455091
 20
132.9748754015909924
 30
0.0
  0
VERTEX
  5
2D19
  8
0
 10
43.7130457746708601
 20
132.8892260924652078
 30
0.0
  0
VERTEX
  5
2D1A
  8
0
 10
43.7624609624164407
 20
132.8035485891041958
 30
0.0
  0
VERTEX
  5
2D1B
  8
0
 10
43.8118952279167786
 20
132.7178465522073054
 30
0.0
  0
VERTEX
  5
2D1C
  8
0
 10
43.8613544611061101
 20
132.6321236424734877
 30
0.0
  0
VERTEX
  5
2D1D
  8
0
 10
43.9108445519189274
 20
132.5463835206022054
 30
0.0
  0
VERTEX
  5
2D1E
  8
0
 10
43.9603711972339681
 20
132.4606297597777029
 30
0.0
  0
VERTEX
  5
2D1F
  8
0
 10
44.0099346548538719
 20
132.3748634675746985
 30
0.0
  0
VERTEX
  5
2D20
  8
0
 10
44.0595291229181072
 20
132.2890830046376038
 30
0.0
  0
VERTEX
  5
2D21
  8
0
 10
44.1091484819390587
 20
132.2032865876259962
 30
0.0
  0
VERTEX
  5
2D22
  8
0
 10
44.1587866124289405
 20
132.1174724331993104
 30
0.0
  0
VERTEX
  5
2D23
  8
0
 10
44.2084373949001233
 20
132.0316387580170954
 30
0.0
  0
VERTEX
  5
2D24
  8
0
 10
44.2580947098648778
 20
131.9457837787388996
 30
0.0
  0
VERTEX
  5
2D25
  8
0
 10
44.3077524378354894
 20
131.8599057120241866
 30
0.0
  0
VERTEX
  5
2D26
  8
0
 10
44.3574044593242718
 20
131.7740027745325051
 30
0.0
  0
VERTEX
  5
2D27
  8
0
 10
44.4070450709475892
 20
131.68807344852911
 30
0.0
  0
VERTEX
  5
2D28
  8
0
 10
44.4566730669808123
 20
131.6021190872052102
 30
0.0
  0
VERTEX
  5
2D29
  8
0
 10
44.5062899899184785
 20
131.5161427979832069
 30
0.0
  0
VERTEX
  5
2D2A
  8
0
 10
44.5558974216313786
 20
131.430147713419899
 30
0.0
  0
VERTEX
  5
2D2B
  8
0
 10
44.6054969439903388
 20
131.3441369660721989
 30
0.0
  0
VERTEX
  5
2D2C
  8
0
 10
44.6550901388660932
 20
131.2581136884969908
 30
0.0
  0
VERTEX
  5
2D2D
  8
0
 10
44.7046785881294895
 20
131.1720810132513009
 30
0.0
  0
VERTEX
  5
2D2E
  8
0
 10
44.7542638736512899
 20
131.0860420728917006
 30
0.0
  0
VERTEX
  5
2D2F
  8
0
 10
44.8038475773022569
 20
130.9999999999753015
 30
0.0
  0
SEQEND
  5
2D30
  8
0
  0
POLYLINE
  5
26D4
  8
0
 66
     1
 10
0.0
 20
0.0
 30
0.0
  0
VERTEX
  5
2D31
  8
0
 10
44.8038475773023208
 20
136.9999999999753015
 30
0.0
  0
VERTEX
  5
2D32
  8
0
 10
44.7615024841219622
 20
136.9265628509957082
 30
0.0
  0
VERTEX
  5
2D33
  8
0
 10
44.7191580003397675
 20
136.8531267399056901
 30
0.0
  0
VERTEX
  5
2D34
  8
0
 10
44.6768147353537586
 20
136.7796927045951065
 30
0.0
  0
VERTEX
  5
2D35
  8
0
 10
44.6344732985621988
 20
136.7062617829533053
 30
0.0
  0
VERTEX
  5
2D36
  8
0
 10
44.5921342993630887
 20
136.6328350128702027
 30
0.0
  0
VERTEX
  5
2D37
  8
0
 10
44.5497978495275504
 20
136.5594137111810937
 30
0.0
  0
VERTEX
  5
2D38
  8
0
 10
44.5074613599934708
 20
136.4860007086780911
 30
0.0
  0
VERTEX
  5
2D39
  8
0
 10
44.4651213297414287
 20
136.4125993473525966
 30
0.0
  0
VERTEX
  5
2D3A
  8
0
 10
44.4227742570435282
 20
136.3392129695930919
 30
0.0
  0
VERTEX
  5
2D3B
  8
0
 10
44.3804166401717168
 20
136.2658449177883995
 30
0.0
  0
VERTEX
  5
2D3C
  8
0
 10
44.3380457602858371
 20
136.1924980836136001
 30
0.0
  0
VERTEX
  5
2D3D
  8
0
 10
44.2956642568672905
 20
136.1191722739251873
 30
0.0
  0
VERTEX
  5
2D3E
  8
0
 10
44.2532770132957296
 20
136.0458660037533036
 30
0.0
  0
VERTEX
  5
2D3F
  8
0
 10
44.2108889205632423
 20
135.9725777837458054
 30
0.0
  0
VERTEX
  5
2D40
  8
0
 10
44.1685048696617528
 20
135.8993061245506055
 30
0.0
  0
VERTEX
  5
2D41
  8
0
 10
44.1261296097799516
 20
135.8260495314233935
 30
0.0
  0
VERTEX
  5
2D42
  8
0
 10
44.0837665411049997
 20
135.7528064583262051
 30
0.0
  0
VERTEX
  5
2D43
  8
0
 10
44.0414183173753884
 20
135.6795753308377925
 30
0.0
  0
VERTEX
  5
2D44
  8
0
 10
43.9990875844326581
 20
135.6063545742368888
 30
0.0
  0
VERTEX
  5
2D45
  8
0
 10
43.9567769881184418
 20
135.5331426138021982
 30
0.0
  0
VERTEX
  5
2D46
  8
0
 10
43.914489062589638
 20
135.4599379921542948
 30
0.0
  0
VERTEX
  5
2D47
  8
0
 10
43.872224269872298
 20
135.3867414290060083
 30
0.0
  0
VERTEX
  5
2D48
  8
0
 10
43.8299812431435711
 20
135.3135555655576923
 30
0.0
  0
VERTEX
  5
2D49
  8
0
 10
43.7877585527903932
 20
135.2403831089802964
 30
0.0
  0
VERTEX
  5
2D4A
  8
0
 10
43.7455547691995079
 20
135.1672267664449123
 30
0.0
  0
VERTEX
  5
2D4B
  8
0
 10
43.703368462757993
 20
135.0940892451224045
 30
0.0
  0
VERTEX
  5
2D4C
  8
0
 10
43.6611982038525923
 20
135.020973252183893
 30
0.0
  0
VERTEX
  5
2D4D
  8
0
 10
43.6190425628701917
 20
134.9478814948002992
 30
0.0
  0
VERTEX
  5
2D4E
  8
0
 10
43.5769001101977835
 20
134.8748166801427999
 30
0.0
  0
VERTEX
  5
2D4F
  8
0
 10
43.534769416222133
 20
134.8017815153822028
 30
0.0
  0
VERTEX
  5
2D50
  8
0
 10
43.4926490580287108
 20
134.7287786305645909
 30
0.0
  0
VERTEX
  5
2D51
  8
0
 10
43.4505378363825514
 20
134.6558080803380051
 30
0.0
  0
VERTEX
  5
2D52
  8
0
 10
43.4084348229942805
 20
134.5828667997433001
 30
0.0
  0
VERTEX
  5
2D53
  8
0
 10
43.3663391058352374
 20
134.5099515365990896
 30
0.0
  0
VERTEX
  5
2D54
  8
0
 10
43.3242497728767475
 20
134.4370590387241862
 30
0.0
  0
VERTEX
  5
2D55
  8
0
 10
43.2821659120902211
 20
134.3641860539372885
 30
0.0
  0
VERTEX
  5
2D56
  8
0
 10
43.2400866114469693
 20
134.2913293300568967
 30
0.0
  0
VERTEX
  5
2D57
  8
0
 10
43.1980109589182675
 20
134.2184856149019083
 30
0.0
  0
VERTEX
  5
2D58
  8
0
 10
43.155938042475583
 20
134.145651656290795
 30
0.0
  0
VERTEX
  5
2D59
  8
0
 10
43.1138669500902196
 20
134.0728242020423977
 30
0.0
  0
VERTEX
  5
2D5A
  8
0
 10
43.0717967697334814
 20
133.9999999999753015
 30
0.0
  0
SEQEND
  5
2D5B
  8
0
  0
POLYLINE
  5
26D5
  8
0
 66
     1
 10
0.0
 20
0.0
 30
0.0
  0
VERTEX
  5
2D5C
  8
0
 10
55.1961524227155209
 20
130.9999999999753015
 30
0.0
  0
VERTEX
  5
2D5D
  8
0
 10
55.2384975158959435
 20
131.0734371489548096
 30
0.0
  0
VERTEX
  5
2D5E
  8
0
 10
55.2808419996782519
 20
131.146873260044714
 30
0.0
  0
VERTEX
  5
2D5F
  8
0
 10
55.3231852646643176
 20
131.2203072953552976
 30
0.0
  0
VERTEX
  5
2D60
  8
0
 10
55.3655267014559911
 20
131.2937382169970135
 30
0.0
  0
VERTEX
  5
2D61
  8
0
 10
55.4078657006552575
 20
131.3671649870800024
 30
0.0
  0
VERTEX
  5
2D62
  8
0
 10
55.4502021504909806
 20
131.4405862887689977
 30
0.0
  0
VERTEX
  5
2D63
  8
0
 10
55.4925386400252876
 20
131.5139992912718867
 30
0.0
  0
VERTEX
  5
2D64
  8
0
 10
55.5348786702775428
 20
131.5874006525972959
 30
0.0
  0
VERTEX
  5
2D65
  8
0
 10
55.5772257429756777
 20
131.660787030356488
 30
0.0
  0
VERTEX
  5
2D66
  8
0
 10
55.6195833598477307
 20
131.7341550821610952
 30
0.0
  0
VERTEX
  5
2D67
  8
0
 10
55.6619542397337668
 20
131.8075019163358945
 30
0.0
  0
VERTEX
  5
2D68
  8
0
 10
55.704335743152491
 20
131.8808277260241937
 30
0.0
  0
VERTEX
  5
2D69
  8
0
 10
55.7467229867241016
 20
131.9541339961961057
 30
0.0
  0
VERTEX
  5
2D6A
  8
0
 10
55.7891110794566103
 20
132.0274222162034903
 30
0.0
  0
VERTEX
  5
2D6B
  8
0
 10
55.831495130357979
 20
132.1006938753988038
 30
0.0
  0
VERTEX
  5
2D6C
  8
0
 10
55.8738703902394889
 20
132.1739504685261011
 30
0.0
  0
VERTEX
  5
2D6D
  8
0
 10
55.9162334589140926
 20
132.2471935416234885
 30
0.0
  0
VERTEX
  5
2D6E
  8
0
 10
55.95858168264337
 20
132.3204246691121
 30
0.0
  0
VERTEX
  5
2D6F
  8
0
 10
56.0009124155856526
 20
132.393645425713288
 30
0.0
  0
VERTEX
  5
2D70
  8
0
 10
56.043223011899471
 20
132.4668573861482059
 30
0.0
  0
VERTEX
  5
2D71
  8
0
 10
56.0855109374279266
 20
132.5400620077963936
 30
0.0
  0
VERTEX
  5
2D72
  8
0
 10
56.1277757301449185
 20
132.6132585709449074
 30
0.0
  0
VERTEX
  5
2D73
  8
0
 10
56.1700187568733611
 20
132.6864444343933087
 30
0.0
  0
VERTEX
  5
2D74
  8
0
 10
56.2122414472263117
 20
132.7596168909709036
 30
0.0
  0
VERTEX
  5
2D75
  8
0
 10
56.2544452308169625
 20
132.8327732335064866
 30
0.0
  0
VERTEX
  5
2D76
  8
0
 10
56.2966315372583779
 20
132.9059107548291081
 30
0.0
  0
VERTEX
  5
2D77
  8
0
 10
56.3388017961636578
 20
132.9790267477675911
 30
0.0
  0
VERTEX
  5
2D78
  8
0
 10
56.3809574371459519
 20
133.0521185051512134
 30
0.0
  0
VERTEX
  5
2D79
  8
0
 10
56.4230998898183529
 20
133.1251833198087979
 30
0.0
  0
VERTEX
  5
2D7A
  8
0
 10
56.4652305837940105
 20
133.1982184845693951
 30
0.0
  0
VERTEX
  5
2D7B
  8
0
 10
56.5073509419874824
 20
133.2712213693868932
 30
0.0
  0
VERTEX
  5
2D7C
  8
0
 10
56.5494621636336987
 20
133.3441919196135075
 30
0.0
  0
VERTEX
  5
2D7D
  8
0
 10
56.5915651770220904
 20
133.4171332002082124
 30
0.0
  0
VERTEX
  5
2D7E
  8
0
 10
56.6336608941812472
 20
133.4900484633523092
 30
0.0
  0
VERTEX
  5
2D7F
  8
0
 10
56.6757502271399005
 20
133.5629409612270138
 30
0.0
  0
VERTEX
  5
2D80
  8
0
 10
56.7178340879265974
 20
133.6358139460139114
 30
0.0
  0
VERTEX
  5
2D81
  8
0
 10
56.7599133885700198
 20
133.7086706698941043
 30
0.0
  0
VERTEX
  5
2D82
  8
0
 10
56.8019890410988921
 20
133.7815143850490927
 30
0.0
  0
VERTEX
  5
2D83
  8
0
 10
56.8440619575418111
 20
133.854348343660007
 30
0.0
  0
VERTEX
  5
2D84
  8
0
 10
56.8861330499273876
 20
133.9271757979082906
 30
0.0
  0
VERTEX
  5
2D85
  8
0
 10
56.9282032302843675
 20
133.9999999999753015
 30
0.0
  0
SEQEND
  5
2D86
  8
0
  0
POLYLINE
  5
26D6
  8
0
 66
     1
 10
0.0
 20
0.0
 30
0.0
  0
VERTEX
  5
2D87
  8
0
 10
56.9282032302843675
 20
133.9999999999753015
 30
0.0
  0
VERTEX
  5
2D88
  8
0
 10
56.8789476276591799
 20
134.0852855222942139
 30
0.0
  0
VERTEX
  5
2D89
  8
0
 10
56.829688529082631
 20
134.1705780899501974
 30
0.0
  0
VERTEX
  5
2D8A
  8
0
 10
56.7804224386033169
 20
134.2558847482806073
 30
0.0
  0
VERTEX
  5
2D8B
  8
0
 10
56.7311458602698906
 20
134.3412125426222872
 30
0.0
  0
VERTEX
  5
2D8C
  8
0
 10
56.6818552981308983
 20
134.4265685183125925
 30
0.0
  0
VERTEX
  5
2D8D
  8
0
 10
56.6325472562571406
 20
134.5119597206565913
 30
0.0
  0
VERTEX
  5
2D8E
  8
0
 10
56.5832193303051767
 20
134.5973916244738859
 30
0.0
  0
VERTEX
  5
2D8F
  8
0
 10
56.5338731301767083
 20
134.6828639292116918
 30
0.0
  0
VERTEX
  5
2D90
  8
0
 10
56.4845111883032871
 20
134.7683750070553117
 30
0.0
  0
VERTEX
  5
2D91
  8
0
 10
56.4351360371164503
 20
134.8539232301901905
 30
0.0
  0
VERTEX
  5
2D92
  8
0
 10
56.3857502090476999
 20
134.9395069708020003
 30
0.0
  0
VERTEX
  5
2D93
  8
0
 10
56.3363562252709826
 20
135.0251245983587864
 30
0.0
  0
VERTEX
  5
2D94
  8
0
 10
56.2869542253458022
 20
135.1107739074847132
 30
0.0
  0
VERTEX
  5
2D95
  8
0
 10
56.2375390376003921
 20
135.1964514108458104
 30
0.0
  0
VERTEX
  5
2D96
  8
0
 10
56.1881047721003313
 20
135.2821534477428997
 30
0.0
  0
VERTEX
  5
2D97
  8
0
 10
56.13864553891122
 20
135.3678763574768027
 30
0.0
  0
VERTEX
  5
2D98
  8
0
 10
56.0891554480987509
 20
135.4536164793483124
 30
0.0
  0
VERTEX
  5
2D99
  8
0
 10
56.0396288027838807
 20
135.5393702401729001
 30
0.0
  0
VERTEX
  5
2D9A
  8
0
 10
55.9900653451642469
 20
135.6251365323759899
 30
0.0
  0
VERTEX
  5
2D9B
  8
0
 10
55.9404708771001822
 20
135.7109169953133119
 30
0.0
  0
VERTEX
  5
2D9C
  8
0
 10
55.8908515180794225
 20
135.7967134123250048
 30
0.0
  0
VERTEX
  5
2D9D
  8
0
 10
55.8412133875896473
 20
135.8825275667518042
 30
0.0
  0
VERTEX
  5
2D9E
  8
0
 10
55.7915626051186209
 20
135.9683612419339909
 30
0.0
  0
VERTEX
  5
2D9F
  8
0
 10
55.7419052901539303
 20
136.0542162212123003
 30
0.0
  0
VERTEX
  5
2DA0
  8
0
 10
55.6922475621833826
 20
136.1400942879270985
 30
0.0
  0
VERTEX
  5
2DA1
  8
0
 10
55.6425955406946002
 20
136.2259972254186948
 30
0.0
  0
VERTEX
  5
2DA2
  8
0
 10
55.5929549290712828
 20
136.3119265514220046
 30
0.0
  0
VERTEX
  5
2DA3
  8
0
 10
55.5433269330380028
 20
136.3978809127459044
 30
0.0
  0
VERTEX
  5
2DA4
  8
0
 10
55.493710010100223
 20
136.4838572019679077
 30
0.0
  0
VERTEX
  5
2DA5
  8
0
 10
55.4441025783872021
 20
136.569852286531102
 30
0.0
  0
VERTEX
  5
2DA6
  8
0
 10
55.3945030560281211
 20
136.6558630338786884
 30
0.0
  0
VERTEX
  5
2DA7
  8
0
 10
55.3449098611522174
 20
136.7418863114538112
 30
0.0
  0
VERTEX
  5
2DA8
  8
0
 10
55.2953214118887004
 20
136.8279189866995011
 30
0.0
  0
VERTEX
  5
2DA9
  8
0
 10
55.2457361263667224
 20
136.9139579270589877
 30
0.0
  0
VERTEX
  5
2DAA
  8
0
 10
55.196152422715592
 20
136.9999999999753015
 30
0.0
  0
SEQEND
  5
2DAB
  8
0
  0
POLYLINE
  5
26D7
  8
0
 66
     1
 10
0.0
 20
0.0
 30
0.0
  0
VERTEX
  5
2DAC
  8
0
 10
46.5358983848711603
 20
127.9999999999753015
 30
0.0
  0
VERTEX
  5
2DAD
  8
0
 10
46.6343853158618629
 20
128.000014255546688
 30
0.0
  0
VERTEX
  5
2DAE
  8
0
 10
46.7328801288074587
 20
128.0000280638440131
 30
0.0
  0
VERTEX
  5
2DAF
  8
0
 10
46.8313907056628125
 20
128.0000409775929882
 30
0.0
  0
VERTEX
  5
2DB0
  8
0
 10
46.929924928382917
 20
128.000052549519296
 30
0.0
  0
VERTEX
  5
2DB1
  8
0
 10
47.028490678922509
 20
128.0000623323487901
 30
0.0
  0
VERTEX
  5
2DB2
  8
0
 10
47.1270958389735171
 20
128.0000698787821136
 30
0.0
  0
VERTEX
  5
2DB3
  8
0
 10
47.2257462353625499
 20
128.000074543983601
 30
0.0
  0
VERTEX
  5
2DB4
  8
0
 10
47.3244406818814412
 20
128.0000750089488122
 30
0.0
  0
VERTEX
  5
2DB5
  8
0
 10
47.423176497494488
 20
128.0000698109741109
 30
0.0
  0
VERTEX
  5
2DB6
  8
0
 10
47.5219510011658883
 20
128.0000574873558037
 30
0.0
  0
VERTEX
  5
2DB7
  8
0
 10
47.6207615118599108
 20
128.0000365753903111
 30
0.0
  0
VERTEX
  5
2DB8
  8
0
 10
47.7196053549174266
 20
128.000005634048307
 30
0.0
  0
VERTEX
  5
2DB9
  8
0
 10
47.8184806319336673
 20
127.9999658608090982
 30
0.0
  0
VERTEX
  5
2DBA
  8
0
 10
47.9173869546286468
 20
127.9999235861049982
 30
0.0
  0
VERTEX
  5
2DBB
  8
0
 10
48.0163241085787433
 20
127.9998857313104992
 30
0.0
  0
VERTEX
  5
2DBC
  8
0
 10
48.1152918793603419
 20
127.999859217800207
 30
0.0
  0
VERTEX
  5
2DBD
  8
0
 10
48.214290052549778
 20
127.9998509669486992
 30
0.0
  0
VERTEX
  5
2DBE
  8
0
 10
48.3133183811305784
 20
127.9998675727128017
 30
0.0
  0
VERTEX
  5
2DBF
  8
0
 10
48.4123759701760434
 20
127.9999091203485051
 30
0.0
  0
VERTEX
  5
2DC0
  8
0
 10
48.5114613287807686
 20
127.999969708100295
 30
0.0
  0
VERTEX
  5
2DC1
  8
0
 10
48.610572943855658
 20
128.0000432113612874
 30
0.0
  0
VERTEX
  5
2DC2
  8
0
 10
48.7097093023115519
 20
128.0001235055244138
 30
0.0
  0
VERTEX
  5
2DC3
  8
0
 10
48.8088688910592268
 20
128.0002044659825913
 30
0.0
  0
VERTEX
  5
2DC4
  8
0
 10
48.9080501970096577
 20
128.0002799681288934
 30
0.0
  0
VERTEX
  5
2DC5
  8
0
 10
49.0072517070735998
 20
128.0003438873563084
 30
0.0
  0
VERTEX
  5
2DC6
  8
0
 10
49.1064719081619216
 20
128.0003900990577108
 30
0.0
  0
VERTEX
  5
2DC7
  8
0
 10
49.2057092614228111
 20
128.00041304997049
 30
0.0
  0
VERTEX
  5
2DC8
  8
0
 10
49.3049619828148309
 20
128.0004126244340057
 30
0.0
  0
VERTEX
  5
2DC9
  8
0
 10
49.4042281525794067
 20
128.0003917166123983
 30
0.0
  0
VERTEX
  5
2DCA
  8
0
 10
49.5035058495203302
 20
128.0003532525462902
 30
0.0
  0
VERTEX
  5
2DCB
  8
0
 10
49.6027931524416417
 20
128.0003001582765023
 30
0.0
  0
VERTEX
  5
2DCC
  8
0
 10
49.7020881401471968
 20
128.0002353598437992
 30
0.0
  0
VERTEX
  5
2DCD
  8
0
 10
49.8013888914409506
 20
128.0001617832888883
 30
0.0
  0
VERTEX
  5
2DCE
  8
0
 10
49.9006934851268795
 20
128.0000823546525055
 30
0.0
  0
VERTEX
  5
2DCF
  8
0
 10
50.0000000000088392
 20
127.9999999999753015
 30
0.0
  0
SEQEND
  5
2DD0
  8
0
  0
POLYLINE
  5
26D8
  8
0
 66
     1
 10
0.0
 20
0.0
 30
0.0
  0
VERTEX
  5
2DD1
  8
0
 10
44.8038475773023208
 20
130.9999999999753015
 30
0.0
  0
VERTEX
  5
2DD2
  8
0
 10
44.8462734673099419
 20
130.9266094990655915
 30
0.0
  0
VERTEX
  5
2DD3
  8
0
 10
44.8886987631778069
 20
130.8532200448551066
 30
0.0
  0
VERTEX
  5
2DD4
  8
0
 10
44.931122870766238
 20
130.7798326840427023
 30
0.0
  0
VERTEX
  5
2DD5
  8
0
 10
44.9735451959353725
 20
130.7064484633276038
 30
0.0
  0
VERTEX
  5
2DD6
  8
0
 10
45.0159651445455609
 20
130.633068429408695
 30
0.0
  0
VERTEX
  5
2DD7
  8
0
 10
45.0583816320693984
 20
130.5596933375005051
 30
0.0
  0
VERTEX
  5
2DD8
  8
0
 10
45.1007909124379296
 20
130.4863223608053033
 30
0.0
  0
VERTEX
  5
2DD9
  8
0
 10
45.14318834089201
 20
130.4129541383472031
 30
0.0
  0
VERTEX
  5
2DDA
  8
0
 10
45.1855692719742876
 20
130.3395873087351902
 30
0.0
  0
VERTEX
  5
2DDB
  8
0
 10
45.2279290602272894
 20
130.2662205105779094
 30
0.0
  0
VERTEX
  5
2DDC
  8
0
 10
45.2702638419668517
 20
130.19285283512869
 30
0.0
  0
VERTEX
  5
2DDD
  8
0
 10
45.3125751042007607
 20
130.1194864716734116
 30
0.0
  0
VERTEX
  5
2DDE
  8
0
 10
45.3548665746404467
 20
130.0461249068580969
 30
0.0
  0
VERTEX
  5
2DDF
  8
0
 10
45.397141988598797
 20
129.9727716317300974
 30
0.0
  0
VERTEX
  5
2DE0
  8
0
 10
45.4394050813886778
 20
129.899430137336509
 30
0.0
  0
VERTEX
  5
2DE1
  8
0
 10
45.4816595220906734
 20
129.8261037892233958
 30
0.0
  0
VERTEX
  5
2DE2
  8
0
 10
45.5239083497068222
 20
129.7527947590201052
 30
0.0
  0
VERTEX
  5
2DE3
  8
0
 10
45.56615425459497
 20
129.6795045577210885
 30
0.0
  0
VERTEX
  5
2DE4
  8
0
 10
45.608399923424507
 20
129.6062346893315009
 30
0.0
  0
VERTEX
  5
2DE5
  8
0
 10
45.650648042864951
 20
129.5329866578568954
 30
0.0
  0
VERTEX
  5
2DE6
  8
0
 10
45.6929011421223308
 20
129.4597619292516981
 30
0.0
  0
VERTEX
  5
2DE7
  8
0
 10
45.7351588289199285
 20
129.3865612634988054
 30
0.0
  0
VERTEX
  5
2DE8
  8
0
 10
45.7774181324998821
 20
129.3133847974949049
 30
0.0
  0
VERTEX
  5
2DE9
  8
0
 10
45.8196759935767375
 20
129.240232646744289
 30
0.0
  0
VERTEX
  5
2DEA
  8
0
 10
45.8619293528650687
 20
129.167104926751108
 30
0.0
  0
VERTEX
  5
2DEB
  8
0
 10
45.9041751510794995
 20
129.094001753019711
 30
0.0
  0
VERTEX
  5
2DEC
  8
0
 10
45.9464103289345474
 20
129.0209232410541915
 30
0.0
  0
VERTEX
  5
2DED
  8
0
 10
45.9886318271448076
 20
128.9478695063590123
 30
0.0
  0
VERTEX
  5
2DEE
  8
0
 10
46.0308365864248401
 20
128.8748406644380964
 30
0.0
  0
VERTEX
  5
2DEF
  8
0
 10
46.073021547489212
 20
128.8018368307959065
 30
0.0
  0
VERTEX
  5
2DF0
  8
0
 10
46.1151837211940787
 20
128.7288580881750022
 30
0.0
  0
VERTEX
  5
2DF1
  8
0
 10
46.1573224605953385
 20
128.6559034253317009
 30
0.0
  0
VERTEX
  5
2DF2
  8
0
 10
46.1994399558807629
 20
128.5829705058642105
 30
0.0
  0
VERTEX
  5
2DF3
  8
0
 10
46.2415385675075967
 20
128.5100569138417939
 30
0.0
  0
VERTEX
  5
2DF4
  8
0
 10
46.2836206559332766
 20
128.4371602333339979
 30
0.0
  0
VERTEX
  5
2DF5
  8
0
 10
46.3256885816149691
 20
128.3642780484098864
 30
0.0
  0
VERTEX
  5
2DF6
  8
0
 10
46.3677447050101534
 20
128.2914079431392054
 30
0.0
  0
VERTEX
  5
2DF7
  8
0
 10
46.4097913865760106
 20
128.2185475015909049
 30
0.0
  0
VERTEX
  5
2DF8
  8
0
 10
46.4518309867699202
 20
128.1456943078345887
 30
0.0
  0
VERTEX
  5
2DF9
  8
0
 10
46.4938658660492123
 20
128.0728459459396049
 30
0.0
  0
VERTEX
  5
2DFA
  8
0
 10
46.5358983848711603
 20
127.9999999999753015
 30
0.0
  0
SEQEND
  5
2DFB
  8
0
  0
POLYLINE
  5
26D9
  8
0
 66
     1
 10
0.0
 20
0.0
 30
0.0
  0
VERTEX
  5
2DFC
  8
0
 10
53.4641016151466317
 20
139.9999999999753015
 30
0.0
  0
VERTEX
  5
2DFD
  8
0
 10
53.3656146841559291
 20
139.9999857444038014
 30
0.0
  0
VERTEX
  5
2DFE
  8
0
 10
53.2671198712103333
 20
139.9999719361065047
 30
0.0
  0
VERTEX
  5
2DFF
  8
0
 10
53.1686092943549795
 20
139.9999590223575865
 30
0.0
  0
VERTEX
  5
2E00
  8
0
 10
53.0700750716348679
 20
139.9999474504313071
 30
0.0
  0
VERTEX
  5
2E01
  8
0
 10
52.971509321095283
 20
139.999937667601813
 30
0.0
  0
VERTEX
  5
2E02
  8
0
 10
52.8729041610443176
 20
139.9999301211684894
 30
0.0
  0
VERTEX
  5
2E03
  8
0
 10
52.7742537646552918
 20
139.9999254559670021
 30
0.0
  0
VERTEX
  5
2E04
  8
0
 10
52.6755593181364077
 20
139.9999249910017056
 30
0.0
  0
VERTEX
  5
2E05
  8
0
 10
52.5768235025234105
 20
139.999930188976407
 30
0.0
  0
VERTEX
  5
2E06
  8
0
 10
52.4780489988520173
 20
139.9999425125947141
 30
0.0
  0
VERTEX
  5
2E07
  8
0
 10
52.379238488158002
 20
139.999963424560292
 30
0.0
  0
VERTEX
  5
2E08
  8
0
 10
52.280394645100408
 20
139.9999943659022961
 30
0.0
  0
VERTEX
  5
2E09
  8
0
 10
52.1815193680841674
 20
140.0000341391414054
 30
0.0
  0
VERTEX
  5
2E0A
  8
0
 10
52.0826130453891878
 20
140.0000764138455907
 30
0.0
  0
VERTEX
  5
2E0B
  8
0
 10
51.9836758914390984
 20
140.0001142686400897
 30
0.0
  0
VERTEX
  5
2E0C
  8
0
 10
51.8847081206575567
 20
140.0001407821503108
 30
0.0
  0
VERTEX
  5
2E0D
  8
0
 10
51.7857099474680567
 20
140.0001490330018896
 30
0.0
  0
VERTEX
  5
2E0E
  8
0
 10
51.6866816188872633
 20
140.0001324272377872
 30
0.0
  0
VERTEX
  5
2E0F
  8
0
 10
51.5876240298417983
 20
140.0000908796021122
 30
0.0
  0
VERTEX
  5
2E10
  8
0
 10
51.4885386712370803
 20
140.0000302918502939
 30
0.0
  0
VERTEX
  5
2E11
  8
0
 10
51.3894270561621909
 20
139.9999567885892873
 30
0.0
  0
VERTEX
  5
2E12
  8
0
 10
51.2902906977063466
 20
139.9998764944261893
 30
0.0
  0
VERTEX
  5
2E13
  8
0
 10
51.1911311089586079
 20
139.9997955339680118
 30
0.0
  0
VERTEX
  5
2E14
  8
0
 10
51.0919498030082408
 20
139.9997200318217097
 30
0.0
  0
VERTEX
  5
2E15
  8
0
 10
50.9927482929442917
 20
139.9996561125942947
 30
0.0
  0
VERTEX
  5
2E16
  8
0
 10
50.8935280918559272
 20
139.999609900892807
 30
0.0
  0
VERTEX
  5
2E17
  8
0
 10
50.7942907385950377
 20
139.9995869499801131
 30
0.0
  0
VERTEX
  5
2E18
  8
0
 10
50.6950380172029611
 20
139.9995873755165121
 30
0.0
  0
VERTEX
  5
2E19
  8
0
 10
50.5957718474384421
 20
139.999608283338091
 30
0.0
  0
VERTEX
  5
2E1A
  8
0
 10
50.4964941504975116
 20
139.9996467474041992
 30
0.0
  0
VERTEX
  5
2E1B
  8
0
 10
50.3972068475762001
 20
139.9996998416739871
 30
0.0
  0
VERTEX
  5
2E1C
  8
0
 10
50.2979118598705881
 20
139.9997646401066902
 30
0.0
  0
VERTEX
  5
2E1D
  8
0
 10
50.1986111085767917
 20
139.9998382166616864
 30
0.0
  0
VERTEX
  5
2E1E
  8
0
 10
50.0993065148907988
 20
139.9999176452980976
 30
0.0
  0
VERTEX
  5
2E1F
  8
0
 10
50.0000000000087823
 20
139.9999999999751878
 30
0.0
  0
SEQEND
  5
2E20
  8
0
  0
POLYLINE
  5
26DA
  8
0
 66
     1
 10
0.0
 20
0.0
 30
0.0
  0
VERTEX
  5
2E21
  8
0
 10
55.1961524227155209
 20
136.9999999999753015
 30
0.0
  0
VERTEX
  5
2E22
  8
0
 10
55.1537265327078501
 20
137.0733905008848978
 30
0.0
  0
VERTEX
  5
2E23
  8
0
 10
55.1113012368399211
 20
137.1467799550954112
 30
0.0
  0
VERTEX
  5
2E24
  8
0
 10
55.0688771292515469
 20
137.2201673159077018
 30
0.0
  0
VERTEX
  5
2E25
  8
0
 10
55.0264548040823627
 20
137.293551536622914
 30
0.0
  0
VERTEX
  5
2E26
  8
0
 10
54.9840348554721814
 20
137.3669315705417091
 30
0.0
  0
VERTEX
  5
2E27
  8
0
 10
54.9416183679482799
 20
137.4403066624500127
 30
0.0
  0
VERTEX
  5
2E28
  8
0
 10
54.8992090875797487
 20
137.5136776391451008
 30
0.0
  0
VERTEX
  5
2E29
  8
0
 10
54.8568116591255617
 20
137.587045861603201
 30
0.0
  0
VERTEX
  5
2E2A
  8
0
 10
54.814430728043277
 20
137.660412691215214
 30
0.0
  0
VERTEX
  5
2E2B
  8
0
 10
54.7720709397902112
 20
137.7337794893724094
 30
0.0
  0
VERTEX
  5
2E2C
  8
0
 10
54.7297361580507129
 20
137.8071471648217141
 30
0.0
  0
VERTEX
  5
2E2D
  8
0
 10
54.6874248958167968
 20
137.8805135282769925
 30
0.0
  0
VERTEX
  5
2E2E
  8
0
 10
54.6451334253771108
 20
137.9538750930923072
 30
0.0
  0
VERTEX
  5
2E2F
  8
0
 10
54.6028580114187605
 20
138.027228368220392
 30
0.0
  0
VERTEX
  5
2E30
  8
0
 10
54.5605949186289365
 20
138.1005698626138951
 30
0.0
  0
VERTEX
  5
2E31
  8
0
 10
54.5183404779268983
 20
138.1738962107270936
 30
0.0
  0
VERTEX
  5
2E32
  8
0
 10
54.4760916503107921
 20
138.2472052409304126
 30
0.0
  0
VERTEX
  5
2E33
  8
0
 10
54.4338457454227012
 20
138.3204954422294861
 30
0.0
  0
VERTEX
  5
2E34
  8
0
 10
54.3916000765931571
 20
138.3937653106189885
 30
0.0
  0
VERTEX
  5
2E35
  8
0
 10
54.349351957152777
 20
138.4670133420937077
 30
0.0
  0
VERTEX
  5
2E36
  8
0
 10
54.3070988578955109
 20
138.5402380706989049
 30
0.0
  0
VERTEX
  5
2E37
  8
0
 10
54.2648411710979133
 20
138.6134387364517977
 30
0.0
  0
VERTEX
  5
2E38
  8
0
 10
54.2225818675180093
 20
138.6866152024556982
 30
0.0
  0
VERTEX
  5
2E39
  8
0
 10
54.1803240064411682
 20
138.7597673532063141
 30
0.0
  0
VERTEX
  5
2E3A
  8
0
 10
54.1380706471528299
 20
138.8328950731994951
 30
0.0
  0
VERTEX
  5
2E3B
  8
0
 10
54.095824848938463
 20
138.905998246930892
 30
0.0
  0
VERTEX
  5
2E3C
  8
0
 10
54.0535896710834081
 20
138.9790767588964115
 30
0.0
  0
VERTEX
  5
2E3D
  8
0
 10
54.0113681728731478
 20
139.0521304935917044
 30
0.0
  0
VERTEX
  5
2E3E
  8
0
 10
53.9691634135931224
 20
139.125159335512592
 30
0.0
  0
VERTEX
  5
2E3F
  8
0
 10
53.9269784525287434
 20
139.1981631691548102
 30
0.0
  0
VERTEX
  5
2E40
  8
0
 10
53.8848162788238767
 20
139.2711419117756009
 30
0.0
  0
VERTEX
  5
2E41
  8
0
 10
53.8426775394225672
 20
139.3440965746189022
 30
0.0
  0
VERTEX
  5
2E42
  8
0
 10
53.8005600441371428
 20
139.4170294940863926
 30
0.0
  0
VERTEX
  5
2E43
  8
0
 10
53.7584614325103018
 20
139.4899430861088092
 30
0.0
  0
VERTEX
  5
2E44
  8
0
 10
53.7163793440846291
 20
139.5628397666166052
 30
0.0
  0
VERTEX
  5
2E45
  8
0
 10
53.6743114184028798
 20
139.635721951540603
 30
0.0
  0
VERTEX
  5
2E46
  8
0
 10
53.6322552950077025
 20
139.7085920568113977
 30
0.0
  0
VERTEX
  5
2E47
  8
0
 10
53.5902086134418312
 20
139.7814524983596129
 30
0.0
  0
VERTEX
  5
2E48
  8
0
 10
53.5481690132478718
 20
139.854305692115787
 30
0.0
  0
VERTEX
  5
2E49
  8
0
 10
53.5061341339685725
 20
139.9271540540109129
 30
0.0
  0
VERTEX
  5
2E4A
  8
0
 10
53.464101615146582
 20
139.9999999999751878
 30
0.0
  0
SEQEND
  5
2E4B
  8
0
  0
POLYLINE
  5
26DB
  8
0
 66
     1
 10
0.0
 20
0.0
 30
0.0
  0
VERTEX
  5
2E4C
  8
0
 10
50.0000000000088392
 20
139.9999999999753015
 30
0.0
  0
VERTEX
  5
2E4D
  8
0
 10
49.9152290435947918
 20
139.9999549319308016
 30
0.0
  0
VERTEX
  5
2E4E
  8
0
 10
49.8304592921555525
 20
139.9999100142632926
 30
0.0
  0
VERTEX
  5
2E4F
  8
0
 10
49.7456919506660427
 20
139.9998653973499074
 30
0.0
  0
VERTEX
  5
2E50
  8
0
 10
49.6609282241011272
 20
139.9998212315678074
 30
0.0
  0
VERTEX
  5
2E51
  8
0
 10
49.5761693174356211
 20
139.9997776672938983
 30
0.0
  0
VERTEX
  5
2E52
  8
0
 10
49.4914164282091917
 20
139.9997353850546915
 30
0.0
  0
VERTEX
  5
2E53
  8
0
 10
49.4066707136847469
 20
139.9996979371715042
 30
0.0
  0
VERTEX
  5
2E54
  8
0
 10
49.321933317550787
 20
139.999669843856708
 30
0.0
  0
VERTEX
  5
2E55
  8
0
 10
49.2372053834853602
 20
139.9996556260614966
 30
0.0
  0
VERTEX
  5
2E56
  8
0
 10
49.1524880551665078
 20
139.9996598047378029
 30
0.0
  0
VERTEX
  5
2E57
  8
0
 10
49.0677824771180227
 20
139.9996860029438892
 30
0.0
  0
VERTEX
  5
2E58
  8
0
 10
48.9830897996434018
 20
139.999731707291204
 30
0.0
  0
VERTEX
  5
2E59
  8
0
 10
48.8984111754633375
 20
139.9997918380107933
 30
0.0
  0
VERTEX
  5
2E5A
  8
0
 10
48.8137477573066931
 20
139.9998613066871087
 30
0.0
  0
VERTEX
  5
2E5B
  8
0
 10
48.7291006979023393
 20
139.9999350249044028
 30
0.0
  0
VERTEX
  5
2E5C
  8
0
 10
48.6444710746294788
 20
140.0000080273431138
 30
0.0
  0
VERTEX
  5
2E5D
  8
0
 10
48.5598592467180978
 20
140.0000765218964887
 30
0.0
  0
VERTEX
  5
2E5E
  8
0
 10
48.4752651754335702
 20
140.0001373665984943
 30
0.0
  0
VERTEX
  5
2E5F
  8
0
 10
48.3906888178106271
 20
140.000187426393893
 30
0.0
  0
VERTEX
  5
2E60
  8
0
 10
48.3061301308841635
 20
140.0002235662275893
 30
0.0
  0
VERTEX
  5
2E61
  8
0
 10
48.2215891169823507
 20
140.0002428093667106
 30
0.0
  0
VERTEX
  5
2E62
  8
0
 10
48.137066627606508
 20
140.0002451473407916
 30
0.0
  0
VERTEX
  5
2E63
  8
0
 10
48.0525642684955017
 20
140.0002332080981091
 30
0.0
  0
VERTEX
  5
2E64
  8
0
 10
47.9680836716109695
 20
140.0002097112478054
 30
0.0
  0
VERTEX
  5
2E65
  8
0
 10
47.8836264689145068
 20
140.0001773763991935
 30
0.0
  0
VERTEX
  5
2E66
  8
0
 10
47.7991942923677229
 20
140.0001389231613018
 30
0.0
  0
VERTEX
  5
2E67
  8
0
 10
47.7147887739323195
 20
140.0000970711433865
 30
0.0
  0
VERTEX
  5
2E68
  8
0
 10
47.630411545569892
 20
140.0000545399547036
 30
0.0
  0
VERTEX
  5
2E69
  8
0
 10
47.5460642392420993
 20
140.0000140492043101
 30
0.0
  0
VERTEX
  5
2E6A
  8
0
 10
47.4617484869105226
 20
139.9999783185014053
 30
0.0
  0
VERTEX
  5
2E6B
  8
0
 10
47.3774658581341725
 20
139.9999500218220021
 30
0.0
  0
VERTEX
  5
2E6C
  8
0
 10
47.2932158102838898
 20
139.9999302885618135
 30
0.0
  0
VERTEX
  5
2E6D
  8
0
 10
47.2089952257569792
 20
139.999918365114894
 30
0.0
  0
VERTEX
  5
2E6E
  8
0
 10
47.1248008308508304
 20
139.999913383724305
 30
0.0
  0
VERTEX
  5
2E6F
  8
0
 10
47.0406293518627976
 20
139.9999144766329948
 30
0.0
  0
VERTEX
  5
2E70
  8
0
 10
46.9564775150904197
 20
139.9999207760837976
 30
0.0
  0
VERTEX
  5
2E71
  8
0
 10
46.8723420468309868
 20
139.9999314143198887
 30
0.0
  0
VERTEX
  5
2E72
  8
0
 10
46.78821967338191
 20
139.9999455235841026
 30
0.0
  0
VERTEX
  5
2E73
  8
0
 10
46.7041071210406571
 20
139.9999622361195009
 30
0.0
  0
VERTEX
  5
2E74
  8
0
 10
46.6200011161045893
 20
139.9999806841688041
 30
0.0
  0
VERTEX
  5
2E75
  8
0
 10
46.5358983848711034
 20
139.9999999999753015
 30
0.0
  0
SEQEND
  5
2E76
  8
0
  0
POLYLINE
  5
26DC
  8
0
 66
     1
 10
0.0
 20
0.0
 30
0.0
  0
VERTEX
  5
2E77
  8
0
 10
46.5358983848711603
 20
139.9999999999751878
 30
0.0
  0
VERTEX
  5
2E78
  8
0
 10
46.4866667572804602
 20
139.9147006356637064
 30
0.0
  0
VERTEX
  5
2E79
  8
0
 10
46.4374307762244811
 20
139.829394721100897
 30
0.0
  0
VERTEX
  5
2E7A
  8
0
 10
46.3881860882380295
 20
139.744075706035602
 30
0.0
  0
VERTEX
  5
2E7B
  8
0
 10
46.3389283398558121
 20
139.6587370402164083
 30
0.0
  0
VERTEX
  5
2E7C
  8
0
 10
46.2896531776126707
 20
139.5733721733921016
 30
0.0
  0
VERTEX
  5
2E7D
  8
0
 10
46.2403562480597827
 20
139.4879745553467103
 30
0.0
  0
VERTEX
  5
2E7E
  8
0
 10
46.1910340120361624
 20
139.4025393664477122
 30
0.0
  0
VERTEX
  5
2E7F
  8
0
 10
46.1416859248773505
 20
139.3170681511874136
 30
0.0
  0
VERTEX
  5
2E80
  8
0
 10
46.0923121300963601
 20
139.2315639166230881
 30
0.0
  0
VERTEX
  5
2E81
  8
0
 10
46.0429127712061685
 20
139.1460296698122079
 30
0.0
  0
VERTEX
  5
2E82
  8
0
 10
45.9934879917198316
 20
139.0604684178119044
 30
0.0
  0
VERTEX
  5
2E83
  8
0
 10
45.944037943132372
 20
138.9748831592887086
 30
0.0
  0
VERTEX
  5
2E84
  8
0
 10
45.8945644655754279
 20
138.8892751177926925
 30
0.0
  0
VERTEX
  5
2E85
  8
0
 10
45.84507316500477
 20
138.8036415581917993
 30
0.0
  0
VERTEX
  5
2E86
  8
0
 10
45.7955701566460505
 20
138.71797921000271
 30
0.0
  0
VERTEX
  5
2E87
  8
0
 10
45.7460615557249923
 20
138.6322848027421912
 30
0.0
  0
VERTEX
  5
2E88
  8
0
 10
45.6965534774671696
 20
138.5465550659270946
 30
0.0
  0
VERTEX
  5
2E89
  8
0
 10
45.6470518647805932
 20
138.4607868525077947
 30
0.0
  0
VERTEX
  5
2E8A
  8
0
 10
45.5975578057542918
 20
138.3749804930081098
 30
0.0
  0
VERTEX
  5
2E8B
  8
0
 10
45.548066979734493
 20
138.2891401923087074
 30
0.0
  0
VERTEX
  5
2E8C
  8
0
 10
45.4985747825591318
 20
138.2032703583712987
 30
0.0
  0
VERTEX
  5
2E8D
  8
0
 10
45.4490766100662711
 20
138.1173753991573108
 30
0.0
  0
VERTEX
  5
2E8E
  8
0
 10
45.3995678580938886
 20
138.0314597226285116
 30
0.0
  0
VERTEX
  5
2E8F
  8
0
 10
45.3500439224799479
 20
137.9455277367461861
 30
0.0
  0
VERTEX
  5
2E90
  8
0
 10
45.3005001990624265
 20
137.8595838494721022
 30
0.0
  0
VERTEX
  5
2E91
  8
0
 10
45.2509320836793094
 20
137.773632468767687
 30
0.0
  0
VERTEX
  5
2E92
  8
0
 10
45.2013354102420166
 20
137.687677775040811
 30
0.0
  0
VERTEX
  5
2E93
  8
0
 10
45.1517107477860904
 20
137.6017214890750893
 30
0.0
  0
VERTEX
  5
2E94
  8
0
 10
45.1020615586654969
 20
137.5157638287425073
 30
0.0
  0
VERTEX
  5
2E95
  8
0
 10
45.0523913466895678
 20
137.4298049903810011
 30
0.0
  0
VERTEX
  5
2E96
  8
0
 10
45.0027036156675067
 20
137.3438451703287058
 30
0.0
  0
VERTEX
  5
2E97
  8
0
 10
44.9530018694084887
 20
137.2578845649238133
 30
0.0
  0
VERTEX
  5
2E98
  8
0
 10
44.9032896117218101
 20
137.1719233705046008
 30
0.0
  0
VERTEX
  5
2E99
  8
0
 10
44.8535703464166602
 20
137.0859617834090045
 30
0.0
  0
VERTEX
  5
2E9A
  8
0
 10
44.8038475773023208
 20
136.9999999999753015
 30
0.0
  0
SEQEND
  5
2E9B
  8
0
  0
POLYLINE
  5
26DD
  8
0
 66
     1
 10
0.0
 20
0.0
 30
0.0
  0
VERTEX
  5
2E9C
  8
0
 10
50.0000000000088392
 20
127.9999999999753015
 30
0.0
  0
VERTEX
  5
2E9D
  8
0
 10
50.0847709564230001
 20
128.0000450680198014
 30
0.0
  0
VERTEX
  5
2E9E
  8
0
 10
50.1695407078622395
 20
128.0000899856871968
 30
0.0
  0
VERTEX
  5
2E9F
  8
0
 10
50.2543080493517493
 20
128.0001346026004967
 30
0.0
  0
VERTEX
  5
2EA0
  8
0
 10
50.3390717759167217
 20
128.0001787683825967
 30
0.0
  0
VERTEX
  5
2EA1
  8
0
 10
50.4238306825821709
 20
128.0002223326565058
 30
0.0
  0
VERTEX
  5
2EA2
  8
0
 10
50.5085835718086571
 20
128.0002646148955989
 30
0.0
  0
VERTEX
  5
2EA3
  8
0
 10
50.5933292863331019
 20
128.0003020627787009
 30
0.0
  0
VERTEX
  5
2EA4
  8
0
 10
50.6780666824670618
 20
128.0003301560934972
 30
0.0
  0
VERTEX
  5
2EA5
  8
0
 10
50.7627946165324886
 20
128.0003443738885096
 30
0.0
  0
VERTEX
  5
2EA6
  8
0
 10
50.8475119448513269
 20
128.0003401952122033
 30
0.0
  0
VERTEX
  5
2EA7
  8
0
 10
50.9322175228997693
 20
128.0003139970060033
 30
0.0
  0
VERTEX
  5
2EA8
  8
0
 10
51.0169102003743902
 20
128.0002682926586886
 30
0.0
  0
VERTEX
  5
2EA9
  8
0
 10
51.1015888245544474
 20
128.000208161939014
 30
0.0
  0
VERTEX
  5
2EAA
  8
0
 10
51.1862522427110491
 20
128.0001386932626986
 30
0.0
  0
VERTEX
  5
2EAB
  8
0
 10
51.2708993021153887
 20
128.0000649750454045
 30
0.0
  0
VERTEX
  5
2EAC
  8
0
 10
51.3555289253883132
 20
127.999991972606793
 30
0.0
  0
VERTEX
  5
2EAD
  8
0
 10
51.440140753299687
 20
127.9999234780535033
 30
0.0
  0
VERTEX
  5
2EAE
  8
0
 10
51.5247348245842218
 20
127.9998626333516967
 30
0.0
  0
VERTEX
  5
2EAF
  8
0
 10
51.6093111822071577
 20
127.9998125735564969
 30
0.0
  0
VERTEX
  5
2EB0
  8
0
 10
51.6938698691336285
 20
127.9997764337229
 30
0.0
  0
VERTEX
  5
2EB1
  8
0
 10
51.778410883035427
 20
127.9997571905839067
 30
0.0
  0
VERTEX
  5
2EB2
  8
0
 10
51.8629333724112769
 20
127.9997548526099962
 30
0.0
  0
VERTEX
  5
2EB3
  8
0
 10
51.9474357315222903
 20
127.9997667918528066
 30
0.0
  0
VERTEX
  5
2EB4
  8
0
 10
52.0319163284068225
 20
127.9997902887030961
 30
0.0
  0
VERTEX
  5
2EB5
  8
0
 10
52.1163735311032781
 20
127.9998226235517933
 30
0.0
  0
VERTEX
  5
2EB6
  8
0
 10
52.200805707650062
 20
127.9998610767897986
 30
0.0
  0
VERTEX
  5
2EB7
  8
0
 10
52.2852112260854724
 20
127.9999029288076997
 30
0.0
  0
VERTEX
  5
2EB8
  8
0
 10
52.3695884544478929
 20
127.9999454599964963
 30
0.0
  0
VERTEX
  5
2EB9
  8
0
 10
52.4539357607756926
 20
127.999985950746904
 30
0.0
  0
VERTEX
  5
2EBA
  8
0
 10
52.5382515131072694
 20
128.0000216814497946
 30
0.0
  0
VERTEX
  5
2EBB
  8
0
 10
52.6225341418835626
 20
128.0000499781291978
 30
0.0
  0
VERTEX
  5
2EBC
  8
0
 10
52.7067841897338383
 20
128.0000697113893864
 30
0.0
  0
VERTEX
  5
2EBD
  8
0
 10
52.7910047742607631
 20
128.0000816348361923
 30
0.0
  0
VERTEX
  5
2EBE
  8
0
 10
52.8751991691668977
 20
128.0000866162268096
 30
0.0
  0
VERTEX
  5
2EBF
  8
0
 10
52.9593706481548665
 20
128.0000855233180062
 30
0.0
  0
VERTEX
  5
2EC0
  8
0
 10
53.0435224849273084
 20
128.0000792238670897
 30
0.0
  0
VERTEX
  5
2EC1
  8
0
 10
53.1276579531867412
 20
128.0000685856309133
 30
0.0
  0
VERTEX
  5
2EC2
  8
0
 10
53.2117803266358109
 20
128.0000544763666994
 30
0.0
  0
VERTEX
  5
2EC3
  8
0
 10
53.2958928789770709
 20
128.0000377638313012
 30
0.0
  0
VERTEX
  5
2EC4
  8
0
 10
53.3799988839132027
 20
128.0000193157817989
 30
0.0
  0
VERTEX
  5
2EC5
  8
0
 10
53.4641016151466815
 20
127.9999999999753015
 30
0.0
  0
SEQEND
  5
2EC6
  8
0
  0
POLYLINE
  5
26DE
  8
0
 66
     1
 10
0.0
 20
0.0
 30
0.0
  0
VERTEX
  5
2EC7
  8
0
 10
53.464101615146582
 20
127.9999999999753015
 30
0.0
  0
VERTEX
  5
2EC8
  8
0
 10
53.5133332427372821
 20
128.0852993642868114
 30
0.0
  0
VERTEX
  5
2EC9
  8
0
 10
53.5625692237931901
 20
128.1706052788497061
 30
0.0
  0
VERTEX
  5
2ECA
  8
0
 10
53.611813911779592
 20
128.2559242939150863
 30
0.0
  0
VERTEX
  5
2ECB
  8
0
 10
53.6610716601617028
 20
128.3412629597343084
 30
0.0
  0
VERTEX
  5
2ECC
  8
0
 10
53.7103468224047731
 20
128.4266278265585868
 30
0.0
  0
VERTEX
  5
2ECD
  8
0
 10
53.7596437519574906
 20
128.5120254446040917
 30
0.0
  0
VERTEX
  5
2ECE
  8
0
 10
53.8089659879809901
 20
128.5974606335030899
 30
0.0
  0
VERTEX
  5
2ECF
  8
0
 10
53.8583140751397025
 20
128.6829318487635021
 30
0.0
  0
VERTEX
  5
2ED0
  8
0
 10
53.9076878699205793
 20
128.7684360833277992
 30
0.0
  0
VERTEX
  5
2ED1
  8
0
 10
53.95708722881065
 20
128.8539703301387931
 30
0.0
  0
VERTEX
  5
2ED2
  8
0
 10
54.0065120082969869
 20
128.9395315821390966
 30
0.0
  0
VERTEX
  5
2ED3
  8
0
 10
54.0559620568844466
 20
129.0251168406622924
 30
0.0
  0
VERTEX
  5
2ED4
  8
0
 10
54.1054355344415114
 20
129.1107248821581948
 30
0.0
  0
VERTEX
  5
2ED5
  8
0
 10
54.1549268350122688
 20
129.196358441759088
 30
0.0
  0
VERTEX
  5
2ED6
  8
0
 10
54.2044298433711802
 20
129.282020789948092
 30
0.0
  0
VERTEX
  5
2ED7
  8
0
 10
54.2539384442924586
 20
129.3677151972084971
 30
0.0
  0
VERTEX
  5
2ED8
  8
0
 10
54.3034465225504377
 20
129.4534449340235085
 30
0.0
  0
VERTEX
  5
2ED9
  8
0
 10
54.3529481352372486
 20
129.5392131474428083
 30
0.0
  0
VERTEX
  5
2EDA
  8
0
 10
54.4024421942637204
 20
129.625019506942408
 30
0.0
  0
VERTEX
  5
2EDB
  8
0
 10
54.4519330202836898
 20
129.7108598076416115
 30
0.0
  0
VERTEX
  5
2EDC
  8
0
 10
54.5014252174591078
 20
129.7967296415789917
 30
0.0
  0
VERTEX
  5
2EDD
  8
0
 10
54.5509233899520893
 20
129.8826246007928944
 30
0.0
  0
VERTEX
  5
2EDE
  8
0
 10
54.6004321419245926
 20
129.9685402773218073
 30
0.0
  0
VERTEX
  5
2EDF
  8
0
 10
54.6499560775385689
 20
130.0544722632039907
 30
0.0
  0
VERTEX
  5
2EE0
  8
0
 10
54.6994998009560902
 20
130.140416150478103
 30
0.0
  0
VERTEX
  5
2EE1
  8
0
 10
54.7490679163392073
 20
130.2263675311824045
 30
0.0
  0
VERTEX
  5
2EE2
  8
0
 10
54.7986645897764504
 20
130.3123222249093942
 30
0.0
  0
VERTEX
  5
2EE3
  8
0
 10
54.8482892522323198
 20
130.3982785108750022
 30
0.0
  0
VERTEX
  5
2EE4
  8
0
 10
54.8979384413528066
 20
130.4842361712076979
 30
0.0
  0
VERTEX
  5
2EE5
  8
0
 10
54.9476086533286718
 20
130.5701950095692894
 30
0.0
  0
VERTEX
  5
2EE6
  8
0
 10
54.997296384350669
 20
130.6561548296216131
 30
0.0
  0
VERTEX
  5
2EE7
  8
0
 10
55.0469981306095804
 20
130.7421154350265056
 30
0.0
  0
VERTEX
  5
2EE8
  8
0
 10
55.0967103882961524
 20
130.8280766294458033
 30
0.0
  0
VERTEX
  5
2EE9
  8
0
 10
55.1464296536011886
 20
130.9140382165415133
 30
0.0
  0
VERTEX
  5
2EEA
  8
0
 10
55.1961524227155209
 20
130.9999999999753015
 30
0.0
  0
SEQEND
  5
2EEB
  8
0
  0
CIRCLE
  5
26E5
  8
0
 10
50.0
 20
50.0
 30
0.0
 40
6.0005537494679384
  0
CIRCLE
  5
26E6
  8
0
 10
50.0000000000309512
 20
134.0
 30
0.0
 40
6.0001642743601833
  0
LINE
  5
26E7
  8
1
 10
40.0717967697345898
 20
50.0
 30
0.0
 11
59.9282032302855328
 21
50.0
 31
0.0
  0
LINE
  5
26E8
  8
1
 10
50.0
 20
59.0005537494679402
 30
0.0
 11
50.0
 21
40.9994462505320598
 31
0.0
  0
LINE
  5
26EA
  8
1
 10
50.0000000000101181
 20
107.0
 30
0.0
 11
50.0000000000100613
 21
77.0
 31
0.0
  0
LINE
  5
26EC
  8
1
 10
90.0000000000101181
 20
107.0
 30
0.0
 11
90.0000000000101181
 21
77.0
 31
0.0
  0
LINE
  5
26ED
  8
1
 10
40.0717967697192066
 20
134.0
 30
0.0
 11
59.9282032302986423
 21
134.0
 31
0.0
  0
LINE
  5
26EE
  8
1
 10
50.0000000000309512
 20
143.0001642743602019
 30
0.0
 11
50.0000000000309512
 21
124.9998357256397981
 31
0.0
  0
CIRCLE
  5
26F9
  8
3
 10
50.0000000000309512
 20
134.0
 30
0.0
 40
4.2830000000000004
  0
LINE
  5
26FB
  8
3
 10
45.7170000000101311
 20
96.0
 30
0.0
 11
45.7170000000101027
 21
103.9999999999790958
 31
0.0
  0
LINE
  5
26FC
  8
3
 10
54.2830000000100767
 20
96.0
 30
0.0
 11
54.2830000000100981
 21
104.0000000000209042
 31
0.0
  0
LINE
  5
26FD
  8
3
 10
85.7169999999892553
 20
96.0
 30
0.0
 11
85.7169999999892553
 21
103.9999999999790958
 31
0.0
  0
LINE
  5
26FE
  8
3
 10
94.2829999999891584
 20
96.0
 30
0.0
 11
94.2829999999892152
 21
104.0000000000209042
 31
0.0
  0
VIEWPORT
  5
22
 67
     1
  8
0
 10
261.517699115044195
 20
148.5
 30
0.0
 40
523.0353982300885036
 41
297.0
 68
     1
 69
     1
1001
ACAD
1000
MVIEW
1002
{
1070
    16
1010
0.0
1020
0.0
1030
0.0
1010
0.0
1020
0.0
1030
1.0
1040
0.0
1040
297.0
1040
261.517699115044195
1040
148.5
1040
50.0
1040
0.0
1040
0.0
1070
     0
1070
   100
1070
     1
1070
     1
1070
     0
1070
     0
1070
     0
1070
     0
1040
0.0
1040
0.0
1040
0.0
1040
1.0
1040
1.0
1040
10.0
1040
10.0
1070
     0
1002
{
1002
}
1002
}
  0
ENDSEC
  0
EOF
