  0
SECTION
  2
HEADER
  9
$ACADVER
  1
AC1009
  9
$INSBASE
 10
0.0
 20
0.0
 30
0.0
  9
$EXTMIN
 10
0.0
 20
-2.960436562073669
 30
0.0
  9
$EXTMAX
 10
164.0000000000100897
 20
184.7000000000001023
 30
0.0
  9
$LIMMIN
 10
0.0
 20
0.0
  9
$LIMMAX
 10
400.0
 20
277.0
  9
$ORTHOMODE
 70
     1
  9
$REGENMODE
 70
     1
  9
$FILLMODE
 70
     1
  9
$QTEXTMODE
 70
     0
  9
$MIRRTEXT
 70
     1
  9
$DRAGMODE
 70
     2
  9
$LTSCALE
 40
5.0
  9
$OSMODE
 70
    37
  9
$ATTMODE
 70
     1
  9
$TEXTSIZE
 40
2.5
  9
$TRACEWID
 40
1.0
  9
$TEXTSTYLE
  7
STANDARD
  9
$CLAYER
  8
0
  9
$CELTYPE
  6
BYLAYER
  9
$CECOLOR
 62
   256
  9
$DIMSCALE
 40
1.0
  9
$DIMASZ
 40
3.0
  9
$DIMEXO
 40
1.0
  9
$DIMDLI
 40
6.0
  9
$DIMRND
 40
0.0
  9
$DIMDLE
 40
0.0
  9
$DIMEXE
 40
1.0
  9
$DIMTP
 40
495.0
  9
$DIMTM
 40
0.0
  9
$DIMTXT
 40
3.0
  9
$DIMCEN
 40
0.0
  9
$DIMTSZ
 40
0.0
  9
$DIMTOL
 70
     0
  9
$DIMLIM
 70
     0
  9
$DIMTIH
 70
     0
  9
$DIMTOH
 70
     0
  9
$DIMSE1
 70
     0
  9
$DIMSE2
 70
     0
  9
$DIMTAD
 70
     3
  9
$DIMZIN
 70
     8
  9
$DIMBLK
  1

  9
$DIMASO
 70
     0
  9
$DIMSHO
 70
     1
  9
$DIMPOST
  1

  9
$DIMAPOST
  1

  9
$DIMALT
 70
     0
  9
$DIMALTD
 70
     2
  9
$DIMALTF
 40
25.3999999999999986
  9
$DIMLFAC
 40
1.0
  9
$DIMTOFL
 70
     1
  9
$DIMTVP
 40
0.0
  9
$DIMTIX
 70
     1
  9
$DIMSOXD
 70
     0
  9
$DIMSAH
 70
     1
  9
$DIMBLK1
  1
ARROW1
  9
$DIMBLK2
  1
ARROW1
  9
$DIMSTYLE
  2
ITM
  9
$DIMCLRD
 70
     4
  9
$DIMCLRE
 70
     4
  9
$DIMCLRT
 70
     4
  9
$DIMTFAC
 40
1.0
  9
$DIMGAP
 40
1.0
  9
$LUNITS
 70
     2
  9
$LUPREC
 70
     1
  9
$SKETCHINC
 40
1.0
  9
$FILLETRAD
 40
0.0
  9
$AUNITS
 70
     0
  9
$AUPREC
 70
     0
  9
$MENU
  1
.
  9
$ELEVATION
 40
0.0
  9
$PELEVATION
 40
0.0
  9
$THICKNESS
 40
0.0
  9
$LIMCHECK
 70
     0
  9
$BLIPMODE
 70
     0
  9
$CHAMFERA
 40
10.0
  9
$CHAMFERB
 40
10.0
  9
$SKPOLY
 70
     0
  9
$TDCREATE
 40
2451415.6127083338797092
  9
$TDUPDATE
 40
2460886.7185069439001381
  9
$TDINDWG
 40
0.608138206
  9
$TDUSRTIMER
 40
0.608138206
  9
$USRTIMER
 70
     1
  9
$ANGBASE
 50
0.0
  9
$ANGDIR
 70
     0
  9
$PDMODE
 70
     0
  9
$PDSIZE
 40
0.0
  9
$PLINEWID
 40
0.0
  9
$COORDS
 70
     1
  9
$SPLFRAME
 70
     0
  9
$SPLINETYPE
 70
     6
  9
$SPLINESEGS
 70
     8
  9
$ATTDIA
 70
     1
  9
$ATTREQ
 70
     1
  9
$HANDLING
 70
     1
  9
$HANDSEED
  5
3D9D
  9
$SURFTAB1
 70
     6
  9
$SURFTAB2
 70
     6
  9
$SURFTYPE
 70
     6
  9
$SURFU
 70
     6
  9
$SURFV
 70
     6
  9
$UCSNAME
  2

  9
$UCSORG
 10
0.0
 20
0.0
 30
0.0
  9
$UCSXDIR
 10
1.0
 20
0.0
 30
0.0
  9
$UCSYDIR
 10
0.0
 20
1.0
 30
0.0
  9
$PUCSNAME
  2

  9
$PUCSORG
 10
0.0
 20
0.0
 30
0.0
  9
$PUCSXDIR
 10
1.0
 20
0.0
 30
0.0
  9
$PUCSYDIR
 10
0.0
 20
1.0
 30
0.0
  9
$USERI1
 70
     3
  9
$USERI2
 70
     1
  9
$USERI3
 70
     1
  9
$USERI4
 70
     0
  9
$USERI5
 70
     0
  9
$USERR1
 40
1.0
  9
$USERR2
 40
3.0
  9
$USERR3
 40
3.0
  9
$USERR4
 40
3.0
  9
$USERR5
 40
10.0
  9
$WORLDVIEW
 70
     1
  9
$SHADEDGE
 70
     3
  9
$SHADEDIF
 70
    70
  9
$TILEMODE
 70
     1
  9
$MAXACTVP
 70
    16
  9
$PLIMCHECK
 70
     0
  9
$PEXTMIN
 10
1.0000000000000000E+20
 20
1.0000000000000000E+20
 30
1.0000000000000000E+20
  9
$PEXTMAX
 10
-1.0000000000000000E+20
 20
-1.0000000000000000E+20
 30
-1.0000000000000000E+20
  9
$PLIMMIN
 10
0.0
 20
0.0
  9
$PLIMMAX
 10
420.0
 20
297.0
  9
$UNITMODE
 70
     0
  9
$VISRETAIN
 70
     0
  9
$PLINEGEN
 70
     0
  9
$PSLTSCALE
 70
     1
  0
ENDSEC
  0
SECTION
  2
TABLES
  0
TABLE
  2
VPORT
 70
     1
  0
VPORT
  2
*ACTIVE
 70
     0
 10
0.0
 20
0.0
 11
1.0
 21
1.0
 12
253.1260229132568895
 22
108.1622401192656042
 13
0.0
 23
0.0
 14
10.0
 24
10.0
 15
10.0
 25
10.0
 16
0.0
 26
0.0
 36
1.0
 17
0.0
 27
0.0
 37
0.0
 40
216.3244802385312084
 41
2.340243902439024
 42
50.0
 43
0.0
 44
0.0
 50
0.0
 51
0.0
 71
     0
 72
   100
 73
     1
 74
     1
 75
     0
 76
     0
 77
     0
 78
     0
  0
ENDTAB
  0
TABLE
  2
LTYPE
 70
     3
  0
LTYPE
  2
CONTINUOUS
 70
     0
  3
Solid line
 72
    65
 73
     0
 40
0.0
  0
LTYPE
  2
CENTER
 70
     0
  3
____ _ ____ _ ____ _ ____ _ ____ _ ____ _ ____ 
 72
    65
 73
     4
 40
2.0
 49
1.25
 49
-0.25
 49
0.25
 49
-0.25
  0
LTYPE
  2
PHANTOM2
 70
     0
  3
___ _ _ ___ _ _ ___ _ _ ___ _ _
 72
    65
 73
     6
 40
1.25
 49
0.625
 49
-0.125
 49
0.125
 49
-0.125
 49
0.125
 49
-0.125
  0
ENDTAB
  0
TABLE
  2
LAYER
 70
     5
  0
LAYER
  2
0
 70
     0
 62
     7
  6
CONTINUOUS
  0
LAYER
  2
WAKU
 70
     0
 62
     5
  6
CONTINUOUS
  0
LAYER
  2
1
 70
     0
 62
     1
  6
CENTER
  0
LAYER
  2
3
 70
     0
 62
     3
  6
CONTINUOUS
  0
LAYER
  2
DEFPOINTS
 70
     0
 62
     7
  6
CONTINUOUS
  0
ENDTAB
  0
TABLE
  2
STYLE
 70
     3
  0
STYLE
  2
STANDARD
 70
     0
 40
0.0
 41
1.0
 50
0.0
 71
     0
 42
2.5
  3
ROMANS
  4
EXTFONT
  0
STYLE
  2
K
 70
     0
 40
0.0
 41
1.0
 50
0.0
 71
     0
 42
3.0
  3
ROMANS
  4
bigfont
  0
STYLE
  2
STANDARD1
 70
     0
 40
0.0
 41
1.0
 50
0.0
 71
     0
 42
3.0
  3
txt
  4

  0
ENDTAB
  0
TABLE
  2
VIEW
 70
     0
  0
ENDTAB
  0
TABLE
  2
UCS
 70
     0
  0
ENDTAB
  0
TABLE
  2
APPID
 70
    45
  0
APPID
  2
ACAD
 70
     0
  0
APPID
  2
ACAD_NAV_VCDISPLAY
 70
     0
  0
APPID
  2
DCO15
 70
     0
  0
APPID
  2
GENIUS_GENOREF_13
 70
     0
  0
APPID
  2
GENIUS_GENOENT_13
 70
     0
  0
APPID
  2
GENIUS_GENBH_13
 70
     0
  0
APPID
  2
GENIUS_GENOBJ_13
 70
     0
  0
APPID
  2
GENIUS_GENODEF_13
 70
     0
  0
APPID
  2
GENIUS_GENOLIS_13
 70
     0
  0
APPID
  2
GENIUS_GENOBJ-NBEHI-BHF_13
 70
     0
  0
APPID
  2
GENIUS_GENOBJ-NBEHI-BHB_13
 70
     0
  0
APPID
  2
GENIUS_GENOBJ-F-PART_13
 70
     0
  0
APPID
  2
GENIUS_GEFSTDP_13
 70
     0
  0
APPID
  2
GENIUS_GENOBJ-N-RSSYM_13
 70
     0
  0
APPID
  2
GENIUS_GENSYMENT_13
 70
     0
  0
APPID
  2
GENIUS_GENOBJ-N-TIT_13
 70
     0
  0
APPID
  2
GENIUS_GENTITLE_13
 70
     0
  0
APPID
  2
GENIUS_GENZVEED_13
 70
     0
  0
APPID
  2
GENIUS_GENOBJ-N-LEADER_13
 70
     0
  0
APPID
  2
GENIUS_GENOBJ-N-FIL_13
 70
     0
  0
APPID
  2
GENIUS_GENOBJ-N-SEC_13
 70
     0
  0
APPID
  2
GENIUS_GENOBJ-N-CRS_13
 70
     0
  0
APPID
  2
GENIUS_GENOBJ-N-ZOO_13
 70
     0
  0
APPID
  2
GENIUS_GENZOO_13
 70
     0
  0
APPID
  2
GENIUS_GENOBJ-F-TOL_13
 70
     0
  0
APPID
  2
GENIUS_GENFIL_13
 70
     0
  0
APPID
  2
GENIUS_GENOBJ-N-CHA_13
 70
     0
  0
APPID
  2
_CALL_MAC$
 70
     0
  0
APPID
  2
ASM_BASE
 70
     0
  0
APPID
  2
ASM_EXPLO_VER_2_00
 70
     0
  0
APPID
  2
ASM_CADM_VER_12_00
 70
     0
  0
APPID
  2
ASM_BASEFORO
 70
     0
  0
APPID
  2
ASM_BASETRAVI
 70
     0
  0
APPID
  2
ASM_BASETRAVI1
 70
     0
  0
APPID
  2
ASM_GRUPPI
 70
     0
  0
APPID
  2
ASM_CADM_ALBERO
 70
     0
  0
APPID
  2
ASM_GOLE
 70
     0
  0
APPID
  2
ACAD_EXEMPT_FROM_CAD_STANDARDS
 70
     0
  0
APPID
  2
ACAD_DSTYLE_DIMJAG
 70
     0
  0
APPID
  2
ACAD_DSTYLE_DIMTALN
 70
     0
  0
APPID
  2
GRADIENTCOLOR1ACI
 70
     0
  0
APPID
  2
GRADIENTCOLOR2ACI
 70
     0
  0
APPID
  2
ACAD_MLEADERVER
 70
     0
  0
APPID
  2
ACAD_TC
 70
     0
  0
APPID
  2
ACAD_DSTYLE_DIMRADIAL_EXTENSION
 70
     0
  0
ENDTAB
  0
TABLE
  2
DIMSTYLE
 70
     2
  0
DIMSTYLE
  2
STANDARD
 70
     0
  3

  4

  5

  6

  7

 40
1.0
 41
0.18
 42
0.0625
 43
0.38
 44
0.18
 45
0.0
 46
0.0
 47
0.0
 48
0.0
140
0.18
141
0.09
142
0.0
143
25.3999999999999986
144
1.0
145
0.0
146
1.0
147
0.09
 71
     0
 72
     0
 73
     1
 74
     1
 75
     0
 76
     0
 77
     0
 78
     0
170
     0
171
     2
172
     0
173
     0
174
     0
175
     0
176
     0
177
     0
178
     0
  0
DIMSTYLE
  2
ITM
 70
     0
  3

  4

  5
ARROWANG
  6
ARROWANG
  7
ARROWANG
 40
1.0
 41
1.5
 42
1.0
 43
6.0
 44
1.0
 45
0.0
 46
0.0
 47
495.0
 48
0.0
140
3.0
141
0.0
142
0.0
143
25.3999999999999986
144
1.0
145
0.0
146
1.0
147
0.5
 71
     0
 72
     0
 73
     0
 74
     0
 75
     0
 76
     0
 77
     3
 78
     8
170
     0
171
     2
172
     1
173
     1
174
     1
175
     0
176
     0
177
     0
178
     0
  0
ENDTAB
  0
ENDSEC
  0
SECTION
  2
BLOCKS
  0
BLOCK
  8
0
  2
$MODEL_SPACE
 70
     0
 10
0.0
 20
0.0
 30
0.0
  3
$MODEL_SPACE
  1

  0
ENDBLK
  5
1C
  8
0
  0
BLOCK
 67
     1
  8
0
  2
$PAPER_SPACE
 70
     0
 10
0.0
 20
0.0
 30
0.0
  3
$PAPER_SPACE
  1

  0
ENDBLK
  5
19
 67
     1
  8
0
  0
BLOCK
  8
0
  2
ARROWANG
 70
     0
 10
0.0
 20
0.0
 30
0.0
  3
ARROWANG
  1

  0
LINE
  5
C9
  8
0
 10
0.0
 20
0.0
 30
0.0
 11
-1.4999999999999429
 21
0.4019237886467409
 31
0.0
  0
LINE
  5
CA
  8
0
 10
0.0
 20
0.0
 30
0.0
 11
-1.5
 21
-0.4019237886467124
 31
0.0
  0
ENDBLK
  5
CB
  8
0
  0
BLOCK
  8
0
  2
ARROW1
 70
     0
 10
0.0
 20
0.0
 30
0.0
  3
ARROW1
  1

  0
SOLID
  5
EE
  8
WAKU
  6
CONTINUOUS
 62
     4
 10
-1.0
 20
0.1666666666666714
 30
0.0
 11
-1.0
 21
-0.1666666666666714
 31
0.0
 12
0.0
 22
0.0
 32
0.0
 13
0.0
 23
0.0
 33
0.0
  0
ENDBLK
  5
F0
  8
0
  0
ENDSEC
  0
SECTION
  2
ENTITIES
  0
TEXT
  5
1BB9
  8
0
 62
     3
 10
0.0
 20
0.0
 30
0.0
 40
10.0
  1
VVF-2885-A-G1/4
  7
STANDARD1
  0
LINE
  5
3BB2
  8
0
 10
102.5000000000100044
 20
90.0
 30
0.0
 11
97.8333333333433757
 21
93.9157982788273102
 31
0.0
  0
LINE
  5
3BB3
  8
0
 10
22.1666666666766901
 20
93.9157982788272676
 30
0.0
 11
17.5000000000100293
 21
90.0
 31
0.0
  0
LINE
  5
3BB4
  8
0
 10
97.8333333333433757
 20
93.9157982788273102
 30
0.0
 11
97.8333333333433757
 21
101.7000000000000028
 31
0.0
  0
LINE
  5
3BB5
  8
0
 10
97.8333333333433757
 20
101.7000000000000028
 30
0.0
 11
96.5333333333434354
 21
103.0
 31
0.0
  0
LINE
  5
3BB6
  8
0
 10
23.4666666666766695
 20
103.0
 30
0.0
 11
22.1666666666766901
 21
101.7000000000000028
 31
0.0
  0
LINE
  5
3BB7
  8
0
 10
22.1666666666766901
 20
101.7000000000000028
 30
0.0
 11
22.1666666666766901
 21
93.9157982788272676
 31
0.0
  0
LINE
  5
3BB8
  8
0
 10
68.5000000000100613
 20
103.0
 30
0.0
 11
68.5000000000100613
 21
111.7000000000000028
 31
0.0
  0
LINE
  5
3BB9
  8
0
 10
51.5000000000100329
 20
111.7000000000000028
 30
0.0
 11
51.5000000000100329
 21
103.0
 31
0.0
  0
LINE
  5
3BBA
  8
0
 10
53.4215000000100417
 20
122.9560000000000031
 30
0.0
 11
54.2767050000100326
 21
122.1007950000000051
 31
0.0
  0
LINE
  5
3BBB
  8
0
 10
65.7232950000100686
 20
122.1007950000000051
 30
0.0
 11
66.5785000000100524
 21
122.9560000000000031
 31
0.0
  0
LINE
  5
3BBC
  8
0
 10
66.578500000010024
 20
122.9560000000000031
 30
0.0
 11
66.578500000010024
 21
126.8439999999999941
 31
0.0
  0
LINE
  5
3BBD
  8
0
 10
53.4215000000100417
 20
126.8439999999999941
 30
0.0
 11
53.4215000000100417
 21
122.9560000000000031
 31
0.0
  0
LINE
  5
3BBE
  8
0
 10
66.5785000000100524
 20
126.8439999999999941
 30
0.0
 11
65.7225000000100295
 21
127.7000000000000028
 31
0.0
  0
LINE
  5
3BBF
  8
0
 10
54.2775000000100434
 20
127.7000000000000028
 30
0.0
 11
53.4215000000100417
 21
126.8439999999999941
 31
0.0
  0
LINE
  5
3BC0
  8
0
 10
65.7232950000100402
 20
119.7000000000000028
 30
0.0
 11
65.7232950000100402
 21
122.1007950000000051
 31
0.0
  0
LINE
  5
3BC1
  8
0
 10
54.2767050000100468
 20
122.1007950000000051
 30
0.0
 11
54.2767050000100468
 21
119.7000000000000028
 31
0.0
  0
LINE
  5
3BC3
  8
0
 10
22.1666666666766616
 20
93.9157982788272676
 30
0.0
 11
97.833333333343333
 21
93.9157982788273102
 31
0.0
  0
LINE
  5
3BC5
  8
0
 10
17.5000000000100293
 20
90.0
 30
0.0
 11
102.5000000000100044
 21
90.0
 31
0.0
  0
ARC
  5
3BCA
  8
0
 10
154.439119863111614
 20
106.3657859548723934
 30
0.0
 40
13.3355551261992495
 50
90.8125745887974034
 51
109.4435834116186044
  0
ARC
  5
3BCB
  8
0
 10
154.0600751574341132
 20
106.3612796184265932
 30
0.0
 40
13.3400724459663405
 50
70.5595991555454134
 51
89.1842428440383514
  0
LINE
  5
3BCC
  8
0
 10
158.5000000000100897
 20
118.9408106214451948
 30
0.0
 11
158.5000000000100897
 21
112.4591893785547967
 31
0.0
  0
ARC
  5
3BCD
  8
0
 10
154.061228001769507
 20
125.032266671123196
 30
0.0
 40
13.3336030185867003
 50
270.8111986028479237
 51
289.4449593975701873
  0
ARC
  5
3BCE
  8
0
 10
154.4407137300480883
 20
125.0431366337084
 30
0.0
 40
13.3444995017661601
 50
250.5627160107989937
 51
269.1811259887858228
  0
LINE
  5
3BCF
  8
0
 10
150.0000000000100044
 20
118.9408106214451948
 30
0.0
 11
150.0000000000100044
 21
112.4591893785547967
 31
0.0
  0
ARC
  5
3BD0
  8
0
 10
145.5592862699731995
 20
106.3568633662980005
 30
0.0
 40
13.3444995017597208
 50
70.5627160107937925
 51
89.1811259887907255
  0
LINE
  5
3BD1
  8
0
 10
158.5000000000100897
 20
119.7000000000000028
 30
0.0
 11
141.5000000000100044
 21
119.7000000000000028
 31
0.0
  0
ARC
  5
3BD2
  8
0
 10
145.9387719982497913
 20
106.3677333288803055
 30
0.0
 40
13.3336030185831405
 50
90.8111986028429925
 51
109.4449593975719068
  0
ARC
  5
3BD3
  8
0
 10
145.560880136910697
 20
125.0342140451146946
 30
0.0
 40
13.3355551261862892
 50
270.812574588789289
 51
289.4435834116289925
  0
ARC
  5
3BD4
  8
0
 10
145.9399248425862936
 20
125.0387203815736967
 30
0.0
 40
13.3400724459666709
 50
250.5595991555470903
 51
269.1842428440382946
  0
LINE
  5
3BD5
  8
0
 10
141.5000000000100044
 20
118.9408106214450953
 30
0.0
 11
141.5000000000100044
 21
112.4591893785547967
 31
0.0
  0
LINE
  5
3BD6
  8
0
 10
158.5000000000100897
 20
111.7000000000000028
 30
0.0
 11
141.5000000000100897
 21
111.7000000000000028
 31
0.0
  0
LINE
  5
3BDA
  8
0
 10
22.1666666666767185
 20
101.7000000000000028
 30
0.0
 11
97.8333333333433757
 21
101.7000000000000028
 31
0.0
  0
ARC
  5
3BE2
  8
0
 10
55.6670114818982711
 20
119.3204053107226059
 30
0.0
 40
102.8336891280978023
 50
359.788500994194294
 51
0.2114990058065623
  0
ARC
  5
3BE4
  8
0
 10
244.3329883181116031
 20
112.0795946892773998
 30
0.0
 40
102.8336889280888045
 50
179.7885009937822076
 51
180.211499006218304
  0
ARC
  5
3BE7
  8
0
 10
135.8956315519307907
 20
119.3204053107226059
 30
0.0
 40
5.6172090783550166
 50
356.1251644799862106
 51
3.8748355200154121
  0
ARC
  5
3BE8
  8
0
 10
164.1043595285622132
 20
112.0795946892773998
 30
0.0
 40
5.6172001792174138
 50
176.1251583318405949
 51
183.8748416681607125
  0
LINE
  5
3BEA
  8
0
 10
96.5333333333434354
 20
103.0
 30
0.0
 11
23.4666666666767014
 21
103.0
 31
0.0
  0
LINE
  5
3BEB
  8
0
 10
65.7232950000100686
 20
122.1007950000000051
 30
0.0
 11
54.2767050000100468
 21
122.1007950000000051
 31
0.0
  0
LINE
  5
3BED
  8
0
 10
66.5785000000100808
 20
122.9560000000000031
 30
0.0
 11
53.4215000000100417
 21
122.9560000000000031
 31
0.0
  0
LINE
  5
3BEF
  8
0
 10
66.578500000010024
 20
126.8439999999999941
 30
0.0
 11
53.4215000000100417
 21
126.8439999999999941
 31
0.0
  0
LINE
  5
3BF1
  8
0
 10
65.722500000010001
 20
127.7000000000000028
 30
0.0
 11
54.2775000000100434
 21
127.7000000000000028
 31
0.0
  0
LINE
  5
3BF3
  8
0
 10
31.5000000000100897
 20
35.9999999999999929
 30
0.0
 11
88.5000000000100755
 21
36.0
 31
0.0
  0
ARC
  5
3BF4
  8
0
 10
31.5000000000100897
 20
49.9999999999999929
 30
0.0
 40
14.0000000000000107
 50
90.0
 51
270.0
  0
LINE
  5
3BF5
  8
0
 10
31.5000000000100897
 20
64.0
 30
0.0
 11
88.5000000000100755
 21
64.0
 31
0.0
  0
ARC
  5
3BF6
  8
0
 10
88.5000000000100755
 20
50.0
 30
0.0
 40
14.0
 50
270.0
 51
90.0
  0
LINE
  5
3BF7
  8
0
 10
31.5000000000100897
 20
36.3889309567150718
 30
0.0
 11
88.5000000000100755
 21
36.3889309567151003
 31
0.0
  0
ARC
  5
3BF8
  8
0
 10
88.5000000000100755
 20
50.0
 30
0.0
 40
13.6110690432848997
 50
270.0
 51
90.0
  0
LINE
  5
3BF9
  8
0
 10
31.5000000000100897
 20
63.6110690432848784
 30
0.0
 11
88.5000000000100755
 21
63.6110690432848997
 31
0.0
  0
ARC
  5
3BFA
  8
0
 10
31.5000000000100897
 20
49.9999999999999929
 30
0.0
 40
13.6110690432849104
 50
90.0
 51
270.0
  0
LINE
  5
3BFC
  8
0
 10
31.5000000000100897
 20
42.8222625276852327
 30
0.0
 11
88.5000000000100755
 21
42.8222625276852327
 31
0.0
  0
ARC
  5
3BFE
  8
0
 10
88.5000000000100755
 20
50.0
 30
0.0
 40
7.1777374723147602
 50
270.0
 51
90.0
  0
ARC
  5
3C01
  8
0
 10
31.5000000000100897
 20
49.9999999999999929
 30
0.0
 40
7.1777374723147744
 50
90.0
 51
270.0
  0
LINE
  5
3C02
  8
0
 10
31.5000000000100897
 20
57.1777374723147602
 30
0.0
 11
88.5000000000100755
 21
57.1777374723147602
 31
0.0
  0
LINE
  5
3C03
  8
0
 10
38.0100838910530925
 20
46.079999999999977
 30
0.0
 11
33.539916108967077
 21
46.079999999999977
 31
0.0
  0
ARC
  5
3C04
  8
0
 10
35.7750000000100883
 20
47.1999999999999815
 30
0.0
 40
2.4999999999999889
 50
206.6154382554697122
 51
333.3845617445326752
  0
LINE
  5
3C05
  8
0
 10
86.4600838910530882
 20
46.0799999999999912
 30
0.0
 11
81.9899161089670656
 21
46.0799999999999912
 31
0.0
  0
ARC
  5
3C06
  8
0
 10
84.225000000010084
 20
47.2000000000000028
 30
0.0
 40
2.4999999999999889
 50
206.6154382554697122
 51
333.3845617445326752
  0
LINE
  5
3C07
  8
0
 10
73.6350838910530854
 20
46.079999999999977
 30
0.0
 11
69.164916108967077
 21
46.079999999999977
 31
0.0
  0
ARC
  5
3C08
  8
0
 10
71.4000000000100954
 20
47.2000000000000028
 30
0.0
 40
2.4999999999999951
 50
206.6154382554697122
 51
333.3845617445326752
  0
LINE
  5
3C09
  8
0
 10
50.8350838910531024
 20
46.079999999999977
 30
0.0
 11
46.3649161089670869
 21
46.079999999999977
 31
0.0
  0
ARC
  5
3C0A
  8
0
 10
48.6000000000100769
 20
47.1999999999999815
 30
0.0
 40
2.5000000000000009
 50
206.6154382554697122
 51
333.3845617445326752
  0
LINE
  5
3C0B
  8
0
 10
86.725000000010084
 20
47.2000000000000028
 30
0.0
 11
81.725000000010084
 21
47.2000000000000028
 31
0.0
  0
LINE
  5
3C0C
  8
0
 10
81.725000000010084
 20
47.2000000000000028
 30
0.0
 11
81.725000000010084
 21
48.3199999999999932
 31
0.0
  0
LINE
  5
3C0D
  8
0
 10
81.725000000010084
 20
48.3199999999999932
 30
0.0
 11
86.725000000010084
 21
48.3199999999999932
 31
0.0
  0
LINE
  5
3C0E
  8
0
 10
86.725000000010084
 20
48.3199999999999932
 30
0.0
 11
86.725000000010084
 21
47.2000000000000028
 31
0.0
  0
LINE
  5
3C0F
  8
0
 10
51.1000000000100769
 20
48.3199999999999932
 30
0.0
 11
51.1000000000100769
 21
47.1999999999999815
 31
0.0
  0
LINE
  5
3C10
  8
0
 10
51.1000000000100769
 20
47.1999999999999815
 30
0.0
 11
46.1000000000100769
 21
47.1999999999999815
 31
0.0
  0
LINE
  5
3C11
  8
0
 10
46.1000000000100769
 20
48.3199999999999932
 30
0.0
 11
51.1000000000100769
 21
48.3199999999999932
 31
0.0
  0
LINE
  5
3C12
  8
0
 10
46.1000000000100769
 20
47.1999999999999815
 30
0.0
 11
46.1000000000100769
 21
48.3199999999999932
 31
0.0
  0
LINE
  5
3C13
  8
0
 10
73.9000000000100954
 20
47.2000000000000028
 30
0.0
 11
68.9000000000100954
 21
47.2000000000000028
 31
0.0
  0
LINE
  5
3C14
  8
0
 10
68.9000000000100954
 20
48.3199999999999932
 30
0.0
 11
73.9000000000100954
 21
48.3199999999999932
 31
0.0
  0
LINE
  5
3C15
  8
0
 10
73.9000000000100954
 20
48.3199999999999932
 30
0.0
 11
73.9000000000100954
 21
47.2000000000000028
 31
0.0
  0
LINE
  5
3C16
  8
0
 10
68.9000000000100954
 20
47.2000000000000028
 30
0.0
 11
68.9000000000100954
 21
48.3199999999999932
 31
0.0
  0
LINE
  5
3C17
  8
0
 10
38.2750000000100883
 20
47.1999999999999815
 30
0.0
 11
33.2750000000100883
 21
47.1999999999999815
 31
0.0
  0
LINE
  5
3C18
  8
0
 10
33.2750000000100883
 20
48.319999999999979
 30
0.0
 11
38.2750000000100883
 21
48.319999999999979
 31
0.0
  0
LINE
  5
3C19
  8
0
 10
33.2750000000100883
 20
47.1999999999999815
 30
0.0
 11
33.2750000000100883
 21
48.319999999999979
 31
0.0
  0
LINE
  5
3C1A
  8
0
 10
38.2750000000100883
 20
48.319999999999979
 30
0.0
 11
38.2750000000100883
 21
47.1999999999999815
 31
0.0
  0
LINE
  5
3C1B
  8
0
 10
38.2750000000100883
 20
50.5599999999999881
 30
0.0
 11
38.2750000000100883
 21
49.4399999999999906
 31
0.0
  0
LINE
  5
3C1C
  8
0
 10
38.2750000000100883
 20
49.4399999999999906
 30
0.0
 11
33.2750000000100883
 21
49.4399999999999906
 31
0.0
  0
LINE
  5
3C1D
  8
0
 10
33.2750000000100883
 20
49.4399999999999906
 30
0.0
 11
33.2750000000100883
 21
50.5599999999999881
 31
0.0
  0
LINE
  5
3C1E
  8
0
 10
33.2750000000100883
 20
50.5599999999999881
 30
0.0
 11
38.2750000000100883
 21
50.5599999999999881
 31
0.0
  0
LINE
  5
3C1F
  8
0
 10
81.725000000010084
 20
49.4399999999999906
 30
0.0
 11
81.725000000010084
 21
50.5600000000000023
 31
0.0
  0
LINE
  5
3C20
  8
0
 10
81.725000000010084
 20
50.5600000000000023
 30
0.0
 11
86.725000000010084
 21
50.5600000000000023
 31
0.0
  0
LINE
  5
3C21
  8
0
 10
86.725000000010084
 20
49.4399999999999906
 30
0.0
 11
81.725000000010084
 21
49.4399999999999906
 31
0.0
  0
LINE
  5
3C22
  8
0
 10
86.725000000010084
 20
50.5600000000000023
 30
0.0
 11
86.725000000010084
 21
49.4399999999999906
 31
0.0
  0
LINE
  5
3C23
  8
0
 10
46.1000000000100769
 20
50.5599999999999881
 30
0.0
 11
51.1000000000100769
 21
50.5599999999999881
 31
0.0
  0
LINE
  5
3C24
  8
0
 10
46.1000000000100769
 20
49.4399999999999906
 30
0.0
 11
46.1000000000100769
 21
50.5599999999999881
 31
0.0
  0
LINE
  5
3C25
  8
0
 10
51.1000000000100769
 20
50.5599999999999881
 30
0.0
 11
51.1000000000100769
 21
49.4399999999999906
 31
0.0
  0
LINE
  5
3C26
  8
0
 10
51.1000000000100769
 20
49.4399999999999906
 30
0.0
 11
46.1000000000100769
 21
49.4399999999999906
 31
0.0
  0
LINE
  5
3C27
  8
0
 10
68.9000000000100954
 20
49.4399999999999906
 30
0.0
 11
68.9000000000100954
 21
50.5600000000000023
 31
0.0
  0
LINE
  5
3C28
  8
0
 10
68.9000000000100954
 20
50.5600000000000023
 30
0.0
 11
73.9000000000100954
 21
50.5600000000000023
 31
0.0
  0
LINE
  5
3C29
  8
0
 10
73.9000000000100954
 20
50.5600000000000023
 30
0.0
 11
73.9000000000100954
 21
49.4399999999999906
 31
0.0
  0
LINE
  5
3C2A
  8
0
 10
73.9000000000100954
 20
49.4399999999999906
 30
0.0
 11
68.9000000000100954
 21
49.4399999999999906
 31
0.0
  0
LINE
  5
3C2B
  8
0
 10
73.9000000000100954
 20
51.6799999999999926
 30
0.0
 11
68.9000000000100954
 21
51.6799999999999926
 31
0.0
  0
LINE
  5
3C2C
  8
0
 10
68.9000000000100954
 20
51.6799999999999926
 30
0.0
 11
68.9000000000100954
 21
52.7999999999999972
 31
0.0
  0
LINE
  5
3C2D
  8
0
 10
68.9000000000100954
 20
52.7999999999999972
 30
0.0
 11
73.9000000000100954
 21
52.7999999999999972
 31
0.0
  0
LINE
  5
3C2E
  8
0
 10
73.9000000000100954
 20
52.7999999999999972
 30
0.0
 11
73.9000000000100954
 21
51.6799999999999926
 31
0.0
  0
LINE
  5
3C2F
  8
0
 10
38.2750000000100883
 20
52.7999999999999972
 30
0.0
 11
38.2750000000100883
 21
51.6799999999999784
 31
0.0
  0
LINE
  5
3C30
  8
0
 10
33.2750000000100883
 20
51.6799999999999784
 30
0.0
 11
33.2750000000100883
 21
52.7999999999999972
 31
0.0
  0
LINE
  5
3C31
  8
0
 10
33.2750000000100883
 20
52.7999999999999972
 30
0.0
 11
38.2750000000100883
 21
52.7999999999999972
 31
0.0
  0
LINE
  5
3C32
  8
0
 10
38.2750000000100883
 20
51.6799999999999784
 30
0.0
 11
33.2750000000100883
 21
51.6799999999999784
 31
0.0
  0
LINE
  5
3C33
  8
0
 10
51.1000000000100769
 20
51.6799999999999926
 30
0.0
 11
46.1000000000100769
 21
51.6799999999999926
 31
0.0
  0
LINE
  5
3C34
  8
0
 10
46.1000000000100769
 20
52.7999999999999972
 30
0.0
 11
51.1000000000100769
 21
52.7999999999999972
 31
0.0
  0
LINE
  5
3C35
  8
0
 10
51.1000000000100769
 20
52.7999999999999972
 30
0.0
 11
51.1000000000100769
 21
51.6799999999999926
 31
0.0
  0
LINE
  5
3C36
  8
0
 10
46.1000000000100769
 20
51.6799999999999926
 30
0.0
 11
46.1000000000100769
 21
52.7999999999999972
 31
0.0
  0
LINE
  5
3C37
  8
0
 10
81.725000000010084
 20
52.7999999999999972
 30
0.0
 11
86.725000000010084
 21
52.7999999999999972
 31
0.0
  0
LINE
  5
3C38
  8
0
 10
81.725000000010084
 20
51.6799999999999926
 30
0.0
 11
81.725000000010084
 21
52.7999999999999972
 31
0.0
  0
LINE
  5
3C39
  8
0
 10
86.725000000010084
 20
52.7999999999999972
 30
0.0
 11
86.725000000010084
 21
51.6799999999999926
 31
0.0
  0
LINE
  5
3C3A
  8
0
 10
86.725000000010084
 20
51.6799999999999926
 30
0.0
 11
81.725000000010084
 21
51.6799999999999926
 31
0.0
  0
LINE
  5
3C3B
  8
0
 10
46.3649161089670869
 20
53.9199999999999875
 30
0.0
 11
50.8350838910531024
 21
53.9199999999999875
 31
0.0
  0
ARC
  5
3C3C
  8
0
 10
48.6000000000100769
 20
52.7999999999999972
 30
0.0
 40
2.4999999999999889
 50
26.6154382554673212
 51
153.3845617445327036
  0
LINE
  5
3C3D
  8
0
 10
81.9899161089670656
 20
53.9200000000000017
 30
0.0
 11
86.4600838910530882
 21
53.9200000000000017
 31
0.0
  0
ARC
  5
3C3E
  8
0
 10
84.225000000010084
 20
52.7999999999999972
 30
0.0
 40
2.4999999999999889
 50
26.6154382554678683
 51
153.3845617445321068
  0
ARC
  5
3C3F
  8
0
 10
35.7750000000100883
 20
52.7999999999999972
 30
0.0
 40
2.4999999999999818
 50
26.6154382554673212
 51
153.3845617445327036
  0
LINE
  5
3C40
  8
0
 10
33.539916108967077
 20
53.9199999999999875
 30
0.0
 11
38.0100838910530925
 21
53.9199999999999875
 31
0.0
  0
LINE
  5
3C41
  8
0
 10
69.164916108967077
 20
53.9199999999999875
 30
0.0
 11
73.6350838910530854
 21
53.9199999999999875
 31
0.0
  0
ARC
  5
3C42
  8
0
 10
71.4000000000100954
 20
52.7999999999999972
 30
0.0
 40
2.4999999999999951
 50
26.6154382554673212
 51
153.3845617445327036
  0
CIRCLE
  5
3C43
  8
0
 10
60.0000000000100826
 20
50.0
 30
0.0
 40
1.3333333333333279
  0
LINE
  5
3C45
  8
0
 10
158.5000000000102034
 20
103.0
 30
0.0
 11
158.5000000000102034
 21
111.7000000000000028
 31
0.0
  0
LINE
  5
3C46
  8
0
 10
141.5000000000100897
 20
111.7000000000000028
 30
0.0
 11
141.5000000000100897
 21
103.0
 31
0.0
  0
LINE
  5
3C47
  8
0
 10
156.5785000000101093
 20
126.8439999999999941
 30
0.0
 11
155.7225000000100863
 21
127.7000000000000028
 31
0.0
  0
LINE
  5
3C48
  8
0
 10
144.2775000000100931
 20
127.7000000000000028
 30
0.0
 11
143.4215000000100986
 21
126.8439999999999941
 31
0.0
  0
LINE
  5
3C49
  8
0
 10
156.5785000000101093
 20
122.9560000000000031
 30
0.0
 11
156.5785000000101093
 21
126.8439999999999941
 31
0.0
  0
LINE
  5
3C4A
  8
0
 10
143.4215000000100986
 20
126.8439999999999941
 30
0.0
 11
143.4215000000100986
 21
122.9560000000000031
 31
0.0
  0
LINE
  5
3C4B
  8
0
 10
143.4215000000100986
 20
122.9560000000000031
 30
0.0
 11
144.2767050000101108
 21
122.1007950000000051
 31
0.0
  0
LINE
  5
3C4C
  8
0
 10
155.7232950000102107
 20
122.1007950000000051
 30
0.0
 11
156.5785000000101093
 21
122.9560000000000031
 31
0.0
  0
LINE
  5
3C4D
  8
0
 10
155.7232950000100971
 20
119.7000000000000028
 30
0.0
 11
155.7232950000100971
 21
122.1007950000000051
 31
0.0
  0
LINE
  5
3C4E
  8
0
 10
144.2767050000101108
 20
122.1007950000000051
 30
0.0
 11
144.2767050000101108
 21
119.7000000000000028
 31
0.0
  0
LINE
  5
3C4F
  8
0
 10
69.8406883256087099
 20
118.9259532343161965
 30
0.0
 11
68.5000000000101181
 21
119.7000000000000028
 31
0.0
  0
LINE
  5
3C50
  8
0
 10
50.1593116744122085
 20
112.4740467656832976
 30
0.0
 11
51.5000000000100613
 21
111.7000000000000028
 31
0.0
  0
LINE
  5
3C51
  8
0
 10
51.5000000000100613
 20
119.7000000000000028
 30
0.0
 11
50.1593116744116401
 21
118.9259532343162959
 31
0.0
  0
LINE
  5
3C52
  8
0
 10
68.5000000000101181
 20
111.7000000000000028
 30
0.0
 11
69.8406883256079141
 21
112.4740467656832976
 31
0.0
  0
LINE
  5
3C53
  8
0
 10
159.3333333333434894
 20
93.9157982788273102
 30
0.0
 11
164.0000000000100897
 21
90.0
 31
0.0
  0
LINE
  5
3C54
  8
0
 10
136.0000000000100897
 20
90.0
 30
0.0
 11
140.6666666666768037
 21
93.9157982788273102
 31
0.0
  0
LINE
  5
3C55
  8
0
 10
140.6666666666768037
 20
93.9157982788273102
 30
0.0
 11
159.3333333333434894
 21
93.9157982788273102
 31
0.0
  0
LINE
  5
3C56
  8
0
 10
136.0000000000100897
 20
90.0
 30
0.0
 11
164.0000000000100897
 21
90.0
 31
0.0
  0
LINE
  5
3C57
  8
0
 10
159.3333333333434894
 20
101.7000000000000028
 30
0.0
 11
159.3333333333434894
 21
93.9157982788273102
 31
0.0
  0
LINE
  5
3C58
  8
0
 10
140.6666666666768037
 20
93.9157982788273102
 30
0.0
 11
140.6666666666768037
 21
101.7000000000000028
 31
0.0
  0
LINE
  5
3C59
  8
0
 10
140.6666666666768037
 20
101.7000000000000028
 30
0.0
 11
159.3333333333434894
 21
101.7000000000000028
 31
0.0
  0
LINE
  5
3C5A
  8
0
 10
158.0333333333435064
 20
103.0
 30
0.0
 11
159.3333333333434894
 21
101.7000000000000028
 31
0.0
  0
LINE
  5
3C5B
  8
0
 10
140.6666666666768037
 20
101.7000000000000028
 30
0.0
 11
141.9666666666767014
 21
103.0
 31
0.0
  0
LINE
  5
3C5C
  8
0
 10
141.5000000000100897
 20
103.0
 30
0.0
 11
158.5000000000102034
 21
103.0
 31
0.0
  0
ARC
  5
3C5D
  8
0
 10
67.5375454146006859
 20
114.7851954816167961
 30
0.0
 40
4.9179666062603182
 50
92.054731517238011
 51
122.3295159507989069
  0
ARC
  5
3C5E
  8
0
 10
59.7983244057692218
 20
102.1555378440885988
 30
0.0
 40
17.5456212596054684
 50
73.0706387414796126
 51
89.3414074845262718
  0
ARC
  5
3C60
  8
0
 10
60.2012651241520302
 20
102.1581911645182004
 30
0.0
 40
17.5429634004857604
 50
90.657351605849783
 51
106.9306021681433947
  0
LINE
  5
3C61
  8
0
 10
64.9074772881219246
 20
118.9408106214451948
 30
0.0
 11
64.9074772881219246
 21
112.4591893785547967
 31
0.0
  0
ARC
  5
3C62
  8
0
 10
59.7987348758678579
 20
129.2418088354833117
 30
0.0
 40
17.5429634004873307
 50
270.6573516058513746
 51
286.9306021681451284
  0
ARC
  5
3C63
  8
0
 10
60.2016755942549935
 20
129.2444621559363895
 30
0.0
 40
17.5456212596305505
 50
253.0706387414932124
 51
269.3414074845147752
  0
LINE
  5
3C64
  8
0
 10
55.0925227118982619
 20
118.9408106214451948
 30
0.0
 11
55.0925227118982619
 21
112.4591893785547967
 31
0.0
  0
ARC
  5
3C65
  8
0
 10
52.4624545854135818
 20
116.6148045184020958
 30
0.0
 40
4.9179666062794896
 50
272.0547315173014908
 51
302.3295159507409835
  0
LINE
  5
3C66
  8
0
 10
68.5000000000100613
 20
111.7000000000000028
 30
0.0
 11
51.5000000000100613
 21
111.7000000000000028
 31
0.0
  0
ARC
  5
3C67
  8
0
 10
52.4612200124012134
 20
114.7812052788963939
 30
0.0
 40
4.9219986288236504
 50
57.6831807827586402
 51
87.9325717492037171
  0
LINE
  5
3C68
  8
0
 10
68.500000000010175
 20
119.7000000000000028
 30
0.0
 11
51.5000000000100613
 21
119.7000000000000028
 31
0.0
  0
ARC
  5
3C6A
  8
0
 10
67.5387799876190655
 20
116.6187947211035976
 30
0.0
 40
4.9219986288236814
 50
237.6831807827585124
 51
267.9325717492021113
  0
ARC
  5
3C6B
  8
0
 10
52.8144779154936828
 20
114.7872498854945036
 30
0.0
 40
4.9158907652303192
 50
92.048186329122089
 51
122.3360611389187937
  0
ARC
  5
3C6C
  8
0
 10
52.8149108159204275
 20
116.6141492706793059
 30
0.0
 40
4.9173045142543756
 50
237.6683970757005966
 51
267.9473554562591175
  0
LINE
  5
3C6D
  8
0
 10
50.1850454237864483
 20
118.9408106214451948
 30
0.0
 11
50.1850454237864483
 21
112.4591893785547967
 31
0.0
  0
ARC
  5
3C6E
  8
0
 10
67.1850891841000362
 20
114.7858507293212966
 30
0.0
 40
4.9173045142538161
 50
57.6683970756987776
 51
87.9473554562606807
  0
LINE
  5
3C6F
  8
0
 10
69.8149545762337311
 20
118.9408106214451948
 30
0.0
 11
69.8149545762337311
 21
112.4591893785547967
 31
0.0
  0
ARC
  5
3C70
  8
0
 10
67.1855220845259851
 20
116.6127501145067953
 30
0.0
 40
4.9158907652315902
 50
272.0481863291286118
 51
302.3360611389168753
  0
LINE
  5
3C75
  8
0
 10
156.5785000000101093
 20
126.8439999999999941
 30
0.0
 11
143.4215000000100986
 21
126.8439999999999941
 31
0.0
  0
LINE
  5
3C76
  8
0
 10
155.7225000000100863
 20
127.7000000000000028
 30
0.0
 11
144.2775000000100931
 21
127.7000000000000028
 31
0.0
  0
LINE
  5
3C77
  8
0
 10
156.5785000000101093
 20
122.9560000000000031
 30
0.0
 11
143.4215000000100986
 21
122.9560000000000031
 31
0.0
  0
LINE
  5
3C78
  8
0
 10
155.7232950000102107
 20
122.1007950000000051
 30
0.0
 11
144.2767050000101108
 21
122.1007950000000051
 31
0.0
  0
CIRCLE
  5
3C7B
  8
0
 10
60.0000000000099831
 20
167.6999999999999886
 30
0.0
 40
6.5785000000000187
  0
CIRCLE
  5
3C7D
  8
0
 10
60.0000000000099831
 20
167.6999999999999886
 30
0.0
 40
2.0
  0
POLYLINE
  5
3C7F
  8
0
 66
     1
 10
0.0
 20
0.0
 30
0.0
 70
   128
  0
VERTEX
  5
3D61
  8
0
 10
50.185045423786498
 20
167.6999999999999886
 30
0.0
  0
VERTEX
  5
3D62
  8
0
 10
51.0006473617613096
 20
166.2868793694973988
 30
0.0
  0
VERTEX
  5
3D63
  8
0
 10
51.8164186434946714
 20
164.8745255288064868
 30
0.0
  0
VERTEX
  5
3D64
  8
0
 10
52.6387840678422592
 20
163.4499999999999886
 30
0.0
  0
SEQEND
  5
3D65
  8
0
  0
POLYLINE
  5
3C80
  8
0
 66
     1
 10
0.0
 20
0.0
 30
0.0
 70
   128
  0
VERTEX
  5
3D66
  8
0
 10
52.6387840678422592
 20
171.9499999999999886
 30
0.0
  0
VERTEX
  5
3D67
  8
0
 10
51.8167503481533913
 20
170.5264504792727109
 30
0.0
  0
VERTEX
  5
3D68
  8
0
 10
51.0006494106526134
 20
169.1134279804469998
 30
0.0
  0
VERTEX
  5
3D69
  8
0
 10
50.1850454237864483
 20
167.6999999999999886
 30
0.0
  0
SEQEND
  5
3D6A
  8
0
  0
POLYLINE
  5
3C81
  8
0
 66
     1
 10
0.0
 20
0.0
 30
0.0
 70
   128
  0
VERTEX
  5
3D6B
  8
0
 10
60.0000000000099973
 20
176.1999999999999886
 30
0.0
  0
VERTEX
  5
3D6C
  8
0
 10
58.3511382421011717
 20
176.1999192669790943
 30
0.0
  0
VERTEX
  5
3D6D
  8
0
 10
56.7201000611498714
 20
176.2001953702018966
 30
0.0
  0
VERTEX
  5
3D6E
  8
0
 10
55.0925227118981908
 20
176.1999999999999886
 30
0.0
  0
SEQEND
  5
3D6F
  8
0
  0
POLYLINE
  5
3C83
  8
0
 66
     1
 10
0.0
 20
0.0
 30
0.0
 70
   128
  0
VERTEX
  5
3D70
  8
0
 10
55.0925227118983116
 20
176.1999999999999034
 30
0.0
  0
VERTEX
  5
3D71
  8
0
 10
54.2765253162604324
 20
174.7871076870920888
 30
0.0
  0
VERTEX
  5
3D72
  8
0
 10
53.4612766519583431
 20
173.3744521130867042
 30
0.0
  0
VERTEX
  5
3D73
  8
0
 10
52.6387840678422592
 20
171.9499999999999886
 30
0.0
  0
SEQEND
  5
3D74
  8
0
  0
POLYLINE
  5
3C88
  8
0
 66
     1
 10
0.0
 20
0.0
 30
0.0
 70
   128
  0
VERTEX
  5
3D75
  8
0
 10
64.9074772881218109
 20
176.1999999999999886
 30
0.0
  0
VERTEX
  5
3D76
  8
0
 10
63.2796344353478375
 20
176.2001682705877954
 30
0.0
  0
VERTEX
  5
3D77
  8
0
 10
61.6487850828048423
 20
176.1998615059810049
 30
0.0
  0
VERTEX
  5
3D78
  8
0
 10
60.0000000000099973
 20
176.1999999999999886
 30
0.0
  0
SEQEND
  5
3D79
  8
0
  0
POLYLINE
  5
3C89
  8
0
 66
     1
 10
0.0
 20
0.0
 30
0.0
 70
   128
  0
VERTEX
  5
3D7A
  8
0
 10
67.3612159321777142
 20
171.9499999999999886
 30
0.0
  0
VERTEX
  5
3D7B
  8
0
 10
66.5394027435343958
 20
173.3736768443733069
 30
0.0
  0
VERTEX
  5
3D7C
  8
0
 10
65.7237398321791204
 20
174.7869522377121996
 30
0.0
  0
VERTEX
  5
3D7D
  8
0
 10
64.9074772881217541
 20
176.1999999999999886
 30
0.0
  0
SEQEND
  5
3D7E
  8
0
  0
POLYLINE
  5
3C8A
  8
0
 66
     1
 10
0.0
 20
0.0
 30
0.0
 70
   128
  0
VERTEX
  5
3D7F
  8
0
 10
67.3612159321777142
 20
163.4499999999999886
 30
0.0
  0
VERTEX
  5
3D80
  8
0
 10
68.1832496518646849
 20
164.8735495207218946
 30
0.0
  0
VERTEX
  5
3D81
  8
0
 10
68.9993505893636723
 20
166.2865720195486858
 30
0.0
  0
VERTEX
  5
3D82
  8
0
 10
69.8149545762335322
 20
167.6999999999999886
 30
0.0
  0
SEQEND
  5
3D83
  8
0
  0
POLYLINE
  5
3C8B
  8
0
 66
     1
 10
0.0
 20
0.0
 30
0.0
 70
   128
  0
VERTEX
  5
3D84
  8
0
 10
69.8149545762334469
 20
167.6999999999999886
 30
0.0
  0
VERTEX
  5
3D85
  8
0
 10
68.9993526382683342
 20
169.1131206304914087
 30
0.0
  0
VERTEX
  5
3D86
  8
0
 10
68.183581356530226
 20
170.5254744711791943
 30
0.0
  0
VERTEX
  5
3D87
  8
0
 10
67.3612159321777142
 20
171.9499999999999886
 30
0.0
  0
SEQEND
  5
3D88
  8
0
  0
POLYLINE
  5
3C8C
  8
0
 66
     1
 10
0.0
 20
0.0
 30
0.0
 70
   128
  0
VERTEX
  5
3D89
  8
0
 10
55.0925227118981695
 20
159.1999999999999886
 30
0.0
  0
VERTEX
  5
3D8A
  8
0
 10
56.7203655646687821
 20
159.1998317294114997
 30
0.0
  0
VERTEX
  5
3D8B
  8
0
 10
58.3512149172117418
 20
159.2001384940197113
 30
0.0
  0
VERTEX
  5
3D8C
  8
0
 10
60.0000000000099831
 20
159.1999999999999886
 30
0.0
  0
SEQEND
  5
3D8D
  8
0
  0
POLYLINE
  5
3C8D
  8
0
 66
     1
 10
0.0
 20
0.0
 30
0.0
 70
   128
  0
VERTEX
  5
3D8E
  8
0
 10
52.6387840678422592
 20
163.4499999999999886
 30
0.0
  0
VERTEX
  5
3D8F
  8
0
 10
53.4605972564912619
 20
162.0263231556201902
 30
0.0
  0
VERTEX
  5
3D90
  8
0
 10
54.2762601678436525
 20
160.6130477622797912
 30
0.0
  0
VERTEX
  5
3D91
  8
0
 10
55.0925227118982193
 20
159.1999999999999886
 30
0.0
  0
SEQEND
  5
3D92
  8
0
  0
POLYLINE
  5
3C8E
  8
0
 66
     1
 10
0.0
 20
0.0
 30
0.0
 70
   128
  0
VERTEX
  5
3D93
  8
0
 10
60.0000000000099831
 20
159.1999999999999886
 30
0.0
  0
VERTEX
  5
3D94
  8
0
 10
61.6488617579188087
 20
159.2000807330207977
 30
0.0
  0
VERTEX
  5
3D95
  8
0
 10
63.2798999388701304
 20
159.1998046297981091
 30
0.0
  0
VERTEX
  5
3D96
  8
0
 10
64.9074772881218109
 20
159.1999999999999886
 30
0.0
  0
SEQEND
  5
3D97
  8
0
  0
POLYLINE
  5
3C8F
  8
0
 66
     1
 10
0.0
 20
0.0
 30
0.0
 70
   128
  0
VERTEX
  5
3D98
  8
0
 10
64.9074772881216546
 20
159.2000000000001023
 30
0.0
  0
VERTEX
  5
3D99
  8
0
 10
65.7234746837561374
 20
160.6128923128981114
 30
0.0
  0
VERTEX
  5
3D9A
  8
0
 10
66.5387233480547025
 20
162.0255478869052013
 30
0.0
  0
VERTEX
  5
3D9B
  8
0
 10
67.3612159321777142
 20
163.4499999999999886
 30
0.0
  0
SEQEND
  5
3D9C
  8
0
  0
CIRCLE
  5
3C90
  8
0
 10
60.0000000000099831
 20
167.6999999999999886
 30
0.0
 40
1.3333333333333279
  0
ARC
  5
3C92
  8
0
 10
88.500000000009976
 20
167.6999999999999886
 30
0.0
 40
9.3333333333333712
 50
270.0
 51
90.0
  0
ARC
  5
3C94
  8
0
 10
88.500000000009976
 20
167.6999999999999886
 30
0.0
 40
8.0333333333333599
 50
270.0
 51
90.0
  0
LINE
  5
3C95
  8
0
 10
65.1770524084583656
 20
175.7333333333334053
 30
0.0
 11
88.500000000009976
 21
175.7333333333334053
 31
0.0
  0
LINE
  5
3C96
  8
0
 10
65.1769944913459369
 20
159.666666666666714
 30
0.0
 11
88.500000000009976
 21
159.666666666666714
 31
0.0
  0
LINE
  5
3C97
  8
0
 10
31.5000000000099796
 20
159.666666666666714
 30
0.0
 11
54.8229475915609896
 21
159.666666666666714
 31
0.0
  0
ARC
  5
3C98
  8
0
 10
31.5000000000099796
 20
167.6999999999999886
 30
0.0
 40
8.0333333333333314
 50
90.0
 51
270.0
  0
LINE
  5
3C99
  8
0
 10
31.5000000000099796
 20
175.7333333333334053
 30
0.0
 11
54.8230055086748109
 21
175.7333333333334053
 31
0.0
  0
ARC
  5
3C9C
  8
0
 10
31.5000000000099796
 20
167.6999999999999886
 30
0.0
 40
9.3333333333333428
 50
90.0
 51
270.0
  0
LINE
  5
3C9D
  8
0
 10
31.5000000000099796
 20
158.3666666666667027
 30
0.0
 11
88.500000000009976
 21
158.3666666666667027
 31
0.0
  0
LINE
  5
3C9F
  8
0
 10
31.5000000000099796
 20
177.0333333333333883
 30
0.0
 11
88.500000000009976
 21
177.0333333333333883
 31
0.0
  0
ARC
  5
3CA2
  8
0
 10
88.500000000009976
 20
167.6999999999999886
 30
0.0
 40
14.0000000000000302
 50
270.0
 51
90.0
  0
LINE
  5
3CA5
  8
0
 10
31.5000000000099796
 20
181.7000000000001023
 30
0.0
 11
88.500000000009976
 21
181.7000000000001023
 31
0.0
  0
LINE
  5
3CA6
  8
0
 10
31.5000000000099796
 20
153.6999999999999886
 30
0.0
 11
88.500000000009976
 21
153.6999999999999886
 31
0.0
  0
ARC
  5
3CA8
  8
0
 10
31.5000000000099796
 20
167.6999999999999886
 30
0.0
 40
14.0000000000000302
 50
90.0
 51
270.0
  0
CIRCLE
  5
3CD1
  8
0
 10
60.0000000000099831
 20
167.6999999999999886
 30
0.0
 40
8.5000000000000284
  0
LINE
  5
3CDA
  8
1
 10
14.5000000000100595
 20
50.0
 30
0.0
 11
105.5000000000100044
 21
50.0
 31
0.0
  0
LINE
  5
3CDB
  8
1
 10
60.0000000000100329
 20
67.0
 30
0.0
 11
60.0000000000101181
 21
32.9999999999999929
 31
0.0
  0
LINE
  5
3CDD
  8
1
 10
60.0000000000099831
 20
130.6999999999999886
 30
0.0
 11
60.0000000000100826
 21
87.0
 31
0.0
  0
LINE
  5
3CDF
  8
1
 10
150.0000000000100044
 20
130.6999999999999886
 30
0.0
 11
150.0000000000100897
 21
87.0
 31
0.0
  0
LINE
  5
3CE0
  8
1
 10
14.5000000000099494
 20
167.6999999999999886
 30
0.0
 11
105.5000000000100044
 21
167.6999999999999886
 31
0.0
  0
LINE
  5
3CE1
  8
1
 10
60.0000000000099405
 20
184.7000000000001023
 30
0.0
 11
60.0000000000099831
 21
150.6999999999999886
 31
0.0
  0
LINE
  5
3CEF
  8
3
 10
54.2775000000099723
 20
127.7000000000001023
 30
0.0
 11
54.2775000000100434
 21
122.1007950000000051
 31
0.0
  0
LINE
  5
3CF0
  8
3
 10
65.7225000000100295
 20
127.6999999999999034
 30
0.0
 11
65.7225000000100295
 21
122.1007950000000051
 31
0.0
  0
LINE
  5
3CF1
  8
3
 10
144.2775000000100931
 20
127.7000000000001023
 30
0.0
 11
144.2775000000100931
 21
122.1007950000000051
 31
0.0
  0
LINE
  5
3CF2
  8
3
 10
155.7225000000100863
 20
127.6999999999999034
 30
0.0
 11
155.7225000000100863
 21
122.1007950000000051
 31
0.0
  0
CIRCLE
  5
3CF3
  8
3
 10
60.0000000000099405
 20
167.6999999999999034
 30
0.0
 40
5.7225000000000001
  0
LINE
  5
3CF4
  8
0
 10
60.0000000000100613
 20
90.0
 30
0.0
 11
60.0000000000100613
 21
90.0
 31
0.0
  0
VIEWPORT
  5
22
 67
     1
  8
0
 10
261.517699115044195
 20
148.5
 30
0.0
 40
523.0353982300885036
 41
297.0
 68
     1
 69
     1
1001
ACAD
1000
MVIEW
1002
{
1070
    16
1010
0.0
1020
0.0
1030
0.0
1010
0.0
1020
0.0
1030
1.0
1040
0.0
1040
297.0
1040
261.517699115044195
1040
148.5
1040
50.0
1040
0.0
1040
0.0
1070
     0
1070
   100
1070
     1
1070
     1
1070
     0
1070
     0
1070
     0
1070
     0
1040
0.0
1040
0.0
1040
0.0
1040
1.0
1040
1.0
1040
10.0
1040
10.0
1070
     0
1002
{
1002
}
1002
}
  0
ENDSEC
  0
EOF
