  0
SECTION
  2
HEADER
  9
$ACADVER
  1
AC1009
  9
$INSBASE
 10
0.0
 20
0.0
 30
0.0
  9
$EXTMIN
 10
0.0
 20
-2.960436562073669
 30
0.0
  9
$EXTMAX
 10
164.9999999999998863
 20
232.0
 30
0.0
  9
$LIMMIN
 10
0.0
 20
0.0
  9
$LIMMAX
 10
400.0
 20
277.0
  9
$ORTHOMODE
 70
     1
  9
$REGENMODE
 70
     1
  9
$FILLMODE
 70
     1
  9
$QTEXTMODE
 70
     0
  9
$MIRRTEXT
 70
     1
  9
$DRAGMODE
 70
     2
  9
$LTSCALE
 40
5.0
  9
$OSMODE
 70
    37
  9
$ATTMODE
 70
     1
  9
$TEXTSIZE
 40
2.5
  9
$TRACEWID
 40
1.0
  9
$TEXTSTYLE
  7
STANDARD
  9
$CLAYER
  8
0
  9
$CELTYPE
  6
BYLAYER
  9
$CECOLOR
 62
   256
  9
$DIMSCALE
 40
1.0
  9
$DIMASZ
 40
3.0
  9
$DIMEXO
 40
1.0
  9
$DIMDLI
 40
6.0
  9
$DIMRND
 40
0.0
  9
$DIMDLE
 40
0.0
  9
$DIMEXE
 40
1.0
  9
$DIMTP
 40
495.0
  9
$DIMTM
 40
0.0
  9
$DIMTXT
 40
3.0
  9
$DIMCEN
 40
0.0
  9
$DIMTSZ
 40
0.0
  9
$DIMTOL
 70
     0
  9
$DIMLIM
 70
     0
  9
$DIMTIH
 70
     0
  9
$DIMTOH
 70
     0
  9
$DIMSE1
 70
     0
  9
$DIMSE2
 70
     0
  9
$DIMTAD
 70
     3
  9
$DIMZIN
 70
     8
  9
$DIMBLK
  1

  9
$DIMASO
 70
     0
  9
$DIMSHO
 70
     1
  9
$DIMPOST
  1

  9
$DIMAPOST
  1

  9
$DIMALT
 70
     0
  9
$DIMALTD
 70
     2
  9
$DIMALTF
 40
25.3999999999999986
  9
$DIMLFAC
 40
1.0
  9
$DIMTOFL
 70
     1
  9
$DIMTVP
 40
0.0
  9
$DIMTIX
 70
     1
  9
$DIMSOXD
 70
     0
  9
$DIMSAH
 70
     1
  9
$DIMBLK1
  1
ARROW1
  9
$DIMBLK2
  1
ARROW1
  9
$DIMSTYLE
  2
ITM
  9
$DIMCLRD
 70
     4
  9
$DIMCLRE
 70
     4
  9
$DIMCLRT
 70
     4
  9
$DIMTFAC
 40
1.0
  9
$DIMGAP
 40
1.0
  9
$LUNITS
 70
     2
  9
$LUPREC
 70
     1
  9
$SKETCHINC
 40
1.0
  9
$FILLETRAD
 40
0.0
  9
$AUNITS
 70
     0
  9
$AUPREC
 70
     0
  9
$MENU
  1
.
  9
$ELEVATION
 40
0.0
  9
$PELEVATION
 40
0.0
  9
$THICKNESS
 40
0.0
  9
$LIMCHECK
 70
     0
  9
$BLIPMODE
 70
     0
  9
$CHAMFERA
 40
10.0
  9
$CHAMFERB
 40
10.0
  9
$SKPOLY
 70
     0
  9
$TDCREATE
 40
2451415.6127083338797092
  9
$TDUPDATE
 40
2460886.7184374998323619
  9
$TDINDWG
 40
0.3714020949
  9
$TDUSRTIMER
 40
0.3714020949
  9
$USRTIMER
 70
     1
  9
$ANGBASE
 50
0.0
  9
$ANGDIR
 70
     0
  9
$PDMODE
 70
     0
  9
$PDSIZE
 40
0.0
  9
$PLINEWID
 40
0.0
  9
$COORDS
 70
     1
  9
$SPLFRAME
 70
     0
  9
$SPLINETYPE
 70
     6
  9
$SPLINESEGS
 70
     8
  9
$ATTDIA
 70
     1
  9
$ATTREQ
 70
     1
  9
$HANDLING
 70
     1
  9
$HANDSEED
  5
24D3
  9
$SURFTAB1
 70
     6
  9
$SURFTAB2
 70
     6
  9
$SURFTYPE
 70
     6
  9
$SURFU
 70
     6
  9
$SURFV
 70
     6
  9
$UCSNAME
  2

  9
$UCSORG
 10
0.0
 20
0.0
 30
0.0
  9
$UCSXDIR
 10
1.0
 20
0.0
 30
0.0
  9
$UCSYDIR
 10
0.0
 20
1.0
 30
0.0
  9
$PUCSNAME
  2

  9
$PUCSORG
 10
0.0
 20
0.0
 30
0.0
  9
$PUCSXDIR
 10
1.0
 20
0.0
 30
0.0
  9
$PUCSYDIR
 10
0.0
 20
1.0
 30
0.0
  9
$USERI1
 70
     3
  9
$USERI2
 70
     1
  9
$USERI3
 70
     1
  9
$USERI4
 70
     0
  9
$USERI5
 70
     0
  9
$USERR1
 40
1.0
  9
$USERR2
 40
3.0
  9
$USERR3
 40
3.0
  9
$USERR4
 40
3.0
  9
$USERR5
 40
10.0
  9
$WORLDVIEW
 70
     1
  9
$SHADEDGE
 70
     3
  9
$SHADEDIF
 70
    70
  9
$TILEMODE
 70
     1
  9
$MAXACTVP
 70
    16
  9
$PLIMCHECK
 70
     0
  9
$PEXTMIN
 10
1.0000000000000000E+20
 20
1.0000000000000000E+20
 30
1.0000000000000000E+20
  9
$PEXTMAX
 10
-1.0000000000000000E+20
 20
-1.0000000000000000E+20
 30
-1.0000000000000000E+20
  9
$PLIMMIN
 10
0.0
 20
0.0
  9
$PLIMMAX
 10
420.0
 20
297.0
  9
$UNITMODE
 70
     0
  9
$VISRETAIN
 70
     0
  9
$PLINEGEN
 70
     0
  9
$PSLTSCALE
 70
     1
  0
ENDSEC
  0
SECTION
  2
TABLES
  0
TABLE
  2
VPORT
 70
     1
  0
VPORT
  2
*ACTIVE
 70
     0
 10
0.0
 20
0.0
 11
1.0
 21
1.0
 12
306.206896551724185
 22
130.8440099908357013
 13
0.0
 23
0.0
 14
10.0
 24
10.0
 15
10.0
 25
10.0
 16
0.0
 26
0.0
 36
1.0
 17
0.0
 27
0.0
 37
0.0
 40
261.6880199816715162
 41
2.340243902439024
 42
50.0
 43
0.0
 44
0.0
 50
0.0
 51
0.0
 71
     0
 72
   100
 73
     1
 74
     1
 75
     0
 76
     0
 77
     0
 78
     0
  0
ENDTAB
  0
TABLE
  2
LTYPE
 70
     3
  0
LTYPE
  2
CONTINUOUS
 70
     0
  3
Solid line
 72
    65
 73
     0
 40
0.0
  0
LTYPE
  2
CENTER
 70
     0
  3
____ _ ____ _ ____ _ ____ _ ____ _ ____ _ ____ 
 72
    65
 73
     4
 40
2.0
 49
1.25
 49
-0.25
 49
0.25
 49
-0.25
  0
LTYPE
  2
PHANTOM2
 70
     0
  3
___ _ _ ___ _ _ ___ _ _ ___ _ _
 72
    65
 73
     6
 40
1.25
 49
0.625
 49
-0.125
 49
0.125
 49
-0.125
 49
0.125
 49
-0.125
  0
ENDTAB
  0
TABLE
  2
LAYER
 70
     5
  0
LAYER
  2
0
 70
     0
 62
     7
  6
CONTINUOUS
  0
LAYER
  2
WAKU
 70
     0
 62
     5
  6
CONTINUOUS
  0
LAYER
  2
1
 70
     0
 62
     1
  6
CENTER
  0
LAYER
  2
3
 70
     0
 62
     3
  6
CONTINUOUS
  0
LAYER
  2
DEFPOINTS
 70
     0
 62
     7
  6
CONTINUOUS
  0
ENDTAB
  0
TABLE
  2
STYLE
 70
     3
  0
STYLE
  2
STANDARD
 70
     0
 40
0.0
 41
1.0
 50
0.0
 71
     0
 42
2.5
  3
ROMANS
  4
EXTFONT
  0
STYLE
  2
K
 70
     0
 40
0.0
 41
1.0
 50
0.0
 71
     0
 42
3.0
  3
ROMANS
  4
bigfont
  0
STYLE
  2
STANDARD1
 70
     0
 40
0.0
 41
1.0
 50
0.0
 71
     0
 42
3.0
  3
txt
  4

  0
ENDTAB
  0
TABLE
  2
VIEW
 70
     0
  0
ENDTAB
  0
TABLE
  2
UCS
 70
     0
  0
ENDTAB
  0
TABLE
  2
APPID
 70
    45
  0
APPID
  2
ACAD
 70
     0
  0
APPID
  2
ACAD_NAV_VCDISPLAY
 70
     0
  0
APPID
  2
DCO15
 70
     0
  0
APPID
  2
GENIUS_GENOREF_13
 70
     0
  0
APPID
  2
GENIUS_GENOENT_13
 70
     0
  0
APPID
  2
GENIUS_GENBH_13
 70
     0
  0
APPID
  2
GENIUS_GENOBJ_13
 70
     0
  0
APPID
  2
GENIUS_GENODEF_13
 70
     0
  0
APPID
  2
GENIUS_GENOLIS_13
 70
     0
  0
APPID
  2
GENIUS_GENOBJ-NBEHI-BHF_13
 70
     0
  0
APPID
  2
GENIUS_GENOBJ-NBEHI-BHB_13
 70
     0
  0
APPID
  2
GENIUS_GENOBJ-F-PART_13
 70
     0
  0
APPID
  2
GENIUS_GEFSTDP_13
 70
     0
  0
APPID
  2
GENIUS_GENOBJ-N-RSSYM_13
 70
     0
  0
APPID
  2
GENIUS_GENSYMENT_13
 70
     0
  0
APPID
  2
GENIUS_GENOBJ-N-TIT_13
 70
     0
  0
APPID
  2
GENIUS_GENTITLE_13
 70
     0
  0
APPID
  2
GENIUS_GENZVEED_13
 70
     0
  0
APPID
  2
GENIUS_GENOBJ-N-LEADER_13
 70
     0
  0
APPID
  2
GENIUS_GENOBJ-N-FIL_13
 70
     0
  0
APPID
  2
GENIUS_GENOBJ-N-SEC_13
 70
     0
  0
APPID
  2
GENIUS_GENOBJ-N-CRS_13
 70
     0
  0
APPID
  2
GENIUS_GENOBJ-N-ZOO_13
 70
     0
  0
APPID
  2
GENIUS_GENZOO_13
 70
     0
  0
APPID
  2
GENIUS_GENOBJ-F-TOL_13
 70
     0
  0
APPID
  2
GENIUS_GENFIL_13
 70
     0
  0
APPID
  2
GENIUS_GENOBJ-N-CHA_13
 70
     0
  0
APPID
  2
_CALL_MAC$
 70
     0
  0
APPID
  2
ASM_BASE
 70
     0
  0
APPID
  2
ASM_EXPLO_VER_2_00
 70
     0
  0
APPID
  2
ASM_CADM_VER_12_00
 70
     0
  0
APPID
  2
ASM_BASEFORO
 70
     0
  0
APPID
  2
ASM_BASETRAVI
 70
     0
  0
APPID
  2
ASM_BASETRAVI1
 70
     0
  0
APPID
  2
ASM_GRUPPI
 70
     0
  0
APPID
  2
ASM_CADM_ALBERO
 70
     0
  0
APPID
  2
ASM_GOLE
 70
     0
  0
APPID
  2
ACAD_EXEMPT_FROM_CAD_STANDARDS
 70
     0
  0
APPID
  2
ACAD_DSTYLE_DIMJAG
 70
     0
  0
APPID
  2
ACAD_DSTYLE_DIMTALN
 70
     0
  0
APPID
  2
GRADIENTCOLOR1ACI
 70
     0
  0
APPID
  2
GRADIENTCOLOR2ACI
 70
     0
  0
APPID
  2
ACAD_MLEADERVER
 70
     0
  0
APPID
  2
ACAD_TC
 70
     0
  0
APPID
  2
ACAD_DSTYLE_DIMRADIAL_EXTENSION
 70
     0
  0
ENDTAB
  0
TABLE
  2
DIMSTYLE
 70
     2
  0
DIMSTYLE
  2
STANDARD
 70
     0
  3

  4

  5

  6

  7

 40
1.0
 41
0.18
 42
0.0625
 43
0.38
 44
0.18
 45
0.0
 46
0.0
 47
0.0
 48
0.0
140
0.18
141
0.09
142
0.0
143
25.3999999999999986
144
1.0
145
0.0
146
1.0
147
0.09
 71
     0
 72
     0
 73
     1
 74
     1
 75
     0
 76
     0
 77
     0
 78
     0
170
     0
171
     2
172
     0
173
     0
174
     0
175
     0
176
     0
177
     0
178
     0
  0
DIMSTYLE
  2
ITM
 70
     0
  3

  4

  5
ARROWANG
  6
ARROWANG
  7
ARROWANG
 40
1.0
 41
1.5
 42
1.0
 43
6.0
 44
1.0
 45
0.0
 46
0.0
 47
495.0
 48
0.0
140
3.0
141
0.0
142
0.0
143
25.3999999999999986
144
1.0
145
0.0
146
1.0
147
0.5
 71
     0
 72
     0
 73
     0
 74
     0
 75
     0
 76
     0
 77
     3
 78
     8
170
     0
171
     2
172
     1
173
     1
174
     1
175
     0
176
     0
177
     0
178
     0
  0
ENDTAB
  0
ENDSEC
  0
SECTION
  2
BLOCKS
  0
BLOCK
  8
0
  2
$MODEL_SPACE
 70
     0
 10
0.0
 20
0.0
 30
0.0
  3
$MODEL_SPACE
  1

  0
ENDBLK
  5
1C
  8
0
  0
BLOCK
 67
     1
  8
0
  2
$PAPER_SPACE
 70
     0
 10
0.0
 20
0.0
 30
0.0
  3
$PAPER_SPACE
  1

  0
ENDBLK
  5
19
 67
     1
  8
0
  0
BLOCK
  8
0
  2
ARROWANG
 70
     0
 10
0.0
 20
0.0
 30
0.0
  3
ARROWANG
  1

  0
LINE
  5
C9
  8
0
 10
0.0
 20
0.0
 30
0.0
 11
-1.4999999999999429
 21
0.4019237886467409
 31
0.0
  0
LINE
  5
CA
  8
0
 10
0.0
 20
0.0
 30
0.0
 11
-1.5
 21
-0.4019237886467124
 31
0.0
  0
ENDBLK
  5
CB
  8
0
  0
BLOCK
  8
0
  2
ARROW1
 70
     0
 10
0.0
 20
0.0
 30
0.0
  3
ARROW1
  1

  0
SOLID
  5
EE
  8
WAKU
  6
CONTINUOUS
 62
     4
 10
-1.0
 20
0.1666666666666714
 30
0.0
 11
-1.0
 21
-0.1666666666666714
 31
0.0
 12
0.0
 22
0.0
 32
0.0
 13
0.0
 23
0.0
 33
0.0
  0
ENDBLK
  5
F0
  8
0
  0
ENDSEC
  0
SECTION
  2
ENTITIES
  0
TEXT
  5
1BB9
  8
0
 62
     3
 10
0.0
 20
0.0
 30
0.0
 40
10.0
  1
VVA50-S-G1/4
  7
STANDARD1
  0
LINE
  5
222D
  8
0
 10
85.0
 20
110.0
 30
0.0
 11
70.0
 21
122.0
 31
0.0
  0
LINE
  5
222E
  8
0
 10
50.0
 20
122.0
 30
0.0
 11
35.0
 21
110.0
 31
0.0
  0
LINE
  5
222F
  8
0
 10
72.5
 20
124.0
 30
0.0
 11
72.5
 21
130.0
 31
0.0
  0
LINE
  5
2230
  8
0
 10
47.5
 20
130.0
 30
0.0
 11
47.5
 21
124.0
 31
0.0
  0
LINE
  5
2231
  8
0
 10
49.0
 20
124.0
 30
0.0
 11
50.0
 21
123.0
 31
0.0
  0
LINE
  5
2232
  8
0
 10
70.0
 20
123.0
 30
0.0
 11
71.0
 21
124.0
 31
0.0
  0
LINE
  5
2233
  8
0
 10
70.0
 20
122.0
 30
0.0
 11
70.0
 21
123.0
 31
0.0
  0
LINE
  5
2234
  8
0
 10
50.0
 20
123.0
 30
0.0
 11
50.0
 21
122.0
 31
0.0
  0
LINE
  5
2235
  8
0
 10
66.5785000000000196
 20
151.1440000000000055
 30
0.0
 11
65.722500000000025
 21
152.0
 31
0.0
  0
LINE
  5
2236
  8
0
 10
54.2775000000000034
 20
152.0
 30
0.0
 11
53.4215000000000089
 21
151.1440000000000055
 31
0.0
  0
LINE
  5
2237
  8
0
 10
66.5785000000000196
 20
140.0
 30
0.0
 11
66.5785000000000196
 21
151.1440000000000055
 31
0.0
  0
LINE
  5
2238
  8
0
 10
53.4215000000000089
 20
151.1440000000000055
 30
0.0
 11
53.4215000000000089
 21
140.0
 31
0.0
  0
LINE
  5
2239
  8
0
 10
65.7250000000000227
 20
138.0
 30
0.0
 11
65.7250000000000227
 21
140.0
 31
0.0
  0
LINE
  5
223A
  8
0
 10
54.2750000000000128
 20
140.0
 30
0.0
 11
54.2750000000000128
 21
138.0
 31
0.0
  0
LINE
  5
223B
  8
0
 10
69.8149545761999946
 20
137.6999999999999886
 30
0.0
 11
68.6953393338999945
 21
138.0
 31
0.0
  0
LINE
  5
223C
  8
0
 10
68.6953393338999945
 20
130.0
 30
0.0
 11
69.8149545761999946
 21
130.3000000000000114
 31
0.0
  0
LINE
  5
223D
  8
0
 10
51.3046606659999895
 20
138.0
 30
0.0
 11
50.1850454236999894
 21
137.6999999999999886
 31
0.0
  0
LINE
  5
223E
  8
0
 10
50.1850454236999894
 20
130.3000000000000114
 30
0.0
 11
51.3046606659999895
 21
130.0
 31
0.0
  0
LINE
  5
223F
  8
0
 10
85.0
 20
110.0
 30
0.0
 11
35.0
 21
110.0
 31
0.0
  0
LINE
  5
2240
  8
0
 10
70.0
 20
122.0
 30
0.0
 11
50.0
 21
122.0
 31
0.0
  0
LINE
  5
2241
  8
0
 10
72.5
 20
130.0
 30
0.0
 11
47.5
 21
130.0
 31
0.0
  0
LINE
  5
2242
  8
0
 10
72.5
 20
124.0
 30
0.0
 11
47.5
 21
124.0
 31
0.0
  0
LINE
  5
2243
  8
0
 10
70.0
 20
123.0
 30
0.0
 11
50.0
 21
123.0
 31
0.0
  0
POLYLINE
  5
2244
  8
0
 66
     1
 10
0.0
 20
0.0
 30
0.0
 70
   128
  0
VERTEX
  5
2483
  8
0
 10
68.2775845987000025
 20
130.0
 30
0.0
  0
VERTEX
  5
2484
  8
0
 10
69.0471080064999967
 20
130.1203089894999891
 30
0.0
  0
VERTEX
  5
2485
  8
0
 10
69.8149545761999946
 20
130.3000000000000114
 30
0.0
  0
SEQEND
  5
2486
  8
0
  0
POLYLINE
  5
2245
  8
0
 66
     1
 10
0.0
 20
0.0
 30
0.0
 70
   128
  0
VERTEX
  5
2487
  8
0
 10
64.9074772881000115
 20
130.3000000000000114
 30
0.0
  0
VERTEX
  5
2488
  8
0
 10
65.6741883905000066
 20
130.1205334246999996
 30
0.0
  0
VERTEX
  5
2489
  8
0
 10
66.444847265500016
 20
130.0
 30
0.0
  0
SEQEND
  5
248A
  8
0
  0
LINE
  5
2246
  8
0
 10
64.9074772881000115
 20
137.6999999999999886
 30
0.0
 11
64.9074772881000115
 21
130.3000000000000114
 31
0.0
  0
POLYLINE
  5
2247
  8
0
 66
     1
 10
0.0
 20
0.0
 30
0.0
 70
   128
  0
VERTEX
  5
248B
  8
0
 10
66.444847265500016
 20
138.0
 30
0.0
  0
VERTEX
  5
248C
  8
0
 10
65.6753238578000094
 20
137.8796910105999984
 30
0.0
  0
VERTEX
  5
248D
  8
0
 10
64.9074772881000115
 20
137.6999999999999886
 30
0.0
  0
SEQEND
  5
248E
  8
0
  0
LINE
  5
2248
  8
0
 10
66.444847265500016
 20
138.0
 30
0.0
 11
68.2775845987000025
 21
138.0
 31
0.0
  0
POLYLINE
  5
2249
  8
0
 66
     1
 10
0.0
 20
0.0
 30
0.0
 70
   128
  0
VERTEX
  5
248F
  8
0
 10
69.8149545761999946
 20
137.6999999999999886
 30
0.0
  0
VERTEX
  5
2490
  8
0
 10
69.0482434737000119
 20
137.879466575399988
 30
0.0
  0
VERTEX
  5
2491
  8
0
 10
68.2775845987000025
 20
138.0
 30
0.0
  0
SEQEND
  5
2492
  8
0
  0
LINE
  5
224A
  8
0
 10
69.8149545761999946
 20
137.6999999999999886
 30
0.0
 11
69.8149545761999946
 21
130.3000000000000114
 31
0.0
  0
POLYLINE
  5
224B
  8
0
 66
     1
 10
0.0
 20
0.0
 30
0.0
 70
   128
  0
VERTEX
  5
2493
  8
0
 10
64.9074772881000115
 20
137.6999999999999886
 30
0.0
  0
VERTEX
  5
2494
  8
0
 10
63.3740550831999983
 20
137.879466575399988
 30
0.0
  0
VERTEX
  5
2495
  8
0
 10
61.8327373332000079
 20
138.0
 30
0.0
  0
SEQEND
  5
2496
  8
0
  0
LINE
  5
224C
  8
0
 10
66.444847265500016
 20
138.0
 30
0.0
 11
61.8327373332000079
 21
138.0
 31
0.0
  0
POLYLINE
  5
224D
  8
0
 66
     1
 10
0.0
 20
0.0
 30
0.0
 70
   128
  0
VERTEX
  5
2497
  8
0
 10
61.8327373332000079
 20
130.0
 30
0.0
  0
VERTEX
  5
2498
  8
0
 10
63.3717841487000229
 20
130.1203089894999891
 30
0.0
  0
VERTEX
  5
2499
  8
0
 10
64.9074772881000115
 20
130.3000000000000114
 30
0.0
  0
SEQEND
  5
249A
  8
0
  0
POLYLINE
  5
224E
  8
0
 66
     1
 10
0.0
 20
0.0
 30
0.0
 70
   128
  0
VERTEX
  5
249B
  8
0
 10
55.0925227118999885
 20
130.3000000000000114
 30
0.0
  0
VERTEX
  5
249C
  8
0
 10
56.6259449168000017
 20
130.1205334246999996
 30
0.0
  0
VERTEX
  5
249D
  8
0
 10
58.1672626667000188
 20
130.0
 30
0.0
  0
SEQEND
  5
249E
  8
0
  0
LINE
  5
224F
  8
0
 10
55.0925227118999885
 20
137.6999999999999886
 30
0.0
 11
55.0925227118999885
 21
130.3000000000000114
 31
0.0
  0
POLYLINE
  5
2250
  8
0
 66
     1
 10
0.0
 20
0.0
 30
0.0
 70
   128
  0
VERTEX
  5
249F
  8
0
 10
58.1672626667000188
 20
138.0
 30
0.0
  0
VERTEX
  5
24A0
  8
0
 10
56.6282158511999896
 20
137.8796910105999984
 30
0.0
  0
VERTEX
  5
24A1
  8
0
 10
55.0925227118999885
 20
137.6999999999999886
 30
0.0
  0
SEQEND
  5
24A2
  8
0
  0
LINE
  5
2251
  8
0
 10
58.1672626667000188
 20
138.0
 30
0.0
 11
61.8327373332000079
 21
138.0
 31
0.0
  0
POLYLINE
  5
2252
  8
0
 66
     1
 10
0.0
 20
0.0
 30
0.0
 70
   128
  0
VERTEX
  5
24A3
  8
0
 10
55.0925227118999885
 20
137.6999999999999886
 30
0.0
  0
VERTEX
  5
24A4
  8
0
 10
54.3258116093999988
 20
137.879466575399988
 30
0.0
  0
VERTEX
  5
24A5
  8
0
 10
53.5551527343999965
 20
138.0
 30
0.0
  0
SEQEND
  5
24A6
  8
0
  0
LINE
  5
2253
  8
0
 10
58.1672626667000188
 20
138.0
 30
0.0
 11
53.5551527343999965
 21
138.0
 31
0.0
  0
POLYLINE
  5
2254
  8
0
 66
     1
 10
0.0
 20
0.0
 30
0.0
 70
   128
  0
VERTEX
  5
24A7
  8
0
 10
53.5551527343999965
 20
130.0
 30
0.0
  0
VERTEX
  5
24A8
  8
0
 10
54.324676142200012
 20
130.1203089894999891
 30
0.0
  0
VERTEX
  5
24A9
  8
0
 10
55.0925227118999885
 20
130.3000000000000114
 30
0.0
  0
SEQEND
  5
24AA
  8
0
  0
POLYLINE
  5
2255
  8
0
 66
     1
 10
0.0
 20
0.0
 30
0.0
 70
   128
  0
VERTEX
  5
24AB
  8
0
 10
50.1850454236999894
 20
130.3000000000000114
 30
0.0
  0
VERTEX
  5
24AC
  8
0
 10
50.9517565262000005
 20
130.1205334246999996
 30
0.0
  0
VERTEX
  5
24AD
  8
0
 10
51.7224154012000099
 20
130.0
 30
0.0
  0
SEQEND
  5
24AE
  8
0
  0
LINE
  5
2256
  8
0
 10
50.1850454236999894
 20
137.6999999999999886
 30
0.0
 11
50.1850454236999894
 21
130.3000000000000114
 31
0.0
  0
POLYLINE
  5
2257
  8
0
 66
     1
 10
0.0
 20
0.0
 30
0.0
 70
   128
  0
VERTEX
  5
24AF
  8
0
 10
51.7224154012000099
 20
138.0
 30
0.0
  0
VERTEX
  5
24B0
  8
0
 10
50.9528919934000086
 20
137.8796910105999984
 30
0.0
  0
VERTEX
  5
24B1
  8
0
 10
50.1850454236999894
 20
137.6999999999999886
 30
0.0
  0
SEQEND
  5
24B2
  8
0
  0
LINE
  5
2258
  8
0
 10
51.7224154012000099
 20
138.0
 30
0.0
 11
53.5551527343999965
 21
138.0
 31
0.0
  0
LINE
  5
2259
  8
0
 10
66.5785000000000196
 20
151.1440000000000055
 30
0.0
 11
53.4215000000000089
 21
151.1440000000000055
 31
0.0
  0
LINE
  5
225A
  8
0
 10
65.722500000000025
 20
152.0
 30
0.0
 11
54.2775000000000034
 21
152.0
 31
0.0
  0
LINE
  5
225B
  8
0
 10
66.5785000000000196
 20
140.0
 30
0.0
 11
53.4215000000000089
 21
140.0
 31
0.0
  0
LINE
  5
225C
  8
0
 10
68.6953393338999945
 20
138.0
 30
0.0
 11
68.2775845987000025
 21
138.0
 31
0.0
  0
LINE
  5
225D
  8
0
 10
51.7224154012000099
 20
138.0
 30
0.0
 11
51.3046606659999895
 21
138.0
 31
0.0
  0
CIRCLE
  5
225E
  8
0
 10
60.0
 20
202.0
 30
0.0
 40
6.578499999999992
  0
CIRCLE
  5
2260
  8
0
 10
60.0
 20
202.0
 30
0.0
 40
3.250000000000028
  0
ARC
  5
2261
  8
0
 10
60.0
 20
202.0
 30
0.0
 40
8.6953393339529423
 50
42.1676192931000386
 51
77.8323807068997837
  0
LINE
  5
2262
  8
0
 10
68.2775845987000025
 20
204.662802911
 30
0.0
 11
66.444847265500016
 21
207.837197089
 31
0.0
  0
ARC
  5
2263
  8
0
 10
60.0
 20
202.0
 30
0.0
 40
8.6953393339529246
 50
342.1676192931000173
 51
17.8323807069000502
  0
LINE
  5
2264
  8
0
 10
66.444847265500016
 20
196.162802911
 30
0.0
 11
68.2775845987000025
 21
199.337197089
 31
0.0
  0
ARC
  5
2265
  8
0
 10
60.0
 20
202.0
 30
0.0
 40
8.6953393339529637
 50
282.1676192931001879
 51
317.8323807068998121
  0
LINE
  5
2266
  8
0
 10
58.1672626667000188
 20
193.5
 30
0.0
 11
61.8327373332000079
 21
193.5
 31
0.0
  0
ARC
  5
2267
  8
0
 10
60.0
 20
202.0
 30
0.0
 40
8.6953393339529637
 50
222.1676192930999889
 51
257.8323807068996985
  0
LINE
  5
2268
  8
0
 10
51.7224154012000099
 20
199.337197089
 30
0.0
 11
53.5551527343999965
 21
196.162802911
 31
0.0
  0
ARC
  5
2269
  8
0
 10
60.0
 20
202.0
 30
0.0
 40
8.6953393339529512
 50
162.1676192930999036
 51
197.8323807069000111
  0
ARC
  5
226A
  8
0
 10
60.0
 20
202.0
 30
0.0
 40
8.6953393339529637
 50
102.1676192931002021
 51
137.8323807068998121
  0
LINE
  5
226B
  8
0
 10
61.8327373332000079
 20
210.5
 30
0.0
 11
58.1672626667000188
 21
210.5
 31
0.0
  0
LINE
  5
226C
  8
0
 10
53.5551527343999965
 20
207.837197089
 30
0.0
 11
51.7224154012000099
 21
204.662802911
 31
0.0
  0
LINE
  5
226D
  8
0
 10
55.0925227118999885
 20
210.5
 30
0.0
 11
58.1672626667000188
 21
210.5
 31
0.0
  0
LINE
  5
226E
  8
0
 10
53.5551527343999965
 20
207.837197089
 30
0.0
 11
55.0925227118999885
 21
210.5
 31
0.0
  0
LINE
  5
226F
  8
0
 10
51.7224154012000099
 20
199.337197089
 30
0.0
 11
50.1850454236999894
 21
202.0
 31
0.0
  0
LINE
  5
2270
  8
0
 10
50.1850454236999894
 20
202.0
 30
0.0
 11
51.7224154012000099
 21
204.662802911
 31
0.0
  0
LINE
  5
2271
  8
0
 10
64.9074772881000115
 20
210.5
 30
0.0
 11
66.444847265500016
 21
207.837197089
 31
0.0
  0
LINE
  5
2272
  8
0
 10
61.8327373332000079
 20
210.5
 30
0.0
 11
64.9074772881000115
 21
210.5
 31
0.0
  0
LINE
  5
2273
  8
0
 10
58.1672626667000188
 20
193.5
 30
0.0
 11
55.0925227118999885
 21
193.5
 31
0.0
  0
LINE
  5
2274
  8
0
 10
55.0925227118999885
 20
193.5
 30
0.0
 11
53.5551527343999965
 21
196.162802911
 31
0.0
  0
LINE
  5
2275
  8
0
 10
69.8149545761999946
 20
202.0
 30
0.0
 11
68.2775845987000025
 21
199.337197089
 31
0.0
  0
LINE
  5
2276
  8
0
 10
68.2775845987000025
 20
204.662802911
 30
0.0
 11
69.8149545761999946
 21
202.0
 31
0.0
  0
LINE
  5
2277
  8
0
 10
66.444847265500016
 20
196.162802911
 30
0.0
 11
64.9074772881000115
 21
193.5
 31
0.0
  0
LINE
  5
2278
  8
0
 10
64.9074772881000115
 20
193.5
 30
0.0
 11
61.8327373332000079
 21
193.5
 31
0.0
  0
CIRCLE
  5
2279
  8
0
 10
60.0
 20
202.0
 30
0.0
 40
12.5
  0
CIRCLE
  5
227A
  8
0
 10
60.0
 20
202.0
 30
0.0
 40
25.0000000000000107
  0
LINE
  5
227C
  8
0
 10
164.9999999999998863
 20
110.0
 30
0.0
 11
149.9999999999998863
 21
122.0
 31
0.0
  0
LINE
  5
227D
  8
0
 10
129.9999999999998863
 20
122.0
 30
0.0
 11
114.9999999999999005
 21
110.0
 31
0.0
  0
LINE
  5
227E
  8
0
 10
152.4999999999998863
 20
124.0
 30
0.0
 11
152.4999999999998863
 21
130.0
 31
0.0
  0
LINE
  5
227F
  8
0
 10
127.4999999999999005
 20
130.0
 30
0.0
 11
127.4999999999999005
 21
124.0
 31
0.0
  0
LINE
  5
2280
  8
0
 10
128.9999999999998863
 20
124.0
 30
0.0
 11
129.9999999999998863
 21
123.0
 31
0.0
  0
LINE
  5
2281
  8
0
 10
149.9999999999998863
 20
123.0
 30
0.0
 11
150.9999999999998863
 21
124.0
 31
0.0
  0
LINE
  5
2282
  8
0
 10
149.9999999999998863
 20
122.0
 30
0.0
 11
149.9999999999998863
 21
123.0
 31
0.0
  0
LINE
  5
2283
  8
0
 10
129.9999999999998863
 20
123.0
 30
0.0
 11
129.9999999999998863
 21
122.0
 31
0.0
  0
LINE
  5
2284
  8
0
 10
146.5784999999999059
 20
151.1440000000000055
 30
0.0
 11
145.7224999999999966
 21
152.0
 31
0.0
  0
LINE
  5
2285
  8
0
 10
134.2774999999998897
 20
152.0
 30
0.0
 11
133.4214999999998952
 21
151.1440000000000055
 31
0.0
  0
LINE
  5
2286
  8
0
 10
146.5784999999999059
 20
140.0
 30
0.0
 11
146.5784999999999059
 21
151.1440000000000055
 31
0.0
  0
LINE
  5
2287
  8
0
 10
133.4214999999998952
 20
151.1440000000000055
 30
0.0
 11
133.4214999999998952
 21
140.0
 31
0.0
  0
LINE
  5
2288
  8
0
 10
145.7249999999999091
 20
138.0
 30
0.0
 11
145.7249999999999091
 21
140.0
 31
0.0
  0
LINE
  5
2289
  8
0
 10
134.2750000000000057
 20
140.0
 30
0.0
 11
134.2750000000000057
 21
138.0
 31
0.0
  0
LINE
  5
228A
  8
0
 10
149.9999999999998863
 20
122.0
 30
0.0
 11
129.9999999999998863
 21
122.0
 31
0.0
  0
LINE
  5
228B
  8
0
 10
164.9999999999998863
 20
110.0
 30
0.0
 11
114.9999999999999005
 21
110.0
 31
0.0
  0
LINE
  5
228C
  8
0
 10
152.4999999999998863
 20
124.0
 30
0.0
 11
127.4999999999999005
 21
124.0
 31
0.0
  0
LINE
  5
228D
  8
0
 10
152.4999999999998863
 20
130.0
 30
0.0
 11
127.4999999999999005
 21
130.0
 31
0.0
  0
LINE
  5
228E
  8
0
 10
149.9999999999998863
 20
123.0
 30
0.0
 11
129.9999999999998863
 21
123.0
 31
0.0
  0
POLYLINE
  5
228F
  8
0
 66
     1
 10
0.0
 20
0.0
 30
0.0
 70
   128
  0
VERTEX
  5
24B3
  8
0
 10
145.8371970889998863
 20
130.0
 30
0.0
  0
VERTEX
  5
24B4
  8
0
 10
147.1700507287999073
 20
130.1203089894999891
 30
0.0
  0
VERTEX
  5
24B5
  8
0
 10
148.4999999999998863
 20
130.3000000000000114
 30
0.0
  0
SEQEND
  5
24B6
  8
0
  0
POLYLINE
  5
2290
  8
0
 66
     1
 10
0.0
 20
0.0
 30
0.0
 70
   128
  0
VERTEX
  5
24B7
  8
0
 10
139.9999999999998863
 20
130.3000000000000114
 30
0.0
  0
VERTEX
  5
24B8
  8
0
 10
141.3279825840999138
 20
130.1205334246999996
 30
0.0
  0
VERTEX
  5
24B9
  8
0
 10
142.6628029108998987
 20
130.0
 30
0.0
  0
SEQEND
  5
24BA
  8
0
  0
LINE
  5
2291
  8
0
 10
139.9999999999998863
 20
137.6999999999999886
 30
0.0
 11
139.9999999999998863
 21
130.3000000000000114
 31
0.0
  0
POLYLINE
  5
2292
  8
0
 66
     1
 10
0.0
 20
0.0
 30
0.0
 70
   128
  0
VERTEX
  5
24BB
  8
0
 10
142.6628029108998987
 20
138.0
 30
0.0
  0
VERTEX
  5
24BC
  8
0
 10
141.3299492710999061
 20
137.8796910105999984
 30
0.0
  0
VERTEX
  5
24BD
  8
0
 10
139.9999999999998863
 20
137.6999999999999886
 30
0.0
  0
SEQEND
  5
24BE
  8
0
  0
LINE
  5
2293
  8
0
 10
142.6628029108998987
 20
138.0
 30
0.0
 11
145.8371970889998863
 21
138.0
 31
0.0
  0
POLYLINE
  5
2294
  8
0
 66
     1
 10
0.0
 20
0.0
 30
0.0
 70
   128
  0
VERTEX
  5
24BF
  8
0
 10
148.4999999999998863
 20
137.6999999999999886
 30
0.0
  0
VERTEX
  5
24C0
  8
0
 10
147.1720174157998997
 20
137.879466575399988
 30
0.0
  0
VERTEX
  5
24C1
  8
0
 10
145.8371970889998863
 20
138.0
 30
0.0
  0
SEQEND
  5
24C2
  8
0
  0
LINE
  5
2295
  8
0
 10
148.4999999999998863
 20
137.6999999999999886
 30
0.0
 11
148.4999999999998863
 21
130.3000000000000114
 31
0.0
  0
POLYLINE
  5
2296
  8
0
 66
     1
 10
0.0
 20
0.0
 30
0.0
 70
   128
  0
VERTEX
  5
24C3
  8
0
 10
139.9999999999998863
 20
137.6999999999999886
 30
0.0
  0
VERTEX
  5
24C4
  8
0
 10
138.6720174157998997
 20
137.879466575399988
 30
0.0
  0
VERTEX
  5
24C5
  8
0
 10
137.3371970889998863
 20
138.0
 30
0.0
  0
SEQEND
  5
24C6
  8
0
  0
LINE
  5
2297
  8
0
 10
142.6628029108998987
 20
138.0
 30
0.0
 11
137.3371970889998863
 21
138.0
 31
0.0
  0
POLYLINE
  5
2298
  8
0
 66
     1
 10
0.0
 20
0.0
 30
0.0
 70
   128
  0
VERTEX
  5
24C7
  8
0
 10
137.3371970889998863
 20
130.0
 30
0.0
  0
VERTEX
  5
24C8
  8
0
 10
138.6700507287999073
 20
130.1203089894999891
 30
0.0
  0
VERTEX
  5
24C9
  8
0
 10
139.9999999999998863
 20
130.3000000000000114
 30
0.0
  0
SEQEND
  5
24CA
  8
0
  0
POLYLINE
  5
2299
  8
0
 66
     1
 10
0.0
 20
0.0
 30
0.0
 70
   128
  0
VERTEX
  5
24CB
  8
0
 10
131.4999999999998863
 20
130.3000000000000114
 30
0.0
  0
VERTEX
  5
24CC
  8
0
 10
132.8279825840999138
 20
130.1205334246999996
 30
0.0
  0
VERTEX
  5
24CD
  8
0
 10
134.1628029108998987
 20
130.0
 30
0.0
  0
SEQEND
  5
24CE
  8
0
  0
LINE
  5
229A
  8
0
 10
131.4999999999998863
 20
137.6999999999999886
 30
0.0
 11
131.4999999999998863
 21
130.3000000000000114
 31
0.0
  0
POLYLINE
  5
229B
  8
0
 66
     1
 10
0.0
 20
0.0
 30
0.0
 70
   128
  0
VERTEX
  5
24CF
  8
0
 10
134.1628029108998987
 20
138.0
 30
0.0
  0
VERTEX
  5
24D0
  8
0
 10
132.8299492710999061
 20
137.8796910105999984
 30
0.0
  0
VERTEX
  5
24D1
  8
0
 10
131.4999999999998863
 20
137.6999999999999886
 30
0.0
  0
SEQEND
  5
24D2
  8
0
  0
LINE
  5
229C
  8
0
 10
134.1628029108998987
 20
138.0
 30
0.0
 11
137.3371970889998863
 21
138.0
 31
0.0
  0
LINE
  5
229D
  8
0
 10
146.5784999999999059
 20
151.1440000000000055
 30
0.0
 11
133.4214999999998952
 21
151.1440000000000055
 31
0.0
  0
LINE
  5
229E
  8
0
 10
145.7224999999999966
 20
152.0
 30
0.0
 11
134.2774999999998897
 21
152.0
 31
0.0
  0
LINE
  5
229F
  8
0
 10
146.5784999999999059
 20
140.0
 30
0.0
 11
133.4214999999998952
 21
140.0
 31
0.0
  0
LINE
  5
22A0
  8
0
 10
148.4999999999998863
 20
138.0
 30
0.0
 11
148.4999999999998863
 21
137.6999999999999886
 31
0.0
  0
LINE
  5
22A1
  8
0
 10
148.4999999999998863
 20
138.0
 30
0.0
 11
145.8371970889998863
 21
138.0
 31
0.0
  0
LINE
  5
22A2
  8
0
 10
148.4999999999998863
 20
130.3000000000000114
 30
0.0
 11
148.4999999999998863
 21
130.0
 31
0.0
  0
LINE
  5
22A3
  8
0
 10
131.4999999999998863
 20
137.6999999999999886
 30
0.0
 11
131.4999999999998863
 21
138.0
 31
0.0
  0
LINE
  5
22A4
  8
0
 10
134.1628029108998987
 20
138.0
 30
0.0
 11
131.4999999999998863
 21
138.0
 31
0.0
  0
LINE
  5
22A5
  8
0
 10
131.4999999999998863
 20
130.0
 30
0.0
 11
131.4999999999998863
 21
130.3000000000000114
 31
0.0
  0
CIRCLE
  5
22A6
  8
0
 10
60.0
 20
60.0
 30
0.0
 40
25.0000000000000107
  0
ARC
  5
22A7
  8
0
 10
60.0
 20
60.0
 30
0.0
 40
18.3333333333333286
 50
55.7771249731009391
 51
64.2228750268995157
  0
ARC
  5
22A8
  8
0
 10
60.0
 20
60.0
 30
0.0
 40
18.3333333333333286
 50
115.7771249731004986
 51
124.2228750268991035
  0
ARC
  5
22A9
  8
0
 10
60.0
 20
60.0
 30
0.0
 40
18.3333333333333108
 50
175.7771249731000864
 51
184.2228750268997999
  0
CIRCLE
  5
22AA
  8
0
 10
60.0
 20
60.0
 30
0.0
 40
5.0000000000000284
  0
ARC
  5
22AB
  8
0
 10
60.0
 20
60.0
 30
0.0
 40
18.3333333333333108
 50
355.7771249731000012
 51
4.2228750268999828
  0
ARC
  5
22AC
  8
0
 10
60.0
 20
60.0
 30
0.0
 40
18.3333333333333393
 50
295.7771249731003991
 51
304.2228750268989756
  0
ARC
  5
22AD
  8
0
 10
60.0
 20
60.0
 30
0.0
 40
18.3333333333333393
 50
235.777124973100797
 51
244.2228750268994872
  0
LINE
  5
22AE
  8
0
 10
49.6890850918000027
 20
44.8409715064999972
 30
0.0
 11
55.3308657049000203
 21
54.6128221734999997
 31
0.0
  0
LINE
  5
22AF
  8
0
 10
55.3308657049000203
 20
54.6128221734999997
 30
0.0
 11
57.6691342951000081
 21
53.2628221735000125
 31
0.0
  0
LINE
  5
22B0
  8
0
 10
52.0273536820000118
 20
43.4909715065000029
 30
0.0
 11
57.6691342951000081
 21
53.2628221735000125
 31
0.0
  0
LINE
  5
22B1
  8
0
 10
57.6691342951000081
 20
66.7371778265000017
 30
0.0
 11
52.0273536820000118
 21
76.5090284935000113
 31
0.0
  0
LINE
  5
22B2
  8
0
 10
55.3308657049000203
 20
65.3871778264999932
 30
0.0
 11
57.6691342951000081
 21
66.7371778265000017
 31
0.0
  0
LINE
  5
22B3
  8
0
 10
55.3308657049000203
 20
65.3871778264999932
 30
0.0
 11
49.6890850918000027
 21
75.1590284935000028
 31
0.0
  0
LINE
  5
22B4
  8
0
 10
62.3308657049000203
 20
66.7371778265000017
 30
0.0
 11
64.6691342950999939
 21
65.3871778264999932
 31
0.0
  0
LINE
  5
22B5
  8
0
 10
62.3308657049000203
 20
66.7371778265000017
 30
0.0
 11
67.9726463179000007
 21
76.5090284935000113
 31
0.0
  0
LINE
  5
22B6
  8
0
 10
64.6691342950999939
 20
65.3871778264999932
 30
0.0
 11
70.3109149082000044
 21
75.1590284935000028
 31
0.0
  0
LINE
  5
22B7
  8
0
 10
67.9726463179000007
 20
43.4909715065000029
 30
0.0
 11
62.3308657049000203
 21
53.2628221735000125
 31
0.0
  0
LINE
  5
22B8
  8
0
 10
62.3308657049000203
 20
53.2628221735000125
 30
0.0
 11
64.6691342950999939
 21
54.6128221734999997
 31
0.0
  0
LINE
  5
22B9
  8
0
 10
70.3109149082000044
 20
44.8409715064999972
 30
0.0
 11
64.6691342950999939
 21
54.6128221734999997
 31
0.0
  0
LINE
  5
22BA
  8
0
 10
67.0
 20
58.6500000000000128
 30
0.0
 11
67.0
 21
61.3500000000000085
 31
0.0
  0
LINE
  5
22BB
  8
0
 10
78.2835612261000051
 20
61.3500000000000085
 30
0.0
 11
67.0
 21
61.3500000000000085
 31
0.0
  0
LINE
  5
22BC
  8
0
 10
78.2835612261000051
 20
58.6500000000000128
 30
0.0
 11
67.0
 21
58.6500000000000128
 31
0.0
  0
LINE
  5
22BD
  8
0
 10
53.0
 20
61.3500000000000085
 30
0.0
 11
41.7164387738000073
 21
61.3500000000000085
 31
0.0
  0
LINE
  5
22BE
  8
0
 10
53.0
 20
58.6500000000000128
 30
0.0
 11
53.0
 21
61.3500000000000085
 31
0.0
  0
LINE
  5
22BF
  8
0
 10
53.0
 20
58.6500000000000128
 30
0.0
 11
41.7164387738000073
 21
58.6500000000000128
 31
0.0
  0
CIRCLE
  5
22C0
  8
0
 10
60.0
 20
60.0
 30
0.0
 40
3.250000000000028
  0
LINE
  5
22C2
  8
1
 10
30.0
 20
60.0
 30
0.0
 11
90.0
 21
60.0
 31
0.0
  0
LINE
  5
22C3
  8
1
 10
60.0
 20
90.0
 30
0.0
 11
60.0
 21
29.9999999999999893
 31
0.0
  0
LINE
  5
22C5
  8
1
 10
60.0
 20
157.0
 30
0.0
 11
60.0
 21
105.0
 31
0.0
  0
LINE
  5
22C7
  8
1
 10
139.9999999999998863
 20
157.0
 30
0.0
 11
140.0
 21
105.0
 31
0.0
  0
LINE
  5
22C8
  8
1
 10
30.0
 20
202.0
 30
0.0
 11
90.0
 21
202.0
 31
0.0
  0
LINE
  5
22C9
  8
1
 10
60.0
 20
232.0
 30
0.0
 11
60.0
 21
172.0
 31
0.0
  0
LINE
  5
23F6
  8
3
 10
54.2775000000000318
 20
152.0
 30
0.0
 11
54.2775000000000603
 21
140.0
 31
0.0
  0
LINE
  5
23F7
  8
3
 10
65.7225000000000534
 20
151.9999999999998863
 30
0.0
 11
65.7225000000000534
 21
140.0
 31
0.0
  0
LINE
  5
23F8
  8
3
 10
134.2774999999998897
 20
152.0
 30
0.0
 11
134.2775000000000034
 21
140.0
 31
0.0
  0
LINE
  5
23F9
  8
3
 10
145.7224999999999966
 20
151.9999999999998863
 30
0.0
 11
145.7224999999999966
 21
140.0
 31
0.0
  0
CIRCLE
  5
23FA
  8
3
 10
59.9999999999737668
 20
202.0
 30
0.0
 40
5.7225000000000001
  0
VIEWPORT
  5
22
 67
     1
  8
0
 10
261.517699115044195
 20
148.5
 30
0.0
 40
523.0353982300885036
 41
297.0
 68
     1
 69
     1
1001
ACAD
1000
MVIEW
1002
{
1070
    16
1010
0.0
1020
0.0
1030
0.0
1010
0.0
1020
0.0
1030
1.0
1040
0.0
1040
297.0
1040
261.517699115044195
1040
148.5
1040
50.0
1040
0.0
1040
0.0
1070
     0
1070
   100
1070
     1
1070
     1
1070
     0
1070
     0
1070
     0
1070
     0
1040
0.0
1040
0.0
1040
0.0
1040
1.0
1040
1.0
1040
10.0
1040
10.0
1070
     0
1002
{
1002
}
1002
}
  0
ENDSEC
  0
EOF
