  0
SECTION
  2
HEADER
  9
$ACADVER
  1
AC1009
  9
$INSBASE
 10
0.0
 20
0.0
 30
0.0
  9
$EXTMIN
 10
0.0
 20
-2.960436562073669
 30
0.0
  9
$EXTMAX
 10
123.5
 20
192.5000000000262048
 30
0.0
  9
$LIMMIN
 10
0.0
 20
0.0
  9
$LIMMAX
 10
400.0
 20
277.0
  9
$ORTHOMODE
 70
     1
  9
$REGENMODE
 70
     1
  9
$FILLMODE
 70
     1
  9
$QTEXTMODE
 70
     0
  9
$MIRRTEXT
 70
     1
  9
$DRAGMODE
 70
     2
  9
$LTSCALE
 40
5.0
  9
$OSMODE
 70
    37
  9
$ATTMODE
 70
     1
  9
$TEXTSIZE
 40
2.5
  9
$TRACEWID
 40
1.0
  9
$TEXTSTYLE
  7
STANDARD
  9
$CLAYER
  8
0
  9
$CELTYPE
  6
BYLAYER
  9
$CECOLOR
 62
   256
  9
$DIMSCALE
 40
1.0
  9
$DIMASZ
 40
3.0
  9
$DIMEXO
 40
1.0
  9
$DIMDLI
 40
6.0
  9
$DIMRND
 40
0.0
  9
$DIMDLE
 40
0.0
  9
$DIMEXE
 40
1.0
  9
$DIMTP
 40
495.0
  9
$DIMTM
 40
0.0
  9
$DIMTXT
 40
3.0
  9
$DIMCEN
 40
0.0
  9
$DIMTSZ
 40
0.0
  9
$DIMTOL
 70
     0
  9
$DIMLIM
 70
     0
  9
$DIMTIH
 70
     0
  9
$DIMTOH
 70
     0
  9
$DIMSE1
 70
     0
  9
$DIMSE2
 70
     0
  9
$DIMTAD
 70
     3
  9
$DIMZIN
 70
     8
  9
$DIMBLK
  1

  9
$DIMASO
 70
     0
  9
$DIMSHO
 70
     1
  9
$DIMPOST
  1

  9
$DIMAPOST
  1

  9
$DIMALT
 70
     0
  9
$DIMALTD
 70
     2
  9
$DIMALTF
 40
25.3999999999999986
  9
$DIMLFAC
 40
1.0
  9
$DIMTOFL
 70
     1
  9
$DIMTVP
 40
0.0
  9
$DIMTIX
 70
     1
  9
$DIMSOXD
 70
     0
  9
$DIMSAH
 70
     1
  9
$DIMBLK1
  1
ARROW1
  9
$DIMBLK2
  1
ARROW1
  9
$DIMSTYLE
  2
ITM
  9
$DIMCLRD
 70
     4
  9
$DIMCLRE
 70
     4
  9
$DIMCLRT
 70
     4
  9
$DIMTFAC
 40
1.0
  9
$DIMGAP
 40
1.0
  9
$LUNITS
 70
     2
  9
$LUPREC
 70
     1
  9
$SKETCHINC
 40
1.0
  9
$FILLETRAD
 40
0.0
  9
$AUNITS
 70
     0
  9
$AUPREC
 70
     0
  9
$MENU
  1
.
  9
$ELEVATION
 40
0.0
  9
$PELEVATION
 40
0.0
  9
$THICKNESS
 40
0.0
  9
$LIMCHECK
 70
     0
  9
$BLIPMODE
 70
     0
  9
$CHAMFERA
 40
10.0
  9
$CHAMFERB
 40
10.0
  9
$SKPOLY
 70
     0
  9
$TDCREATE
 40
2451415.6127083338797092
  9
$TDUPDATE
 40
2460886.7184259258210659
  9
$TDINDWG
 40
0.3597354282
  9
$TDUSRTIMER
 40
0.3597354282
  9
$USRTIMER
 70
     1
  9
$ANGBASE
 50
0.0
  9
$ANGDIR
 70
     0
  9
$PDMODE
 70
     0
  9
$PDSIZE
 40
0.0
  9
$PLINEWID
 40
0.0
  9
$COORDS
 70
     1
  9
$SPLFRAME
 70
     0
  9
$SPLINETYPE
 70
     6
  9
$SPLINESEGS
 70
     8
  9
$ATTDIA
 70
     1
  9
$ATTREQ
 70
     1
  9
$HANDLING
 70
     1
  9
$HANDSEED
  5
28B5
  9
$SURFTAB1
 70
     6
  9
$SURFTAB2
 70
     6
  9
$SURFTYPE
 70
     6
  9
$SURFU
 70
     6
  9
$SURFV
 70
     6
  9
$UCSNAME
  2

  9
$UCSORG
 10
0.0
 20
0.0
 30
0.0
  9
$UCSXDIR
 10
1.0
 20
0.0
 30
0.0
  9
$UCSYDIR
 10
0.0
 20
1.0
 30
0.0
  9
$PUCSNAME
  2

  9
$PUCSORG
 10
0.0
 20
0.0
 30
0.0
  9
$PUCSXDIR
 10
1.0
 20
0.0
 30
0.0
  9
$PUCSYDIR
 10
0.0
 20
1.0
 30
0.0
  9
$USERI1
 70
     3
  9
$USERI2
 70
     1
  9
$USERI3
 70
     1
  9
$USERI4
 70
     0
  9
$USERI5
 70
     0
  9
$USERR1
 40
1.0
  9
$USERR2
 40
3.0
  9
$USERR3
 40
3.0
  9
$USERR4
 40
3.0
  9
$USERR5
 40
10.0
  9
$WORLDVIEW
 70
     1
  9
$SHADEDGE
 70
     3
  9
$SHADEDIF
 70
    70
  9
$TILEMODE
 70
     1
  9
$MAXACTVP
 70
    16
  9
$PLIMCHECK
 70
     0
  9
$PEXTMIN
 10
1.0000000000000000E+20
 20
1.0000000000000000E+20
 30
1.0000000000000000E+20
  9
$PEXTMAX
 10
-1.0000000000000000E+20
 20
-1.0000000000000000E+20
 30
-1.0000000000000000E+20
  9
$PLIMMIN
 10
0.0
 20
0.0
  9
$PLIMMAX
 10
420.0
 20
297.0
  9
$UNITMODE
 70
     0
  9
$VISRETAIN
 70
     0
  9
$PLINEGEN
 70
     0
  9
$PSLTSCALE
 70
     1
  0
ENDSEC
  0
SECTION
  2
TABLES
  0
TABLE
  2
VPORT
 70
     1
  0
VPORT
  2
*ACTIVE
 70
     0
 10
0.0
 20
0.0
 11
1.0
 21
1.0
 12
266.4484451718495279
 22
113.8549895992268972
 13
0.0
 23
0.0
 14
10.0
 24
10.0
 15
10.0
 25
10.0
 16
0.0
 26
0.0
 36
1.0
 17
0.0
 27
0.0
 37
0.0
 40
227.7099791984539081
 41
2.340243902439024
 42
50.0
 43
0.0
 44
0.0
 50
0.0
 51
0.0
 71
     0
 72
   100
 73
     1
 74
     1
 75
     0
 76
     0
 77
     0
 78
     0
  0
ENDTAB
  0
TABLE
  2
LTYPE
 70
     3
  0
LTYPE
  2
CONTINUOUS
 70
     0
  3
Solid line
 72
    65
 73
     0
 40
0.0
  0
LTYPE
  2
CENTER
 70
     0
  3
____ _ ____ _ ____ _ ____ _ ____ _ ____ _ ____ 
 72
    65
 73
     4
 40
2.0
 49
1.25
 49
-0.25
 49
0.25
 49
-0.25
  0
LTYPE
  2
PHANTOM2
 70
     0
  3
___ _ _ ___ _ _ ___ _ _ ___ _ _
 72
    65
 73
     6
 40
1.25
 49
0.625
 49
-0.125
 49
0.125
 49
-0.125
 49
0.125
 49
-0.125
  0
ENDTAB
  0
TABLE
  2
LAYER
 70
     5
  0
LAYER
  2
0
 70
     0
 62
     7
  6
CONTINUOUS
  0
LAYER
  2
WAKU
 70
     0
 62
     5
  6
CONTINUOUS
  0
LAYER
  2
1
 70
     0
 62
     1
  6
CENTER
  0
LAYER
  2
3
 70
     0
 62
     3
  6
CONTINUOUS
  0
LAYER
  2
DEFPOINTS
 70
     0
 62
     7
  6
CONTINUOUS
  0
ENDTAB
  0
TABLE
  2
STYLE
 70
     3
  0
STYLE
  2
STANDARD
 70
     0
 40
0.0
 41
1.0
 50
0.0
 71
     0
 42
2.5
  3
ROMANS
  4
EXTFONT
  0
STYLE
  2
K
 70
     0
 40
0.0
 41
1.0
 50
0.0
 71
     0
 42
3.0
  3
ROMANS
  4
bigfont
  0
STYLE
  2
STANDARD1
 70
     0
 40
0.0
 41
1.0
 50
0.0
 71
     0
 42
3.0
  3
txt
  4

  0
ENDTAB
  0
TABLE
  2
VIEW
 70
     0
  0
ENDTAB
  0
TABLE
  2
UCS
 70
     0
  0
ENDTAB
  0
TABLE
  2
APPID
 70
    45
  0
APPID
  2
ACAD
 70
     0
  0
APPID
  2
ACAD_NAV_VCDISPLAY
 70
     0
  0
APPID
  2
DCO15
 70
     0
  0
APPID
  2
GENIUS_GENOREF_13
 70
     0
  0
APPID
  2
GENIUS_GENOENT_13
 70
     0
  0
APPID
  2
GENIUS_GENBH_13
 70
     0
  0
APPID
  2
GENIUS_GENOBJ_13
 70
     0
  0
APPID
  2
GENIUS_GENODEF_13
 70
     0
  0
APPID
  2
GENIUS_GENOLIS_13
 70
     0
  0
APPID
  2
GENIUS_GENOBJ-NBEHI-BHF_13
 70
     0
  0
APPID
  2
GENIUS_GENOBJ-NBEHI-BHB_13
 70
     0
  0
APPID
  2
GENIUS_GENOBJ-F-PART_13
 70
     0
  0
APPID
  2
GENIUS_GEFSTDP_13
 70
     0
  0
APPID
  2
GENIUS_GENOBJ-N-RSSYM_13
 70
     0
  0
APPID
  2
GENIUS_GENSYMENT_13
 70
     0
  0
APPID
  2
GENIUS_GENOBJ-N-TIT_13
 70
     0
  0
APPID
  2
GENIUS_GENTITLE_13
 70
     0
  0
APPID
  2
GENIUS_GENZVEED_13
 70
     0
  0
APPID
  2
GENIUS_GENOBJ-N-LEADER_13
 70
     0
  0
APPID
  2
GENIUS_GENOBJ-N-FIL_13
 70
     0
  0
APPID
  2
GENIUS_GENOBJ-N-SEC_13
 70
     0
  0
APPID
  2
GENIUS_GENOBJ-N-CRS_13
 70
     0
  0
APPID
  2
GENIUS_GENOBJ-N-ZOO_13
 70
     0
  0
APPID
  2
GENIUS_GENZOO_13
 70
     0
  0
APPID
  2
GENIUS_GENOBJ-F-TOL_13
 70
     0
  0
APPID
  2
GENIUS_GENFIL_13
 70
     0
  0
APPID
  2
GENIUS_GENOBJ-N-CHA_13
 70
     0
  0
APPID
  2
_CALL_MAC$
 70
     0
  0
APPID
  2
ASM_BASE
 70
     0
  0
APPID
  2
ASM_EXPLO_VER_2_00
 70
     0
  0
APPID
  2
ASM_CADM_VER_12_00
 70
     0
  0
APPID
  2
ASM_BASEFORO
 70
     0
  0
APPID
  2
ASM_BASETRAVI
 70
     0
  0
APPID
  2
ASM_BASETRAVI1
 70
     0
  0
APPID
  2
ASM_GRUPPI
 70
     0
  0
APPID
  2
ASM_CADM_ALBERO
 70
     0
  0
APPID
  2
ASM_GOLE
 70
     0
  0
APPID
  2
ACAD_EXEMPT_FROM_CAD_STANDARDS
 70
     0
  0
APPID
  2
ACAD_DSTYLE_DIMJAG
 70
     0
  0
APPID
  2
ACAD_DSTYLE_DIMTALN
 70
     0
  0
APPID
  2
GRADIENTCOLOR1ACI
 70
     0
  0
APPID
  2
GRADIENTCOLOR2ACI
 70
     0
  0
APPID
  2
ACAD_MLEADERVER
 70
     0
  0
APPID
  2
ACAD_TC
 70
     0
  0
APPID
  2
ACAD_DSTYLE_DIMRADIAL_EXTENSION
 70
     0
  0
ENDTAB
  0
TABLE
  2
DIMSTYLE
 70
     2
  0
DIMSTYLE
  2
STANDARD
 70
     0
  3

  4

  5

  6

  7

 40
1.0
 41
0.18
 42
0.0625
 43
0.38
 44
0.18
 45
0.0
 46
0.0
 47
0.0
 48
0.0
140
0.18
141
0.09
142
0.0
143
25.3999999999999986
144
1.0
145
0.0
146
1.0
147
0.09
 71
     0
 72
     0
 73
     1
 74
     1
 75
     0
 76
     0
 77
     0
 78
     0
170
     0
171
     2
172
     0
173
     0
174
     0
175
     0
176
     0
177
     0
178
     0
  0
DIMSTYLE
  2
ITM
 70
     0
  3

  4

  5
ARROWANG
  6
ARROWANG
  7
ARROWANG
 40
1.0
 41
1.5
 42
1.0
 43
6.0
 44
1.0
 45
0.0
 46
0.0
 47
495.0
 48
0.0
140
3.0
141
0.0
142
0.0
143
25.3999999999999986
144
1.0
145
0.0
146
1.0
147
0.5
 71
     0
 72
     0
 73
     0
 74
     0
 75
     0
 76
     0
 77
     3
 78
     8
170
     0
171
     2
172
     1
173
     1
174
     1
175
     0
176
     0
177
     0
178
     0
  0
ENDTAB
  0
ENDSEC
  0
SECTION
  2
BLOCKS
  0
BLOCK
  8
0
  2
$MODEL_SPACE
 70
     0
 10
0.0
 20
0.0
 30
0.0
  3
$MODEL_SPACE
  1

  0
ENDBLK
  5
1C
  8
0
  0
BLOCK
 67
     1
  8
0
  2
$PAPER_SPACE
 70
     0
 10
0.0
 20
0.0
 30
0.0
  3
$PAPER_SPACE
  1

  0
ENDBLK
  5
19
 67
     1
  8
0
  0
BLOCK
  8
0
  2
ARROWANG
 70
     0
 10
0.0
 20
0.0
 30
0.0
  3
ARROWANG
  1

  0
LINE
  5
C9
  8
0
 10
0.0
 20
0.0
 30
0.0
 11
-1.4999999999999429
 21
0.4019237886467409
 31
0.0
  0
LINE
  5
CA
  8
0
 10
0.0
 20
0.0
 30
0.0
 11
-1.5
 21
-0.4019237886467124
 31
0.0
  0
ENDBLK
  5
CB
  8
0
  0
BLOCK
  8
0
  2
ARROW1
 70
     0
 10
0.0
 20
0.0
 30
0.0
  3
ARROW1
  1

  0
SOLID
  5
EE
  8
WAKU
  6
CONTINUOUS
 62
     4
 10
-1.0
 20
0.1666666666666714
 30
0.0
 11
-1.0
 21
-0.1666666666666714
 31
0.0
 12
0.0
 22
0.0
 32
0.0
 13
0.0
 23
0.0
 33
0.0
  0
ENDBLK
  5
F0
  8
0
  0
ENDSEC
  0
SECTION
  2
ENTITIES
  0
TEXT
  5
1BB9
  8
0
 62
     3
 10
0.0
 20
0.0
 30
0.0
 40
10.0
  1
VVA27-A-G1/4
  7
STANDARD1
  0
CIRCLE
  5
20A1
  8
3
 10
49.9999999999737881
 20
176.0000000000262048
 30
0.0
 40
4.0
  0
CIRCLE
  5
20A2
  8
0
 10
49.9999999999737881
 20
176.0000000000262048
 30
0.0
 40
3.323500000000009
  0
CIRCLE
  5
20A3
  8
0
 10
49.9999999999737881
 20
176.0000000000262048
 30
0.0
 40
6.5785000000000036
  0
ARC
  5
20B6
  8
0
 10
49.9999999999737881
 20
176.0000000000262048
 30
0.0
 40
9.2500000000000036
 50
307.1089421928011802
 51
352.9238510310976267
  0
ARC
  5
20B7
  8
0
 10
49.9999999999737881
 20
176.0000000000262048
 30
0.0
 40
9.2500000000000195
 50
247.0955785151010957
 51
292.8729164148007271
  0
ARC
  5
20B8
  8
0
 10
49.9999999999737881
 20
176.0000000000262048
 30
0.0
 40
9.2500000000000231
 50
187.0869993403985063
 51
232.9437302183987981
  0
ARC
  5
20B9
  8
0
 10
49.9999999999737881
 20
176.0000000000262048
 30
0.0
 40
9.2500000000000018
 50
127.1122911894998992
 51
172.8545651471985991
  0
ARC
  5
20BA
  8
0
 10
49.9999999999737881
 20
176.0000000000262048
 30
0.0
 40
9.25
 50
67.0633234962007236
 51
112.965775205399197
  0
ARC
  5
20BB
  8
0
 10
49.9999999999737881
 20
176.0000000000262048
 30
0.0
 40
9.2500000000000089
 50
7.1282995253995809
 51
52.8396484520994889
  0
CIRCLE
  5
20BC
  8
0
 10
49.9999999999737881
 20
176.0000000000262048
 30
0.0
 40
13.5
  0
LINE
  5
20BE
  8
0
 10
63.5
 20
90.0
 30
0.0
 11
59.25
 21
95.5
 31
0.0
  0
LINE
  5
20BF
  8
0
 10
40.75
 20
95.5
 30
0.0
 11
36.5
 21
90.0
 31
0.0
  0
LINE
  5
20C0
  8
0
 10
57.5
 20
95.5
 30
0.0
 11
57.5
 21
114.0
 31
0.0
  0
LINE
  5
20C1
  8
0
 10
42.5
 20
114.0
 30
0.0
 11
42.5
 21
95.5
 31
0.0
  0
LINE
  5
20C2
  8
0
 10
56.5785000000000196
 20
124.0
 30
0.0
 11
56.5785000000000196
 21
135.1440000000000055
 31
0.0
  0
LINE
  5
20C3
  8
0
 10
43.4215000000000302
 20
135.1440000000000055
 30
0.0
 11
43.4215000000000302
 21
124.0
 31
0.0
  0
LINE
  5
20C4
  8
0
 10
56.5785000000000196
 20
135.1440000000000055
 30
0.0
 11
55.7225000000000321
 21
136.0
 31
0.0
  0
LINE
  5
20C5
  8
0
 10
44.2775000000000318
 20
136.0
 30
0.0
 11
43.4215000000000302
 21
135.1440000000000055
 31
0.0
  0
LINE
  5
20C6
  8
0
 10
55.6999999999999886
 20
122.0
 30
0.0
 11
55.7000000000000384
 21
124.0
 31
0.0
  0
LINE
  5
20C7
  8
0
 10
44.3000000000000114
 20
124.0
 30
0.0
 11
44.3000000000000114
 21
122.0
 31
0.0
  0
LINE
  5
20C8
  8
0
 10
59.8340153666999797
 20
121.5144581144999023
 30
0.0
 11
58.5
 21
122.0
 31
0.0
  0
LINE
  5
20C9
  8
0
 10
40.1659846333000132
 20
114.4855418856
 30
0.0
 11
41.5
 21
114.0
 31
0.0
  0
LINE
  5
20CA
  8
0
 10
41.5
 20
122.0
 30
0.0
 11
40.1659846333000132
 21
121.5144581144999023
 31
0.0
  0
LINE
  5
20CB
  8
0
 10
58.5
 20
114.0
 30
0.0
 11
59.8340153666999797
 21
114.4855418856
 31
0.0
  0
LINE
  5
20CC
  8
0
 10
63.5
 20
90.0
 30
0.0
 11
36.5
 21
90.0
 31
0.0
  0
LINE
  5
20CD
  8
0
 10
59.25
 20
95.5
 30
0.0
 11
40.75
 21
95.5
 31
0.0
  0
LINE
  5
20D0
  8
0
 10
54.9074772880999831
 20
121.5213956749000062
 30
0.0
 11
54.9074772880999831
 21
114.4786043251999956
 31
0.0
  0
LINE
  5
20D3
  8
0
 10
45.0925227119000169
 20
121.5213956749000062
 30
0.0
 11
45.0925227119000169
 21
114.4786043251999956
 31
0.0
  0
LINE
  5
20D5
  8
0
 10
50.0
 20
122.0
 30
0.0
 11
42.6387840679000121
 21
122.0
 31
0.0
  0
LINE
  5
20D6
  8
0
 10
57.3612159322000181
 20
114.0
 30
0.0
 11
50.0
 21
114.0
 31
0.0
  0
LINE
  5
20D9
  8
0
 10
57.3612159322000181
 20
122.0
 30
0.0
 11
50.0
 21
122.0
 31
0.0
  0
LINE
  5
20DB
  8
0
 10
50.0
 20
114.0
 30
0.0
 11
42.6387840679000121
 21
114.0
 31
0.0
  0
LINE
  5
20DE
  8
0
 10
40.1850454238000268
 20
121.5213956749000062
 30
0.0
 11
40.1850454238000268
 21
114.4786043251999956
 31
0.0
  0
LINE
  5
20E0
  8
0
 10
59.8149545762000301
 20
121.5213956749000062
 30
0.0
 11
59.8149545762000301
 21
114.4786043251999956
 31
0.0
  0
LINE
  5
20E2
  8
0
 10
56.5785000000000196
 20
124.0
 30
0.0
 11
43.4215000000000302
 21
124.0
 31
0.0
  0
LINE
  5
20E3
  8
0
 10
56.5785000000000196
 20
135.1440000000000055
 30
0.0
 11
43.4215000000000302
 21
135.1440000000000055
 31
0.0
  0
LINE
  5
20E4
  8
0
 10
55.7225000000000321
 20
136.0
 30
0.0
 11
44.2775000000000318
 21
136.0
 31
0.0
  0
LINE
  5
20E5
  8
0
 10
58.5
 20
122.0
 30
0.0
 11
57.3612159322000181
 21
122.0
 31
0.0
  0
LINE
  5
20E6
  8
0
 10
42.6387840679000121
 20
114.0
 30
0.0
 11
41.5
 21
114.0
 31
0.0
  0
LINE
  5
20E7
  8
0
 10
42.6387840679000121
 20
122.0
 30
0.0
 11
41.5
 21
122.0
 31
0.0
  0
LINE
  5
20E8
  8
0
 10
58.5
 20
114.0
 30
0.0
 11
57.3612159322000181
 21
114.0
 31
0.0
  0
LINE
  5
20E9
  8
0
 10
96.5
 20
90.0
 30
0.0
 11
100.75
 21
95.5
 31
0.0
  0
LINE
  5
20EA
  8
0
 10
119.25
 20
95.5
 30
0.0
 11
123.5
 21
90.0
 31
0.0
  0
LINE
  5
20EB
  8
0
 10
102.5
 20
95.5
 30
0.0
 11
102.5
 21
114.0
 31
0.0
  0
LINE
  5
20EC
  8
0
 10
117.5
 20
114.0
 30
0.0
 11
117.5
 21
95.5
 31
0.0
  0
LINE
  5
20ED
  8
0
 10
103.4214999999999947
 20
124.0
 30
0.0
 11
103.4214999999999947
 21
135.1440000000000055
 31
0.0
  0
LINE
  5
20EE
  8
0
 10
116.5785000000000053
 20
135.1440000000000055
 30
0.0
 11
116.5785000000000053
 21
124.0
 31
0.0
  0
LINE
  5
20EF
  8
0
 10
103.4214999999999947
 20
135.1440000000000055
 30
0.0
 11
104.2775000000000034
 21
136.0
 31
0.0
  0
LINE
  5
20F0
  8
0
 10
115.7224999999999966
 20
136.0
 30
0.0
 11
116.5785000000000053
 21
135.1440000000000055
 31
0.0
  0
LINE
  5
20F1
  8
0
 10
104.2999999999999972
 20
122.0
 30
0.0
 11
104.2999999999999972
 21
124.0
 31
0.0
  0
LINE
  5
20F2
  8
0
 10
115.7000000000000028
 20
124.0
 30
0.0
 11
115.7000000000000028
 21
122.0
 31
0.0
  0
LINE
  5
20F3
  8
0
 10
96.4999999999999858
 20
90.0
 30
0.0
 11
123.5
 21
90.0
 31
0.0
  0
LINE
  5
20F5
  8
0
 10
100.7499999999999005
 20
95.4999999999999858
 30
0.0
 11
119.25
 21
95.5
 31
0.0
  0
LINE
  5
20F9
  8
0
 10
110.0
 20
121.5213956748000044
 30
0.0
 11
110.0
 21
114.4786043250999938
 31
0.0
  0
LINE
  5
20FC
  8
0
 10
118.5
 20
121.5213956748000044
 30
0.0
 11
118.5
 21
114.4786043250999938
 31
0.0
  0
LINE
  5
20FF
  8
0
 10
101.5
 20
121.5213956748000044
 30
0.0
 11
101.5
 21
114.4786043250999938
 31
0.0
  0
LINE
  5
2102
  8
0
 10
105.75
 20
122.0
 30
0.0
 11
114.25
 21
122.0
 31
0.0
  0
LINE
  5
2103
  8
0
 10
105.75
 20
114.0
 30
0.0
 11
114.25
 21
114.0
 31
0.0
  0
LINE
  5
2105
  8
0
 10
101.5
 20
122.0
 30
0.0
 11
105.75
 21
122.0
 31
0.0
  0
LINE
  5
2107
  8
0
 10
114.25
 20
114.0
 30
0.0
 11
118.5
 21
114.0
 31
0.0
  0
LINE
  5
2108
  8
0
 10
114.25
 20
122.0
 30
0.0
 11
118.5
 21
122.0
 31
0.0
  0
LINE
  5
210B
  8
0
 10
101.5
 20
114.0
 30
0.0
 11
105.75
 21
114.0
 31
0.0
  0
LINE
  5
210C
  8
0
 10
103.4214999999999947
 20
124.0
 30
0.0
 11
116.5785000000000053
 21
124.0
 31
0.0
  0
LINE
  5
210E
  8
0
 10
103.4214999999999947
 20
135.1440000000000055
 30
0.0
 11
116.5785000000000053
 21
135.1440000000000055
 31
0.0
  0
LINE
  5
2110
  8
0
 10
104.2775000000000034
 20
136.0
 30
0.0
 11
115.7224999999999966
 21
136.0
 31
0.0
  0
CIRCLE
  5
2112
  8
0
 10
50.0
 20
50.0
 30
0.0
 40
12.8699999999999992
  0
CIRCLE
  5
2113
  8
0
 10
50.0
 20
50.0
 30
0.0
 40
13.5
  0
CIRCLE
  5
2114
  8
0
 10
50.0
 20
50.0
 30
0.0
 40
10.5518181818182093
  0
CIRCLE
  5
2115
  8
0
 10
50.0
 20
50.0
 30
0.0
 40
4.5
  0
CIRCLE
  5
2116
  8
0
 10
50.0
 20
50.0
 30
0.0
 40
3.323500000000009
  0
CIRCLE
  5
211A
  8
0
 10
49.9999999999737881
 20
176.0000000000262048
 30
0.0
 40
8.4999981344792257
  0
POLYLINE
  5
211B
  8
0
 66
     1
 10
0.0
 20
0.0
 30
0.0
  0
VERTEX
  5
21D1
  8
0
 10
101.5000000000262048
 20
113.9999999999614033
 30
0.0
  0
VERTEX
  5
21D2
  8
0
 10
101.5000483841202055
 20
114.0006466403951038
 30
0.0
  0
VERTEX
  5
21D3
  8
0
 10
101.5000981909555975
 20
114.0014195374694026
 30
0.0
  0
VERTEX
  5
21D4
  8
0
 10
101.5001508432738007
 20
114.0024449478247988
 30
0.0
  0
VERTEX
  5
21D5
  8
0
 10
101.5002077638161069
 20
114.0038491281019049
 30
0.0
  0
VERTEX
  5
21D6
  8
0
 10
101.5002703445088059
 20
114.0057576898642964
 30
0.0
  0
VERTEX
  5
21D7
  8
0
 10
101.5003373709374017
 20
114.0082416840881052
 30
0.0
  0
VERTEX
  5
21D8
  8
0
 10
101.5004030800090931
 20
114.0112769406749038
 30
0.0
  0
VERTEX
  5
21D9
  8
0
 10
101.5004612511683035
 20
114.0148297130973987
 30
0.0
  0
VERTEX
  5
21DA
  8
0
 10
101.5005056638594994
 20
114.0188662548285947
 30
0.0
  0
VERTEX
  5
21DB
  8
0
 10
101.5005303607266995
 20
114.023354263192104
 30
0.0
  0
VERTEX
  5
21DC
  8
0
 10
101.5005332488573941
 20
114.028282634916394
 30
0.0
  0
VERTEX
  5
21DD
  8
0
 10
101.500515172892193
 20
114.0336563814435067
 30
0.0
  0
VERTEX
  5
21DE
  8
0
 10
101.5004770509128065
 20
114.0394809170929022
 30
0.0
  0
VERTEX
  5
21DF
  8
0
 10
101.5004198010006036
 20
114.0457616561840979
 30
0.0
  0
VERTEX
  5
21E0
  8
0
 10
101.5003449703228
 20
114.0525025383407041
 30
0.0
  0
VERTEX
  5
21E1
  8
0
 10
101.5002573643999
 20
114.0596998649905061
 30
0.0
  0
VERTEX
  5
21E2
  8
0
 10
101.5001628404996978
 20
114.0673474720668992
 30
0.0
  0
VERTEX
  5
21E3
  8
0
 10
101.5000672564099062
 20
114.0754391942849963
 30
0.0
  0
VERTEX
  5
21E4
  8
0
 10
101.4999764656041066
 20
114.0839688600772064
 30
0.0
  0
VERTEX
  5
21E5
  8
0
 10
101.4998952197627062
 20
114.0929286931446001
 30
0.0
  0
VERTEX
  5
21E6
  8
0
 10
101.4998257132944985
 20
114.1023071925939973
 30
0.0
  0
VERTEX
  5
21E7
  8
0
 10
101.4997697787061952
 20
114.1120923304316932
 30
0.0
  0
VERTEX
  5
21E8
  8
0
 10
101.4997292485041953
 20
114.1222720786638973
 30
0.0
  0
VERTEX
  5
21E9
  8
0
 10
101.4997059133614954
 20
114.132834578571206
 30
0.0
  0
VERTEX
  5
21EA
  8
0
 10
101.4996998359883946
 20
114.1437749633413006
 30
0.0
  0
VERTEX
  5
21EB
  8
0
 10
101.499708773758698
 20
114.1550976943178028
 30
0.0
  0
VERTEX
  5
21EC
  8
0
 10
101.4997303237202004
 20
114.1668078815752949
 30
0.0
  0
VERTEX
  5
21ED
  8
0
 10
101.4997620829208955
 20
114.1789106351883021
 30
0.0
  0
VERTEX
  5
21EE
  8
0
 10
101.4998016484088055
 20
114.191411065231307
 30
0.0
  0
VERTEX
  5
21EF
  8
0
 10
101.4998466172318956
 20
114.2043142817790056
 30
0.0
  0
VERTEX
  5
21F0
  8
0
 10
101.4998945864381028
 20
114.2176253949057951
 30
0.0
  0
VERTEX
  5
21F1
  8
0
 10
101.4999431530752929
 20
114.2313495146863005
 30
0.0
  0
VERTEX
  5
21F2
  8
0
 10
101.4999899141916018
 20
114.2454917511950043
 30
0.0
  0
VERTEX
  5
21F3
  8
0
 10
101.5000324668347957
 20
114.260057214506503
 30
0.0
  0
VERTEX
  5
21F4
  8
0
 10
101.5000684080530959
 20
114.2750510146952934
 30
0.0
  0
VERTEX
  5
21F5
  8
0
 10
101.5000956995319967
 20
114.2904734953359025
 30
0.0
  0
VERTEX
  5
21F6
  8
0
 10
101.5001143850223002
 20
114.3062977835134006
 30
0.0
  0
VERTEX
  5
21F7
  8
0
 10
101.5001252460996
 20
114.3224873615566963
 30
0.0
  0
VERTEX
  5
21F8
  8
0
 10
101.5001290652053001
 20
114.3390057004791061
 30
0.0
  0
VERTEX
  5
21F9
  8
0
 10
101.5001266247806058
 20
114.3558162712940032
 30
0.0
  0
VERTEX
  5
21FA
  8
0
 10
101.5001187072667932
 20
114.3728825450150026
 30
0.0
  0
VERTEX
  5
21FB
  8
0
 10
101.5001060951052949
 20
114.3901679926554067
 30
0.0
  0
VERTEX
  5
21FC
  8
0
 10
101.5000895707372024
 20
114.4076360852287024
 30
0.0
  0
VERTEX
  5
21FD
  8
0
 10
101.500069916604005
 20
114.4252502937483058
 30
0.0
  0
VERTEX
  5
21FE
  8
0
 10
101.5000479151468937
 20
114.4429740892275049
 30
0.0
  0
VERTEX
  5
21FF
  8
0
 10
101.5000243488072016
 20
114.4607709426799005
 30
0.0
  0
VERTEX
  5
2200
  8
0
 10
101.5000000000262048
 20
114.4786043251188943
 30
0.0
  0
SEQEND
  5
2201
  8
0
  0
POLYLINE
  5
211C
  8
0
 66
     1
 10
0.0
 20
0.0
 30
0.0
  0
VERTEX
  5
2202
  8
0
 10
118.5000000000262048
 20
121.9999999999614033
 30
0.0
  0
VERTEX
  5
2203
  8
0
 10
118.4999516159324031
 20
121.9993533595276034
 30
0.0
  0
VERTEX
  5
2204
  8
0
 10
118.4999018090971958
 20
121.9985804624533046
 30
0.0
  0
VERTEX
  5
2205
  8
0
 10
118.4998491567793053
 20
121.9975550520977947
 30
0.0
  0
VERTEX
  5
2206
  8
0
 10
118.499792236237397
 20
121.9961508718206034
 30
0.0
  0
VERTEX
  5
2207
  8
0
 10
118.4997296555450959
 20
121.9942423100578992
 30
0.0
  0
VERTEX
  5
2208
  8
0
 10
118.4996626291169974
 20
121.9917583158340051
 30
0.0
  0
VERTEX
  5
2209
  8
0
 10
118.4995969200459029
 20
121.9887230592469933
 30
0.0
  0
VERTEX
  5
220A
  8
0
 10
118.4995387488873035
 20
121.9851702868242
 30
0.0
  0
VERTEX
  5
220B
  8
0
 10
118.4994943361968041
 20
121.981133745092805
 30
0.0
  0
VERTEX
  5
220C
  8
0
 10
118.4994696393299023
 20
121.9766457367290968
 30
0.0
  0
VERTEX
  5
220D
  8
0
 10
118.4994667511998045
 20
121.9717173650046931
 30
0.0
  0
VERTEX
  5
220E
  8
0
 10
118.4994848271653041
 20
121.9663436184773957
 30
0.0
  0
VERTEX
  5
220F
  8
0
 10
118.4995229491451028
 20
121.9605190828279007
 30
0.0
  0
VERTEX
  5
2210
  8
0
 10
118.4995801990577036
 20
121.9542383437365061
 30
0.0
  0
VERTEX
  5
2211
  8
0
 10
118.4996550297358056
 20
121.9474974615798999
 30
0.0
  0
VERTEX
  5
2212
  8
0
 10
118.4997426356588051
 20
121.9403001349300979
 30
0.0
  0
VERTEX
  5
2213
  8
0
 10
118.499837159558794
 20
121.9326525278538043
 30
0.0
  0
VERTEX
  5
2214
  8
0
 10
118.4999327436483014
 20
121.9245608056358066
 30
0.0
  0
VERTEX
  5
2215
  8
0
 10
118.5000235344535042
 20
121.9160311398437955
 30
0.0
  0
VERTEX
  5
2216
  8
0
 10
118.5001047802938956
 20
121.9070713067766007
 30
0.0
  0
VERTEX
  5
2217
  8
0
 10
118.5001742867609948
 20
121.8976928073276014
 30
0.0
  0
VERTEX
  5
2218
  8
0
 10
118.5002302213482039
 20
121.8879076694904029
 30
0.0
  0
VERTEX
  5
2219
  8
0
 10
118.5002707515488964
 20
121.8777279212586961
 30
0.0
  0
VERTEX
  5
221A
  8
0
 10
118.5002940866905021
 20
121.8671654213517002
 30
0.0
  0
VERTEX
  5
221B
  8
0
 10
118.5003001640625939
 20
121.8562250365820034
 30
0.0
  0
VERTEX
  5
221C
  8
0
 10
118.5002912262914947
 20
121.8449023056057996
 30
0.0
  0
VERTEX
  5
221D
  8
0
 10
118.5002696763291965
 20
121.833192118348606
 30
0.0
  0
VERTEX
  5
221E
  8
0
 10
118.5002379171279046
 20
121.8210893647357977
 30
0.0
  0
VERTEX
  5
221F
  8
0
 10
118.5001983516394972
 20
121.8085889346929065
 30
0.0
  0
VERTEX
  5
2220
  8
0
 10
118.500153382815995
 20
121.7956857181454069
 30
0.0
  0
VERTEX
  5
2221
  8
0
 10
118.5001054136095036
 20
121.7823746050186031
 30
0.0
  0
VERTEX
  5
2222
  8
0
 10
118.5000568469721003
 20
121.7686504852381972
 30
0.0
  0
VERTEX
  5
2223
  8
0
 10
118.5000100858557062
 20
121.7545082487294934
 30
0.0
  0
VERTEX
  5
2224
  8
0
 10
118.499967533212498
 20
121.7399427854179947
 30
0.0
  0
VERTEX
  5
2225
  8
0
 10
118.4999315919942973
 20
121.7249489852291049
 30
0.0
  0
VERTEX
  5
2226
  8
0
 10
118.4999043005154959
 20
121.7095265045883963
 30
0.0
  0
VERTEX
  5
2227
  8
0
 10
118.4998856150254056
 20
121.6937022164107987
 30
0.0
  0
VERTEX
  5
2228
  8
0
 10
118.4998747539484043
 20
121.6775126383674035
 30
0.0
  0
VERTEX
  5
2229
  8
0
 10
118.4998709348430026
 20
121.6609942994448943
 30
0.0
  0
VERTEX
  5
222A
  8
0
 10
118.4998733752680948
 20
121.6441837286297982
 30
0.0
  0
VERTEX
  5
222B
  8
0
 10
118.4998812927824048
 20
121.6271174549086993
 30
0.0
  0
VERTEX
  5
222C
  8
0
 10
118.499893904944301
 20
121.6098320072681958
 30
0.0
  0
VERTEX
  5
222D
  8
0
 10
118.4999104293129051
 20
121.5923639146947011
 30
0.0
  0
VERTEX
  5
222E
  8
0
 10
118.4999300834466993
 20
121.5747497061749982
 30
0.0
  0
VERTEX
  5
222F
  8
0
 10
118.4999520849042938
 20
121.5570259106956001
 30
0.0
  0
VERTEX
  5
2230
  8
0
 10
118.499975651244597
 20
121.5392290572430056
 30
0.0
  0
VERTEX
  5
2231
  8
0
 10
118.5000000000261053
 20
121.5213956748038981
 30
0.0
  0
SEQEND
  5
2232
  8
0
  0
POLYLINE
  5
211D
  8
0
 66
     1
 10
0.0
 20
0.0
 30
0.0
  0
VERTEX
  5
2233
  8
0
 10
118.5000000000262048
 20
114.4786043251188943
 30
0.0
  0
VERTEX
  5
2234
  8
0
 10
118.4999925062429043
 20
114.4603022743170015
 30
0.0
  0
VERTEX
  5
2235
  8
0
 10
118.499985421440897
 20
114.4420663025237985
 30
0.0
  0
VERTEX
  5
2236
  8
0
 10
118.4999791546015047
 20
114.4239624887484013
 30
0.0
  0
VERTEX
  5
2237
  8
0
 10
118.4999741147057932
 20
114.4060569119994994
 30
0.0
  0
VERTEX
  5
2238
  8
0
 10
118.4999707107351981
 20
114.3884156512860955
 30
0.0
  0
VERTEX
  5
2239
  8
0
 10
118.4999693516709982
 20
114.3711047856168932
 30
0.0
  0
VERTEX
  5
223A
  8
0
 10
118.4999704782363068
 20
114.3541780860499983
 30
0.0
  0
VERTEX
  5
223B
  8
0
 10
118.4999746636499935
 20
114.3376379487402943
 30
0.0
  0
VERTEX
  5
223C
  8
0
 10
118.4999825156957058
 20
114.3214733672242005
 30
0.0
  0
VERTEX
  5
223D
  8
0
 10
118.4999946421573043
 20
114.3056733350013019
 30
0.0
  0
VERTEX
  5
223E
  8
0
 10
118.5000116508187062
 20
114.2902268455708992
 30
0.0
  0
VERTEX
  5
223F
  8
0
 10
118.5000341493466038
 20
114.2751228953477067
 30
0.0
  0
VERTEX
  5
2240
  8
0
 10
118.5000625676388069
 20
114.260354905980094
 30
0.0
  0
VERTEX
  5
2241
  8
0
 10
118.5000967999144024
 20
114.245929633824403
 30
0.0
  0
VERTEX
  5
2242
  8
0
 10
118.5001366398976046
 20
114.2318563368797015
 30
0.0
  0
VERTEX
  5
2243
  8
0
 10
118.5001818813124999
 20
114.2181442731450005
 30
0.0
  0
VERTEX
  5
2244
  8
0
 10
118.5002323178830039
 20
114.2048027006194957
 30
0.0
  0
VERTEX
  5
2245
  8
0
 10
118.5002877171017985
 20
114.1918408539456067
 30
0.0
  0
VERTEX
  5
2246
  8
0
 10
118.5003457780896952
 20
114.1792661260738981
 30
0.0
  0
VERTEX
  5
2247
  8
0
 10
118.5004006717915956
 20
114.1670827684445015
 30
0.0
  0
VERTEX
  5
2248
  8
0
 10
118.5004462245986048
 20
114.155294725704195
 30
0.0
  0
VERTEX
  5
2249
  8
0
 10
118.5004762629016994
 20
114.1439059424998987
 30
0.0
  0
VERTEX
  5
224A
  8
0
 10
118.5004846130919987
 20
114.1329203634784051
 30
0.0
  0
VERTEX
  5
224B
  8
0
 10
118.5004654423877071
 20
114.1223418408208943
 30
0.0
  0
VERTEX
  5
224C
  8
0
 10
118.5004189622256945
 20
114.1121725869259933
 30
0.0
  0
VERTEX
  5
224D
  8
0
 10
118.5003505728121951
 20
114.1024134064914932
 30
0.0
  0
VERTEX
  5
224E
  8
0
 10
118.5002658428409035
 20
114.0930650585047061
 30
0.0
  0
VERTEX
  5
224F
  8
0
 10
118.5001703410055001
 20
114.0841283019529016
 30
0.0
  0
VERTEX
  5
2250
  8
0
 10
118.5000696359994947
 20
114.0756038958236047
 30
0.0
  0
VERTEX
  5
2251
  8
0
 10
118.4999692965165963
 20
114.0674925991041988
 30
0.0
  0
VERTEX
  5
2252
  8
0
 10
118.4998748912505988
 20
114.0597951707818964
 30
0.0
  0
VERTEX
  5
2253
  8
0
 10
118.4997917645933967
 20
114.0525132701324935
 30
0.0
  0
VERTEX
  5
2254
  8
0
 10
118.4997221543562063
 20
114.0456610254432945
 30
0.0
  0
VERTEX
  5
2255
  8
0
 10
118.4996660284698038
 20
114.039261675713405
 30
0.0
  0
VERTEX
  5
2256
  8
0
 10
118.4996233030860964
 20
114.0333386677692999
 30
0.0
  0
VERTEX
  5
2257
  8
0
 10
118.4995938943569058
 20
114.027915448437497
 30
0.0
  0
VERTEX
  5
2258
  8
0
 10
118.4995777184340966
 20
114.0230154645443008
 30
0.0
  0
VERTEX
  5
2259
  8
0
 10
118.4995746914695047
 20
114.0186621629163
 30
0.0
  0
VERTEX
  5
225A
  8
0
 10
118.4995847296149947
 20
114.014878990379998
 30
0.0
  0
VERTEX
  5
225B
  8
0
 10
118.4996076067701978
 20
114.0116803672783021
 30
0.0
  0
VERTEX
  5
225C
  8
0
 10
118.4996420955078946
 20
114.0090171756181974
 30
0.0
  0
VERTEX
  5
225D
  8
0
 10
118.4996865384495948
 20
114.0068130152309038
 30
0.0
  0
VERTEX
  5
225E
  8
0
 10
118.4997392765610016
 20
114.0049913809043005
 30
0.0
  0
VERTEX
  5
225F
  8
0
 10
118.4997986508083017
 20
114.0034757674260959
 30
0.0
  0
VERTEX
  5
2260
  8
0
 10
118.4998630021576957
 20
114.0021896695842969
 30
0.0
  0
VERTEX
  5
2261
  8
0
 10
118.4999306715750009
 20
114.0010565821667967
 30
0.0
  0
VERTEX
  5
2262
  8
0
 10
118.5000000000262048
 20
113.9999999999614033
 30
0.0
  0
SEQEND
  5
2263
  8
0
  0
POLYLINE
  5
211E
  8
0
 66
     1
 10
0.0
 20
0.0
 30
0.0
  0
VERTEX
  5
2264
  8
0
 10
101.5000000000262048
 20
121.5213956748037987
 30
0.0
  0
VERTEX
  5
2265
  8
0
 10
101.5000074938094059
 20
121.5396977256059046
 30
0.0
  0
VERTEX
  5
2266
  8
0
 10
101.500014578611399
 20
121.5579336973989939
 30
0.0
  0
VERTEX
  5
2267
  8
0
 10
101.5000208454510044
 20
121.5760375111744054
 30
0.0
  0
VERTEX
  5
2268
  8
0
 10
101.5000258853467017
 20
121.593943087923293
 30
0.0
  0
VERTEX
  5
2269
  8
0
 10
101.5000292893172968
 20
121.6115843486367964
 30
0.0
  0
VERTEX
  5
226A
  8
0
 10
101.5000306483815962
 20
121.6288952143058992
 30
0.0
  0
VERTEX
  5
226B
  8
0
 10
101.5000295218163018
 20
121.6458219138728936
 30
0.0
  0
VERTEX
  5
226C
  8
0
 10
101.5000253364027003
 20
121.6623620511825976
 30
0.0
  0
VERTEX
  5
226D
  8
0
 10
101.5000174843571017
 20
121.6785266326987056
 30
0.0
  0
VERTEX
  5
226E
  8
0
 10
101.5000053578955033
 20
121.6943266649217037
 30
0.0
  0
VERTEX
  5
226F
  8
0
 10
101.4999883492341013
 20
121.7097731543520069
 30
0.0
  0
VERTEX
  5
2270
  8
0
 10
101.4999658507062037
 20
121.7248771045751994
 30
0.0
  0
VERTEX
  5
2271
  8
0
 10
101.4999374324141002
 20
121.7396450939427979
 30
0.0
  0
VERTEX
  5
2272
  8
0
 10
101.4999032001385046
 20
121.7540703660985031
 30
0.0
  0
VERTEX
  5
2273
  8
0
 10
101.4998633601552029
 20
121.7681436630433041
 30
0.0
  0
VERTEX
  5
2274
  8
0
 10
101.4998181187403929
 20
121.7818557267779056
 30
0.0
  0
VERTEX
  5
2275
  8
0
 10
101.4997676821699031
 20
121.7951972993033962
 30
0.0
  0
VERTEX
  5
2276
  8
0
 10
101.4997122829508953
 20
121.8081591459772994
 30
0.0
  0
VERTEX
  5
2277
  8
0
 10
101.4996542219629987
 20
121.8207338738489938
 30
0.0
  0
VERTEX
  5
2278
  8
0
 10
101.4995993282609987
 20
121.8329172314784046
 30
0.0
  0
VERTEX
  5
2279
  8
0
 10
101.4995537754539043
 20
121.8447052742185974
 30
0.0
  0
VERTEX
  5
227A
  8
0
 10
101.499523737150696
 20
121.8560940574228937
 30
0.0
  0
VERTEX
  5
227B
  8
0
 10
101.4995153869602973
 20
121.8670796364444016
 30
0.0
  0
VERTEX
  5
227C
  8
0
 10
101.4995345576646031
 20
121.8776581591018981
 30
0.0
  0
VERTEX
  5
227D
  8
0
 10
101.499581037826502
 20
121.8878274129966996
 30
0.0
  0
VERTEX
  5
227E
  8
0
 10
101.4996494272399019
 20
121.8975865934311997
 30
0.0
  0
VERTEX
  5
227F
  8
0
 10
101.499734157211094
 20
121.906934941418001
 30
0.0
  0
VERTEX
  5
2280
  8
0
 10
101.4998296590464975
 20
121.9158716979697061
 30
0.0
  0
VERTEX
  5
2281
  8
0
 10
101.4999303640525028
 20
121.924396104099003
 30
0.0
  0
VERTEX
  5
2282
  8
0
 10
101.5000307035353018
 20
121.9325074008184941
 30
0.0
  0
VERTEX
  5
2283
  8
0
 10
101.5001251088012992
 20
121.940204829140697
 30
0.0
  0
VERTEX
  5
2284
  8
0
 10
101.5002082354585013
 20
121.9474867297901
 30
0.0
  0
VERTEX
  5
2285
  8
0
 10
101.500277845695706
 20
121.9543389744793984
 30
0.0
  0
VERTEX
  5
2286
  8
0
 10
101.5003339715819948
 20
121.9607383242093022
 30
0.0
  0
VERTEX
  5
2287
  8
0
 10
101.5003766969658017
 20
121.966661332153393
 30
0.0
  0
VERTEX
  5
2288
  8
0
 10
101.5004061056950064
 20
121.9720845514851959
 30
0.0
  0
VERTEX
  5
2289
  8
0
 10
101.5004222816179009
 20
121.9769845353784063
 30
0.0
  0
VERTEX
  5
228A
  8
0
 10
101.500425308582507
 20
121.981337837006393
 30
0.0
  0
VERTEX
  5
228B
  8
0
 10
101.5004152704371023
 20
121.9851210095427945
 30
0.0
  0
VERTEX
  5
228C
  8
0
 10
101.5003923932817997
 20
121.9883196326445045
 30
0.0
  0
VERTEX
  5
228D
  8
0
 10
101.5003579045442024
 20
121.9909828243044956
 30
0.0
  0
VERTEX
  5
228E
  8
0
 10
101.5003134616026017
 20
121.9931869846919028
 30
0.0
  0
VERTEX
  5
228F
  8
0
 10
101.5002607234911949
 20
121.9950086190185061
 30
0.0
  0
VERTEX
  5
2290
  8
0
 10
101.5002013492438948
 20
121.9965242324966965
 30
0.0
  0
VERTEX
  5
2291
  8
0
 10
101.5001369978946002
 20
121.9978103303384955
 30
0.0
  0
VERTEX
  5
2292
  8
0
 10
101.5000693284773945
 20
121.9989434177559957
 30
0.0
  0
VERTEX
  5
2293
  8
0
 10
101.5000000000262048
 20
121.9999999999614033
 30
0.0
  0
SEQEND
  5
2294
  8
0
  0
POLYLINE
  5
211F
  8
0
 66
     1
 10
0.0
 20
0.0
 30
0.0
  0
VERTEX
  5
2295
  8
0
 10
105.7500000000262048
 20
113.9999999999614033
 30
0.0
  0
VERTEX
  5
2296
  8
0
 10
105.8410004741487995
 20
114.0006421229089
 30
0.0
  0
VERTEX
  5
2297
  8
0
 10
105.9319997121226038
 20
114.0014117923168016
 30
0.0
  0
VERTEX
  5
2298
  8
0
 10
106.0229964777989977
 20
114.0024365546452998
 30
0.0
  0
VERTEX
  5
2299
  8
0
 10
106.1139895350290061
 20
114.0038439563547001
 30
0.0
  0
VERTEX
  5
229A
  8
0
 10
106.2049776256600069
 20
114.0057605527632063
 30
0.0
  0
VERTEX
  5
229B
  8
0
 10
106.2959581639029949
 20
114.0082530974954977
 30
0.0
  0
VERTEX
  5
229C
  8
0
 10
106.3869265018683024
 20
114.0112954594710999
 30
0.0
  0
VERTEX
  5
229D
  8
0
 10
106.4778778137822997
 20
114.0148534950350978
 30
0.0
  0
VERTEX
  5
229E
  8
0
 10
106.5688072738709025
 20
114.0188930605331024
 30
0.0
  0
VERTEX
  5
229F
  8
0
 10
106.659710264031304
 20
114.0233821821821039
 30
0.0
  0
VERTEX
  5
22A0
  8
0
 10
106.7505843861236059
 20
114.0283120817069005
 30
0.0
  0
VERTEX
  5
22A1
  8
0
 10
106.8414285871095046
 20
114.0336880352671045
 30
0.0
  0
VERTEX
  5
22A2
  8
0
 10
106.9322418327608943
 20
114.0395155155591027
 30
0.0
  0
VERTEX
  5
22A3
  8
0
 10
107.0230230888762009
 20
114.0457999951471066
 30
0.0
  0
VERTEX
  5
22A4
  8
0
 10
107.1137717630261932
 20
114.0525447586954044
 30
0.0
  0
VERTEX
  5
22A5
  8
0
 10
107.2044888263039013
 20
114.0597453474492937
 30
0.0
  0
VERTEX
  5
22A6
  8
0
 10
107.2951755955349995
 20
114.067395590395094
 30
0.0
  0
VERTEX
  5
22A7
  8
0
 10
107.3858333875450057
 20
114.0754893165191959
 30
0.0
  0
VERTEX
  5
22A8
  8
0
 10
107.476463520094498
 20
114.084020310678099
 30
0.0
  0
VERTEX
  5
22A9
  8
0
 10
107.5670673594516984
 20
114.0929800671294032
 30
0.0
  0
VERTEX
  5
22AA
  8
0
 10
107.657646343019195
 20
114.102356721142101
 30
0.0
  0
VERTEX
  5
22AB
  8
0
 10
107.7482019138679021
 20
114.112138140311302
 30
0.0
  0
VERTEX
  5
22AC
  8
0
 10
107.8387355150686062
 20
114.1223121922322008
 30
0.0
  0
VERTEX
  5
22AD
  8
0
 10
107.9292484039569047
 20
114.1328673663990969
 30
0.0
  0
VERTEX
  5
22AE
  8
0
 10
108.0197390643613033
 20
114.1438014388480013
 30
0.0
  0
VERTEX
  5
22AF
  8
0
 10
108.1102038479446037
 20
114.1551193247538976
 30
0.0
  0
VERTEX
  5
22B0
  8
0
 10
108.2006390516888956
 20
114.1668261223780974
 30
0.0
  0
VERTEX
  5
22B1
  8
0
 10
108.2910409725764964
 20
114.1789269299819978
 30
0.0
  0
VERTEX
  5
22B2
  8
0
 10
108.3814059075896949
 20
114.1914268458269959
 30
0.0
  0
VERTEX
  5
22B3
  8
0
 10
108.4717301537106948
 20
114.2043309681744034
 30
0.0
  0
VERTEX
  5
22B4
  8
0
 10
108.5620100079217991
 20
114.2176443952857028
 30
0.0
  0
VERTEX
  5
22B5
  8
0
 10
108.6522417672052967
 20
114.2313722254222057
 30
0.0
  0
VERTEX
  5
22B6
  8
0
 10
108.7424217285434054
 20
114.245519556845295
 30
0.0
  0
VERTEX
  5
22B7
  8
0
 10
108.8325461889183003
 20
114.2600914878162968
 30
0.0
  0
VERTEX
  5
22B8
  8
0
 10
108.9226114453122989
 20
114.2750931165966932
 30
0.0
  0
VERTEX
  5
22B9
  8
0
 10
109.0126152359751046
 20
114.290522882126794
 30
0.0
  0
VERTEX
  5
22BA
  8
0
 10
109.1025612672214038
 20
114.3063516481305015
 30
0.0
  0
VERTEX
  5
22BB
  8
0
 10
109.1924547899051987
 20
114.322543141847305
 30
0.0
  0
VERTEX
  5
22BC
  8
0
 10
109.2823010548825948
 20
114.339061090505794
 30
0.0
  0
VERTEX
  5
22BD
  8
0
 10
109.3721053130100955
 20
114.3558692213346006
 30
0.0
  0
VERTEX
  5
22BE
  8
0
 10
109.4618728151437068
 20
114.3729312615625986
 30
0.0
  0
VERTEX
  5
22BF
  8
0
 10
109.5516088121397047
 20
114.3902109384184058
 30
0.0
  0
VERTEX
  5
22C0
  8
0
 10
109.6413185548546068
 20
114.4076719791306971
 30
0.0
  0
VERTEX
  5
22C1
  8
0
 10
109.7310072941444048
 20
114.425278110928204
 30
0.0
  0
VERTEX
  5
22C2
  8
0
 10
109.8206802808654032
 20
114.4429930610396013
 30
0.0
  0
VERTEX
  5
22C3
  8
0
 10
109.9103427658739065
 20
114.4607805566936065
 30
0.0
  0
VERTEX
  5
22C4
  8
0
 10
110.0000000000261053
 20
114.4786043251188943
 30
0.0
  0
SEQEND
  5
22C5
  8
0
  0
POLYLINE
  5
2120
  8
0
 66
     1
 10
0.0
 20
0.0
 30
0.0
  0
VERTEX
  5
22C6
  8
0
 10
101.5000000000262048
 20
114.4786043251188943
 30
0.0
  0
VERTEX
  5
22C7
  8
0
 10
101.589593484360293
 20
114.4603052371514025
 30
0.0
  0
VERTEX
  5
22C8
  8
0
 10
101.6791963587482996
 20
114.4420717674552037
 30
0.0
  0
VERTEX
  5
22C9
  8
0
 10
101.7688180132442994
 20
114.4239695343016052
 30
0.0
  0
VERTEX
  5
22CA
  8
0
 10
101.8584678379019977
 20
114.4060641559619
 30
0.0
  0
VERTEX
  5
22CB
  8
0
 10
101.9481552227754975
 20
114.3884212507072959
 30
0.0
  0
VERTEX
  5
22CC
  8
0
 10
102.0378895579187031
 20
114.3711064368091996
 30
0.0
  0
VERTEX
  5
22CD
  8
0
 10
102.1276784728833036
 20
114.3541746434783022
 30
0.0
  0
VERTEX
  5
22CE
  8
0
 10
102.2175212400944986
 20
114.3376300588157051
 30
0.0
  0
VERTEX
  5
22CF
  8
0
 10
102.3074146547390058
 20
114.3214618301286976
 30
0.0
  0
VERTEX
  5
22D0
  8
0
 10
102.3973555116154017
 20
114.305659102368196
 30
0.0
  0
VERTEX
  5
22D1
  8
0
 10
102.4873406055223057
 20
114.2902110204851027
 30
0.0
  0
VERTEX
  5
22D2
  8
0
 10
102.5773667312595023
 20
114.2751067294362031
 30
0.0
  0
VERTEX
  5
22D3
  8
0
 10
102.6674312779241944
 20
114.260338845407702
 30
0.0
  0
VERTEX
  5
22D4
  8
0
 10
102.7575339273693942
 20
114.2459133763245944
 30
0.0
  0
VERTEX
  5
22D5
  8
0
 10
102.8476749142723037
 20
114.2318395591010045
 30
0.0
  0
VERTEX
  5
22D6
  8
0
 10
102.9378544733102956
 20
114.2181266306510992
 30
0.0
  0
VERTEX
  5
22D7
  8
0
 10
103.0280728391608989
 20
114.2047838278891021
 30
0.0
  0
VERTEX
  5
22D8
  8
0
 10
103.1183302480414028
 20
114.1918203829583973
 30
0.0
  0
VERTEX
  5
22D9
  8
0
 10
103.2086273910486938
 20
114.1792441188743936
 30
0.0
  0
VERTEX
  5
22DA
  8
0
 10
103.2989660459257948
 20
114.1670594924348023
 30
0.0
  0
VERTEX
  5
22DB
  8
0
 10
103.3893481492500968
 20
114.1552704683985979
 30
0.0
  0
VERTEX
  5
22DC
  8
0
 10
103.4797756375993032
 20
114.1438810115253943
 30
0.0
  0
VERTEX
  5
22DD
  8
0
 10
103.5702504475506061
 20
114.1328950865741945
 30
0.0
  0
VERTEX
  5
22DE
  8
0
 10
103.6607744547187053
 20
114.1223166238394953
 30
0.0
  0
VERTEX
  5
22DF
  8
0
 10
103.7513471443965045
 20
114.1121482022650042
 30
0.0
  0
VERTEX
  5
22E0
  8
0
 10
103.8419648849175019
 20
114.1023906386442945
 30
0.0
  0
VERTEX
  5
22E1
  8
0
 10
103.9326238351079041
 20
114.0930446313278992
 30
0.0
  0
VERTEX
  5
22E2
  8
0
 10
104.0233201537937049
 20
114.0841108786658964
 30
0.0
  0
VERTEX
  5
22E3
  8
0
 10
104.1140499998009972
 20
114.0755900790085065
 30
0.0
  0
VERTEX
  5
22E4
  8
0
 10
104.2048095319557035
 20
114.067482930706106
 30
0.0
  0
VERTEX
  5
22E5
  8
0
 10
104.2955949090840022
 20
114.0597901321088017
 30
0.0
  0
VERTEX
  5
22E6
  8
0
 10
104.3864023420912019
 20
114.0525129039877044
 30
0.0
  0
VERTEX
  5
22E7
  8
0
 10
104.4772291549101055
 20
114.0456636321696067
 30
0.0
  0
VERTEX
  5
22E8
  8
0
 10
104.5680737393352047
 20
114.0392654144665983
 30
0.0
  0
VERTEX
  5
22E9
  8
0
 10
104.6589345302020035
 20
114.0333417804491063
 30
0.0
  0
VERTEX
  5
22EA
  8
0
 10
104.7498099623461059
 20
114.0279162596876006
 30
0.0
  0
VERTEX
  5
22EB
  8
0
 10
104.8406984706033001
 20
114.0230123817523946
 30
0.0
  0
VERTEX
  5
22EC
  8
0
 10
104.9315984898093035
 20
114.0186536762140008
 30
0.0
  0
VERTEX
  5
22ED
  8
0
 10
105.0225084547996062
 20
114.0148636726429032
 30
0.0
  0
VERTEX
  5
22EE
  8
0
 10
105.1134268400036973
 20
114.0116584376951039
 30
0.0
  0
VERTEX
  5
22EF
  8
0
 10
105.2043524491498943
 20
114.0089919694035956
 30
0.0
  0
VERTEX
  5
22F0
  8
0
 10
105.295284249241007
 20
114.0067874905827949
 30
0.0
  0
VERTEX
  5
22F1
  8
0
 10
105.3862212084529943
 20
114.0049680029876953
 30
0.0
  0
VERTEX
  5
22F2
  8
0
 10
105.4771622949618006
 20
114.0034565083732048
 30
0.0
  0
VERTEX
  5
22F3
  8
0
 10
105.5681064769429014
 20
114.0021760084940041
 30
0.0
  0
VERTEX
  5
22F4
  8
0
 10
105.6590527225723974
 20
114.0010495051051009
 30
0.0
  0
VERTEX
  5
22F5
  8
0
 10
105.7500000000262048
 20
113.9999999999614033
 30
0.0
  0
SEQEND
  5
22F6
  8
0
  0
POLYLINE
  5
2121
  8
0
 66
     1
 10
0.0
 20
0.0
 30
0.0
  0
VERTEX
  5
22F7
  8
0
 10
105.7500000000262048
 20
121.9999999999614033
 30
0.0
  0
VERTEX
  5
22F8
  8
0
 10
105.659044602132596
 20
121.9993578770139067
 30
0.0
  0
VERTEX
  5
22F9
  8
0
 10
105.5680915638140931
 20
121.9985882076061046
 30
0.0
  0
VERTEX
  5
22FA
  8
0
 10
105.4771432446461006
 20
121.9975634452777058
 30
0.0
  0
VERTEX
  5
22FB
  8
0
 10
105.3862020042035965
 20
121.9961560435683054
 30
0.0
  0
VERTEX
  5
22FC
  8
0
 10
105.2952701808562068
 20
121.9942394471597993
 30
0.0
  0
VERTEX
  5
22FD
  8
0
 10
105.2043488335064012
 20
121.9917469024277068
 30
0.0
  0
VERTEX
  5
22FE
  8
0
 10
105.1134370337734936
 20
121.9887045404522041
 30
0.0
  0
VERTEX
  5
22FF
  8
0
 10
105.0225336818458999
 20
121.9851465048883057
 30
0.0
  0
VERTEX
  5
2300
  8
0
 10
104.931637677912704
 20
121.9811069393904006
 30
0.0
  0
VERTEX
  5
2301
  8
0
 10
104.8407480949300066
 20
121.9766178177414986
 30
0.0
  0
VERTEX
  5
2302
  8
0
 10
104.7498658527041044
 20
121.9716879182168014
 30
0.0
  0
VERTEX
  5
2303
  8
0
 10
104.6589929900701037
 20
121.9663119646566969
 30
0.0
  0
VERTEX
  5
2304
  8
0
 10
104.5681315615115068
 20
121.9604844843647982
 30
0.0
  0
VERTEX
  5
2305
  8
0
 10
104.4772836215413037
 20
121.9542000047768937
 30
0.0
  0
VERTEX
  5
2306
  8
0
 10
104.3864517118765036
 20
121.9474552412284964
 30
0.0
  0
VERTEX
  5
2307
  8
0
 10
104.2956400985480059
 20
121.9402546524747066
 30
0.0
  0
VERTEX
  5
2308
  8
0
 10
104.2048534288745003
 20
121.9326044095289063
 30
0.0
  0
VERTEX
  5
2309
  8
0
 10
104.1140963501748047
 20
121.924510683404705
 30
0.0
  0
VERTEX
  5
230A
  8
0
 10
104.0233734790922
 20
121.9159796892457024
 30
0.0
  0
VERTEX
  5
230B
  8
0
 10
103.9326878400369054
 20
121.9070199327940998
 30
0.0
  0
VERTEX
  5
230C
  8
0
 10
103.8420401225307046
 20
121.897643278781203
 30
0.0
  0
VERTEX
  5
230D
  8
0
 10
103.7514308300307988
 20
121.8878618596118031
 30
0.0
  0
VERTEX
  5
230E
  8
0
 10
103.6608604659946025
 20
121.8776878076907053
 30
0.0
  0
VERTEX
  5
230F
  8
0
 10
103.5703295577421983
 20
121.867132633523596
 30
0.0
  0
VERTEX
  5
2310
  8
0
 10
103.4798389889254935
 20
121.8561985610745069
 30
0.0
  0
VERTEX
  5
2311
  8
0
 10
103.3893899171307993
 20
121.8448806751683975
 30
0.0
  0
VERTEX
  5
2312
  8
0
 10
103.2989835069691935
 20
121.8331738775440982
 30
0.0
  0
VERTEX
  5
2313
  8
0
 10
103.2086209230521945
 20
121.8210730699400983
 30
0.0
  0
VERTEX
  5
2314
  8
0
 10
103.1183033299910932
 20
121.8085731540951002
 30
0.0
  0
VERTEX
  5
2315
  8
0
 10
103.0280318923971947
 20
121.7956690317474937
 30
0.0
  0
VERTEX
  5
2316
  8
0
 10
102.9378077748819038
 20
121.7823556046361944
 30
0.0
  0
VERTEX
  5
2317
  8
0
 10
102.8476321420564972
 20
121.7686277744997057
 30
0.0
  0
VERTEX
  5
2318
  8
0
 10
102.7575061585322942
 20
121.7544804430766021
 30
0.0
  0
VERTEX
  5
2319
  8
0
 10
102.6674309889206995
 20
121.7399085121056004
 30
0.0
  0
VERTEX
  5
231A
  8
0
 10
102.5774077978331036
 20
121.7249068833252039
 30
0.0
  0
VERTEX
  5
231B
  8
0
 10
102.4874368486997014
 20
121.7094771177952026
 30
0.0
  0
VERTEX
  5
231C
  8
0
 10
102.3975146732997956
 20
121.6936483517914951
 30
0.0
  0
VERTEX
  5
231D
  8
0
 10
102.307636837659004
 20
121.6774568580748053
 30
0.0
  0
VERTEX
  5
231E
  8
0
 10
102.2177989078013951
 20
121.6609389094164015
 30
0.0
  0
VERTEX
  5
231F
  8
0
 10
102.1279964497510946
 20
121.6441307785875949
 30
0.0
  0
VERTEX
  5
2320
  8
0
 10
102.0382250295321995
 20
121.6270687383596965
 30
0.0
  0
VERTEX
  5
2321
  8
0
 10
101.9484802131686934
 20
121.6097890615040029
 30
0.0
  0
VERTEX
  5
2322
  8
0
 10
101.8587575666848011
 20
121.5923280207916974
 30
0.0
  0
VERTEX
  5
2323
  8
0
 10
101.7690526561044067
 20
121.5747218889943042
 30
0.0
  0
VERTEX
  5
2324
  8
0
 10
101.6793610474519056
 20
121.5570069388830063
 30
0.0
  0
VERTEX
  5
2325
  8
0
 10
101.5896783067509972
 20
121.5392194432291006
 30
0.0
  0
VERTEX
  5
2326
  8
0
 10
101.5000000000262048
 20
121.5213956748037987
 30
0.0
  0
SEQEND
  5
2327
  8
0
  0
POLYLINE
  5
2122
  8
0
 66
     1
 10
0.0
 20
0.0
 30
0.0
  0
VERTEX
  5
2328
  8
0
 10
110.0000000000263043
 20
121.5213956748037987
 30
0.0
  0
VERTEX
  5
2329
  8
0
 10
109.9104155756555059
 20
121.5396947627713047
 30
0.0
  0
VERTEX
  5
232A
  8
0
 10
109.8208214543613934
 20
121.5579282324676029
 30
0.0
  0
VERTEX
  5
232B
  8
0
 10
109.7312079392202975
 20
121.5760304656212014
 30
0.0
  0
VERTEX
  5
232C
  8
0
 10
109.6415653333091029
 20
121.5939358439610061
 30
0.0
  0
VERTEX
  5
232D
  8
0
 10
109.5518839397039983
 20
121.6115787492154965
 30
0.0
  0
VERTEX
  5
232E
  8
0
 10
109.4621540614818969
 20
121.628893563113607
 30
0.0
  0
VERTEX
  5
232F
  8
0
 10
109.3723677019724931
 20
121.6458253564447034
 30
0.0
  0
VERTEX
  5
2330
  8
0
 10
109.2825249356308035
 20
121.6623699411073005
 30
0.0
  0
VERTEX
  5
2331
  8
0
 10
109.1926282293723034
 20
121.6785381697942938
 30
0.0
  0
VERTEX
  5
2332
  8
0
 10
109.1026800504877059
 20
121.6943408975547953
 30
0.0
  0
VERTEX
  5
2333
  8
0
 10
109.0126828662675962
 20
121.7097889794379029
 30
0.0
  0
VERTEX
  5
2334
  8
0
 10
108.9226391440017068
 20
121.7248932704868025
 30
0.0
  0
VERTEX
  5
2335
  8
0
 10
108.8325509186761053
 20
121.7396611545153036
 30
0.0
  0
VERTEX
  5
2336
  8
0
 10
108.7424185574818978
 20
121.7540866235984964
 30
0.0
  0
VERTEX
  5
2337
  8
0
 10
108.6522420254747061
 20
121.7681604408221006
 30
0.0
  0
VERTEX
  5
2338
  8
0
 10
108.5620212877100954
 20
121.7818733692719064
 30
0.0
  0
VERTEX
  5
2339
  8
0
 10
108.4717563092439008
 20
121.7952161720339035
 30
0.0
  0
VERTEX
  5
233A
  8
0
 10
108.381447058857205
 20
121.8081796169646935
 30
0.0
  0
VERTEX
  5
233B
  8
0
 10
108.2910946057262009
 20
121.8207558810485978
 30
0.0
  0
VERTEX
  5
233C
  8
0
 10
108.2007026477241993
 20
121.8329405074882033
 30
0.0
  0
VERTEX
  5
233D
  8
0
 10
108.1102752669593059
 20
121.844729531524294
 30
0.0
  0
VERTEX
  5
233E
  8
0
 10
108.0198165455400954
 20
121.8561189883974976
 30
0.0
  0
VERTEX
  5
233F
  8
0
 10
107.929330565574702
 20
121.867104913348598
 30
0.0
  0
VERTEX
  5
2340
  8
0
 10
107.8388213483410993
 20
121.8776833760832972
 30
0.0
  0
VERTEX
  5
2341
  8
0
 10
107.7482905299955007
 20
121.8878517976578024
 30
0.0
  0
VERTEX
  5
2342
  8
0
 10
107.6577366365150965
 20
121.8976093612783984
 30
0.0
  0
VERTEX
  5
2343
  8
0
 10
107.5671579848254993
 20
121.9069553685946943
 30
0.0
  0
VERTEX
  5
2344
  8
0
 10
107.4765528918522932
 20
121.9158891212566971
 30
0.0
  0
VERTEX
  5
2345
  8
0
 10
107.3859196745209061
 20
121.9244099209140018
 30
0.0
  0
VERTEX
  5
2346
  8
0
 10
107.2952566497567943
 20
121.9325170692165017
 30
0.0
  0
VERTEX
  5
2347
  8
0
 10
107.2045621344856983
 20
121.940209867813806
 30
0.0
  0
VERTEX
  5
2348
  8
0
 10
107.1138345242007972
 20
121.9474870959348038
 30
0.0
  0
VERTEX
  5
2349
  8
0
 10
107.0230738935296984
 20
121.954336367753001
 30
0.0
  0
VERTEX
  5
234A
  8
0
 10
106.9322819280962023
 20
121.9607345854559952
 30
0.0
  0
VERTEX
  5
234B
  8
0
 10
106.8414603784567021
 20
121.9666582194735014
 30
0.0
  0
VERTEX
  5
234C
  8
0
 10
106.7506109951680031
 20
121.9720837402350071
 30
0.0
  0
VERTEX
  5
234D
  8
0
 10
106.659735528786598
 20
121.9769876181701989
 30
0.0
  0
VERTEX
  5
234E
  8
0
 10
106.5688357298690931
 20
121.9813463237086069
 30
0.0
  0
VERTEX
  5
234F
  8
0
 10
106.4779133489720948
 20
121.9851363272798039
 30
0.0
  0
VERTEX
  5
2350
  8
0
 10
106.3869702019323995
 20
121.9883415622276033
 30
0.0
  0
VERTEX
  5
2351
  8
0
 10
106.2960086475182067
 20
121.9910080305191968
 30
0.0
  0
VERTEX
  5
2352
  8
0
 10
106.2050313136969066
 20
121.993212509339898
 30
0.0
  0
VERTEX
  5
2353
  8
0
 10
106.1140408303698024
 20
121.9950319969349977
 30
0.0
  0
VERTEX
  5
2354
  8
0
 10
106.0230398274379979
 20
121.9965434915496019
 30
0.0
  0
VERTEX
  5
2355
  8
0
 10
105.9320309348026967
 20
121.997823991428703
 30
0.0
  0
VERTEX
  5
2356
  8
0
 10
105.8410167823650028
 20
121.9989504948176062
 30
0.0
  0
VERTEX
  5
2357
  8
0
 10
105.7500000000262048
 20
121.9999999999614033
 30
0.0
  0
SEQEND
  5
2358
  8
0
  0
POLYLINE
  5
2123
  8
0
 66
     1
 10
0.0
 20
0.0
 30
0.0
  0
VERTEX
  5
2359
  8
0
 10
114.2500000000262048
 20
113.9999999999614033
 30
0.0
  0
VERTEX
  5
235A
  8
0
 10
114.3409553979197995
 20
114.0006421229089
 30
0.0
  0
VERTEX
  5
235B
  8
0
 10
114.4319084362382029
 20
114.0014117923167021
 30
0.0
  0
VERTEX
  5
235C
  8
0
 10
114.5228567554061954
 20
114.0024365546451008
 30
0.0
  0
VERTEX
  5
235D
  8
0
 10
114.6137979958486994
 20
114.0038439563544017
 30
0.0
  0
VERTEX
  5
235E
  8
0
 10
114.7047298191960039
 20
114.0057605527627942
 30
0.0
  0
VERTEX
  5
235F
  8
0
 10
114.7956511665455963
 20
114.0082530974950004
 30
0.0
  0
VERTEX
  5
2360
  8
0
 10
114.8865629662785039
 20
114.0112954594703041
 30
0.0
  0
VERTEX
  5
2361
  8
0
 10
114.9774663182059982
 20
114.0148534950342025
 30
0.0
  0
VERTEX
  5
2362
  8
0
 10
115.0683623221390945
 20
114.0188930605319939
 30
0.0
  0
VERTEX
  5
2363
  8
0
 10
115.1592519051217067
 20
114.0233821821808959
 30
0.0
  0
VERTEX
  5
2364
  8
0
 10
115.2501341473475946
 20
114.0283120817054936
 30
0.0
  0
VERTEX
  5
2365
  8
0
 10
115.3410070099813964
 20
114.0336880352654987
 30
0.0
  0
VERTEX
  5
2366
  8
0
 10
115.4318684385399933
 20
114.0395155155573974
 30
0.0
  0
VERTEX
  5
2367
  8
0
 10
115.5227163785101965
 20
114.0457999951453019
 30
0.0
  0
VERTEX
  5
2368
  8
0
 10
115.6135482881749965
 20
114.0525447586935996
 30
0.0
  0
VERTEX
  5
2369
  8
0
 10
115.7043599015034943
 20
114.0597453474475031
 30
0.0
  0
VERTEX
  5
236A
  8
0
 10
115.7951465711769998
 20
114.0673955903933035
 30
0.0
  0
VERTEX
  5
236B
  8
0
 10
115.8859036498766955
 20
114.0754893165175048
 30
0.0
  0
VERTEX
  5
236C
  8
0
 10
115.9766265209594991
 20
114.0840203106766069
 30
0.0
  0
VERTEX
  5
236D
  8
0
 10
116.0673121600147937
 20
114.0929800671281953
 30
0.0
  0
VERTEX
  5
236E
  8
0
 10
116.1579598775212929
 20
114.1023567211413052
 30
0.0
  0
VERTEX
  5
236F
  8
0
 10
116.2485691700212982
 20
114.1121381403108046
 30
0.0
  0
VERTEX
  5
2370
  8
0
 10
116.339139534057793
 20
114.1223121922321013
 30
0.0
  0
VERTEX
  5
2371
  8
0
 10
116.4296704423101971
 20
114.1328673663992959
 30
0.0
  0
VERTEX
  5
2372
  8
0
 10
116.5201610111270014
 20
114.1438014388484987
 30
0.0
  0
VERTEX
  5
2373
  8
0
 10
116.6106100829218946
 20
114.1551193247545939
 30
0.0
  0
VERTEX
  5
2374
  8
0
 10
116.7010164930835998
 20
114.1668261223790068
 30
0.0
  0
VERTEX
  5
2375
  8
0
 10
116.7913790770006983
 20
114.1789269299831062
 30
0.0
  0
VERTEX
  5
2376
  8
0
 10
116.8816966700618991
 20
114.1914268458282038
 30
0.0
  0
VERTEX
  5
2377
  8
0
 10
116.9719681076557976
 20
114.2043309681756966
 30
0.0
  0
VERTEX
  5
2378
  8
0
 10
117.0621922251711027
 20
114.2176443952870954
 30
0.0
  0
VERTEX
  5
2379
  8
0
 10
117.1523678579965946
 20
114.2313722254235984
 30
0.0
  0
VERTEX
  5
237A
  8
0
 10
117.2424938415207976
 20
114.2455195568467019
 30
0.0
  0
VERTEX
  5
237B
  8
0
 10
117.332569011132307
 20
114.2600914878177036
 30
0.0
  0
VERTEX
  5
237C
  8
0
 10
117.4225922022200024
 20
114.2750931165981001
 30
0.0
  0
VERTEX
  5
237D
  8
0
 10
117.5125631513534046
 20
114.2905228821280019
 30
0.0
  0
VERTEX
  5
237E
  8
0
 10
117.6024853267531967
 20
114.3063516481316952
 30
0.0
  0
VERTEX
  5
237F
  8
0
 10
117.6923631623939031
 20
114.3225431418483993
 30
0.0
  0
VERTEX
  5
2380
  8
0
 10
117.7822010922514977
 20
114.3390610905067035
 30
0.0
  0
VERTEX
  5
2381
  8
0
 10
117.8720035503016987
 20
114.3558692213354959
 30
0.0
  0
VERTEX
  5
2382
  8
0
 10
117.9617749705206933
 20
114.3729312615633944
 30
0.0
  0
VERTEX
  5
2383
  8
0
 10
118.0515197868841
 20
114.3902109384191021
 30
0.0
  0
VERTEX
  5
2384
  8
0
 10
118.1412424333680065
 20
114.4076719791311945
 30
0.0
  0
VERTEX
  5
2385
  8
0
 10
118.2309473439482019
 20
114.4252781109286019
 30
0.0
  0
VERTEX
  5
2386
  8
0
 10
118.320638952600703
 20
114.4429930610398998
 30
0.0
  0
VERTEX
  5
2387
  8
0
 10
118.4103216933013982
 20
114.4607805566938055
 30
0.0
  0
VERTEX
  5
2388
  8
0
 10
118.5000000000262048
 20
114.4786043251189938
 30
0.0
  0
SEQEND
  5
2389
  8
0
  0
POLYLINE
  5
2124
  8
0
 66
     1
 10
0.0
 20
0.0
 30
0.0
  0
VERTEX
  5
238A
  8
0
 10
110.0000000000262048
 20
114.4786043251188943
 30
0.0
  0
VERTEX
  5
238B
  8
0
 10
110.0895844243969037
 20
114.4603052371514025
 30
0.0
  0
VERTEX
  5
238C
  8
0
 10
110.1791785456911015
 20
114.4420717674552037
 30
0.0
  0
VERTEX
  5
238D
  8
0
 10
110.2687920608321974
 20
114.4239695343016052
 30
0.0
  0
VERTEX
  5
238E
  8
0
 10
110.3584346667435057
 20
114.4060641559619
 30
0.0
  0
VERTEX
  5
238F
  8
0
 10
110.4481160603484966
 20
114.3884212507072959
 30
0.0
  0
VERTEX
  5
2390
  8
0
 10
110.5378459385706975
 20
114.3711064368091996
 30
0.0
  0
VERTEX
  5
2391
  8
0
 10
110.6276322980801012
 20
114.3541746434783022
 30
0.0
  0
VERTEX
  5
2392
  8
0
 10
110.7174750644219046
 20
114.3376300588157051
 30
0.0
  0
VERTEX
  5
2393
  8
0
 10
110.8073717706804047
 20
114.3214618301286976
 30
0.0
  0
VERTEX
  5
2394
  8
0
 10
110.8973199495651016
 20
114.305659102368196
 30
0.0
  0
VERTEX
  5
2395
  8
0
 10
110.9873171337851971
 20
114.2902110204852022
 30
0.0
  0
VERTEX
  5
2396
  8
0
 10
111.0773608560512002
 20
114.2751067294363025
 30
0.0
  0
VERTEX
  5
2397
  8
0
 10
111.1674490813768017
 20
114.2603388454078015
 30
0.0
  0
VERTEX
  5
2398
  8
0
 10
111.257581442570995
 20
114.2459133763245944
 30
0.0
  0
VERTEX
  5
2399
  8
0
 10
111.3477579745782009
 20
114.231839559101104
 30
0.0
  0
VERTEX
  5
239A
  8
0
 10
111.4379787123427974
 20
114.2181266306511986
 30
0.0
  0
VERTEX
  5
239B
  8
0
 10
111.5282436908090062
 20
114.2047838278892016
 30
0.0
  0
VERTEX
  5
239C
  8
0
 10
111.6185529411958015
 20
114.1918203829583973
 30
0.0
  0
VERTEX
  5
239D
  8
0
 10
111.7089053943266066
 20
114.1792441188744931
 30
0.0
  0
VERTEX
  5
239E
  8
0
 10
111.799297352328594
 20
114.1670594924348023
 30
0.0
  0
VERTEX
  5
239F
  8
0
 10
111.8897247330933027
 20
114.1552704683986974
 30
0.0
  0
VERTEX
  5
23A0
  8
0
 10
111.980183454512499
 20
114.1438810115253943
 30
0.0
  0
VERTEX
  5
23A1
  8
0
 10
112.0706694344777929
 20
114.1328950865741945
 30
0.0
  0
VERTEX
  5
23A2
  8
0
 10
112.1611786517112961
 20
114.1223166238394953
 30
0.0
  0
VERTEX
  5
23A3
  8
0
 10
112.2517094700568947
 20
114.1121482022649047
 30
0.0
  0
VERTEX
  5
23A4
  8
0
 10
112.3422633635371994
 20
114.1023906386442945
 30
0.0
  0
VERTEX
  5
23A5
  8
0
 10
112.4328420152266972
 20
114.0930446313278992
 30
0.0
  0
VERTEX
  5
23A6
  8
0
 10
112.5234471081999033
 20
114.0841108786658964
 30
0.0
  0
VERTEX
  5
23A7
  8
0
 10
112.6140803255312051
 20
114.0755900790085065
 30
0.0
  0
VERTEX
  5
23A8
  8
0
 10
112.7047433502952032
 20
114.0674829307060065
 30
0.0
  0
VERTEX
  5
23A9
  8
0
 10
112.7954378655663987
 20
114.0597901321087022
 30
0.0
  0
VERTEX
  5
23AA
  8
0
 10
112.8861654758512003
 20
114.0525129039876049
 30
0.0
  0
VERTEX
  5
23AB
  8
0
 10
112.9769261065222992
 20
114.045663632169493
 30
0.0
  0
VERTEX
  5
23AC
  8
0
 10
113.0677180719557953
 20
114.0392654144664988
 30
0.0
  0
VERTEX
  5
23AD
  8
0
 10
113.1585396215952954
 20
114.0333417804490068
 30
0.0
  0
VERTEX
  5
23AE
  8
0
 10
113.2493890048839944
 20
114.0279162596875011
 30
0.0
  0
VERTEX
  5
23AF
  8
0
 10
113.340264471265499
 20
114.0230123817522951
 30
0.0
  0
VERTEX
  5
23B0
  8
0
 10
113.4311642701831033
 20
114.0186536762140008
 30
0.0
  0
VERTEX
  5
23B1
  8
0
 10
113.5220866510801017
 20
114.0148636726428037
 30
0.0
  0
VERTEX
  5
23B2
  8
0
 10
113.613029798119797
 20
114.0116584376951039
 30
0.0
  0
VERTEX
  5
23B3
  8
0
 10
113.7039913525341035
 20
114.0089919694034961
 30
0.0
  0
VERTEX
  5
23B4
  8
0
 10
113.7949686863554035
 20
114.0067874905827949
 30
0.0
  0
VERTEX
  5
23B5
  8
0
 10
113.8859591696824936
 20
114.0049680029876953
 30
0.0
  0
VERTEX
  5
23B6
  8
0
 10
113.976960172614298
 20
114.0034565083732048
 30
0.0
  0
VERTEX
  5
23B7
  8
0
 10
114.0679690652495992
 20
114.0021760084940041
 30
0.0
  0
VERTEX
  5
23B8
  8
0
 10
114.1589832176872932
 20
114.0010495051051009
 30
0.0
  0
VERTEX
  5
23B9
  8
0
 10
114.2500000000262048
 20
113.9999999999614033
 30
0.0
  0
SEQEND
  5
23BA
  8
0
  0
POLYLINE
  5
2125
  8
0
 66
     1
 10
0.0
 20
0.0
 30
0.0
  0
VERTEX
  5
23BB
  8
0
 10
114.2500000000262048
 20
121.9999999999614033
 30
0.0
  0
VERTEX
  5
23BC
  8
0
 10
114.1589995259034964
 20
121.9993578770139067
 30
0.0
  0
VERTEX
  5
23BD
  8
0
 10
114.0680002879296069
 20
121.9985882076060051
 30
0.0
  0
VERTEX
  5
23BE
  8
0
 10
113.9770035222532982
 20
121.9975634452776063
 30
0.0
  0
VERTEX
  5
23BF
  8
0
 10
113.8860104650232046
 20
121.996156043568206
 30
0.0
  0
VERTEX
  5
23C0
  8
0
 10
113.7950223743921043
 20
121.9942394471596998
 30
0.0
  0
VERTEX
  5
23C1
  8
0
 10
113.7040418361491021
 20
121.9917469024275931
 30
0.0
  0
VERTEX
  5
23C2
  8
0
 10
113.6130734981835957
 20
121.9887045404521047
 30
0.0
  0
VERTEX
  5
23C3
  8
0
 10
113.5221221862695984
 20
121.9851465048881067
 30
0.0
  0
VERTEX
  5
23C4
  8
0
 10
113.4311927261807966
 20
121.9811069393902017
 30
0.0
  0
VERTEX
  5
23C5
  8
0
 10
113.3402897360202957
 20
121.9766178177412002
 30
0.0
  0
VERTEX
  5
23C6
  8
0
 10
113.2494156139277948
 20
121.971687918216503
 30
0.0
  0
VERTEX
  5
23C7
  8
0
 10
113.1585714129417966
 20
121.9663119646563985
 30
0.0
  0
VERTEX
  5
23C8
  8
0
 10
113.0677581672902932
 20
121.9604844843644003
 30
0.0
  0
VERTEX
  5
23C9
  8
0
 10
112.9769769111750009
 20
121.9542000047764958
 30
0.0
  0
VERTEX
  5
23CA
  8
0
 10
112.8862282370248948
 20
121.947455241228198
 30
0.0
  0
VERTEX
  5
23CB
  8
0
 10
112.7955111737473004
 20
121.9402546524742945
 30
0.0
  0
VERTEX
  5
23CC
  8
0
 10
112.7048244045162022
 20
121.9326044095284942
 30
0.0
  0
VERTEX
  5
23CD
  8
0
 10
112.614166612506196
 20
121.9245106834044066
 30
0.0
  0
VERTEX
  5
23CE
  8
0
 10
112.5235364799570021
 20
121.915979689245404
 30
0.0
  0
VERTEX
  5
23CF
  8
0
 10
112.4329326405999012
 20
121.9070199327939008
 30
0.0
  0
VERTEX
  5
23D0
  8
0
 10
112.3423536570326036
 20
121.8976432787811035
 30
0.0
  0
VERTEX
  5
23D1
  8
0
 10
112.2517980861841949
 20
121.8878618596117036
 30
0.0
  0
VERTEX
  5
23D2
  8
0
 10
112.1612644849837039
 20
121.8776878076906058
 30
0.0
  0
VERTEX
  5
23D3
  8
0
 10
112.0707515960956044
 20
121.867132633523596
 30
0.0
  0
VERTEX
  5
23D4
  8
0
 10
111.9802609356914047
 20
121.8561985610746063
 30
0.0
  0
VERTEX
  5
23D5
  8
0
 10
111.8897961521083033
 20
121.8448806751685964
 30
0.0
  0
VERTEX
  5
23D6
  8
0
 10
111.7993609483640967
 20
121.8331738775442972
 30
0.0
  0
VERTEX
  5
23D7
  8
0
 10
111.7089590274766948
 20
121.8210730699402973
 30
0.0
  0
VERTEX
  5
23D8
  8
0
 10
111.6185940924634963
 20
121.8085731540952992
 30
0.0
  0
VERTEX
  5
23D9
  8
0
 10
111.5282698463425959
 20
121.7956690317478063
 30
0.0
  0
VERTEX
  5
23DA
  8
0
 10
111.4379899921316053
 20
121.782355604636507
 30
0.0
  0
VERTEX
  5
23DB
  8
0
 10
111.347758232848193
 20
121.7686277745000041
 30
0.0
  0
VERTEX
  5
23DC
  8
0
 10
111.2575782715100985
 20
121.7544804430769005
 30
0.0
  0
VERTEX
  5
23DD
  8
0
 10
111.1674538111352035
 20
121.7399085121057993
 30
0.0
  0
VERTEX
  5
23DE
  8
0
 10
111.0773885547411055
 20
121.7249068833255023
 30
0.0
  0
VERTEX
  5
23DF
  8
0
 10
110.9873847640782998
 20
121.709477117795501
 30
0.0
  0
VERTEX
  5
23E0
  8
0
 10
110.8974387328319011
 20
121.6936483517917935
 30
0.0
  0
VERTEX
  5
23E1
  8
0
 10
110.8075452101481062
 20
121.6774568580751037
 30
0.0
  0
VERTEX
  5
23E2
  8
0
 10
110.7176989451705964
 20
121.6609389094166005
 30
0.0
  0
VERTEX
  5
23E3
  8
0
 10
110.6278946870430957
 20
121.6441307785877939
 30
0.0
  0
VERTEX
  5
23E4
  8
0
 10
110.5381271849093991
 20
121.6270687383598954
 30
0.0
  0
VERTEX
  5
23E5
  8
0
 10
110.4483911879132023
 20
121.6097890615041024
 30
0.0
  0
VERTEX
  5
23E6
  8
0
 10
110.3586814451982008
 20
121.5923280207918964
 30
0.0
  0
VERTEX
  5
23E7
  8
0
 10
110.2689927059083033
 20
121.5747218889944037
 30
0.0
  0
VERTEX
  5
23E8
  8
0
 10
110.1793197191872054
 20
121.5570069388831058
 30
0.0
  0
VERTEX
  5
23E9
  8
0
 10
110.0896572341786026
 20
121.5392194432291006
 30
0.0
  0
VERTEX
  5
23EA
  8
0
 10
110.0000000000262048
 20
121.5213956748037987
 30
0.0
  0
SEQEND
  5
23EB
  8
0
  0
POLYLINE
  5
2126
  8
0
 66
     1
 10
0.0
 20
0.0
 30
0.0
  0
VERTEX
  5
23EC
  8
0
 10
118.5000000000262048
 20
121.5213956748037987
 30
0.0
  0
VERTEX
  5
23ED
  8
0
 10
118.4104065156921024
 20
121.5396947627713047
 30
0.0
  0
VERTEX
  5
23EE
  8
0
 10
118.3208036413040958
 20
121.5579282324675034
 30
0.0
  0
VERTEX
  5
23EF
  8
0
 10
118.2311819868082949
 20
121.5760304656211019
 30
0.0
  0
VERTEX
  5
23F0
  8
0
 10
118.1415321621505967
 20
121.5939358439607929
 30
0.0
  0
VERTEX
  5
23F1
  8
0
 10
118.0518447772770969
 20
121.6115787492152975
 30
0.0
  0
VERTEX
  5
23F2
  8
0
 10
117.962110442134005
 20
121.6288935631132944
 30
0.0
  0
VERTEX
  5
23F3
  8
0
 10
117.872321527169504
 20
121.6458253564443055
 30
0.0
  0
VERTEX
  5
23F4
  8
0
 10
117.7824787599583942
 20
121.6623699411068031
 30
0.0
  0
VERTEX
  5
23F5
  8
0
 10
117.6925853453140007
 20
121.678538169793697
 30
0.0
  0
VERTEX
  5
23F6
  8
0
 10
117.6026444884378037
 20
121.694340897554099
 30
0.0
  0
VERTEX
  5
23F7
  8
0
 10
117.5126593945308997
 20
121.7097889794371071
 30
0.0
  0
VERTEX
  5
23F8
  8
0
 10
117.4226332687939021
 20
121.724893270485893
 30
0.0
  0
VERTEX
  5
23F9
  8
0
 10
117.3325687221291957
 20
121.7396611545143941
 30
0.0
  0
VERTEX
  5
23FA
  8
0
 10
117.242466072684195
 20
121.7540866235975017
 30
0.0
  0
VERTEX
  5
23FB
  8
0
 10
117.1523250857812997
 20
121.7681604408210063
 30
0.0
  0
VERTEX
  5
23FC
  8
0
 10
117.0621455267431941
 20
121.7818733692708975
 30
0.0
  0
VERTEX
  5
23FD
  8
0
 10
116.9719271608927045
 20
121.7952161720328945
 30
0.0
  0
VERTEX
  5
23FE
  8
0
 10
116.8816697520120016
 20
121.8081796169636988
 30
0.0
  0
VERTEX
  5
23FF
  8
0
 10
116.7913726090045969
 20
121.8207558810477025
 30
0.0
  0
VERTEX
  5
2400
  8
0
 10
116.701033954127297
 20
121.8329405074875069
 30
0.0
  0
VERTEX
  5
2401
  8
0
 10
116.610651850802796
 20
121.8447295315237966
 30
0.0
  0
VERTEX
  5
2402
  8
0
 10
116.5202243624535043
 20
121.8561189883971991
 30
0.0
  0
VERTEX
  5
2403
  8
0
 10
116.4297495525019031
 20
121.8671049133484985
 30
0.0
  0
VERTEX
  5
2404
  8
0
 10
116.3392255453336048
 20
121.8776833760833966
 30
0.0
  0
VERTEX
  5
2405
  8
0
 10
116.2486528556557062
 20
121.8878517976580014
 30
0.0
  0
VERTEX
  5
2406
  8
0
 10
116.1580351151343962
 20
121.8976093612787963
 30
0.0
  0
VERTEX
  5
2407
  8
0
 10
116.0673761649437949
 20
121.9069553685954048
 30
0.0
  0
VERTEX
  5
2408
  8
0
 10
115.9766798462578947
 20
121.9158891212575071
 30
0.0
  0
VERTEX
  5
2409
  8
0
 10
115.885950000250503
 20
121.9244099209149965
 30
0.0
  0
VERTEX
  5
240A
  8
0
 10
115.7951904680955977
 20
121.9325170692174964
 30
0.0
  0
VERTEX
  5
240B
  8
0
 10
115.704405090967299
 20
121.9402098678149002
 30
0.0
  0
VERTEX
  5
240C
  8
0
 10
115.6135976579600992
 20
121.9474870959358981
 30
0.0
  0
VERTEX
  5
240D
  8
0
 10
115.5227708451410962
 20
121.9543363677540952
 30
0.0
  0
VERTEX
  5
240E
  8
0
 10
115.431926260716196
 20
121.9607345854571037
 30
0.0
  0
VERTEX
  5
240F
  8
0
 10
115.3410654698494966
 20
121.9666582194744961
 30
0.0
  0
VERTEX
  5
2410
  8
0
 10
115.2501900377053943
 20
121.9720837402359024
 30
0.0
  0
VERTEX
  5
2411
  8
0
 10
115.1593015294482996
 20
121.9769876181709947
 30
0.0
  0
VERTEX
  5
2412
  8
0
 10
115.0684015102424951
 20
121.9813463237092037
 30
0.0
  0
VERTEX
  5
2413
  8
0
 10
114.9774915452522066
 20
121.9851363272803013
 30
0.0
  0
VERTEX
  5
2414
  8
0
 10
114.8865731600481013
 20
121.9883415622280012
 30
0.0
  0
VERTEX
  5
2415
  8
0
 10
114.7956475509021033
 20
121.9910080305194953
 30
0.0
  0
VERTEX
  5
2416
  8
0
 10
114.7047157508110047
 20
121.9932125093401964
 30
0.0
  0
VERTEX
  5
2417
  8
0
 10
114.6137787915991026
 20
121.9950319969351966
 30
0.0
  0
VERTEX
  5
2418
  8
0
 10
114.5228377050903958
 20
121.9965434915497013
 30
0.0
  0
VERTEX
  5
2419
  8
0
 10
114.4318935231092951
 20
121.9978239914288025
 30
0.0
  0
VERTEX
  5
241A
  8
0
 10
114.340947277479799
 20
121.9989504948177057
 30
0.0
  0
VERTEX
  5
241B
  8
0
 10
114.2500000000262048
 20
121.9999999999614033
 30
0.0
  0
SEQEND
  5
241C
  8
0
  0
POLYLINE
  5
2127
  8
0
 66
     1
 10
0.0
 20
0.0
 30
0.0
  0
VERTEX
  5
241D
  8
0
 10
59.814954576249022
 20
114.4786043251891954
 30
0.0
  0
VERTEX
  5
241E
  8
0
 10
59.763222523178797
 20
114.4603052372217036
 30
0.0
  0
VERTEX
  5
241F
  8
0
 10
59.7114852259295503
 20
114.4420717675254053
 30
0.0
  0
VERTEX
  5
2420
  8
0
 10
59.6597374403223171
 20
114.4239695343718068
 30
0.0
  0
VERTEX
  5
2421
  8
0
 10
59.6079739221780684
 20
114.4060641560320022
 30
0.0
  0
VERTEX
  5
2422
  8
0
 10
59.5561894273179178
 20
114.3884212507773981
 30
0.0
  0
VERTEX
  5
2423
  8
0
 10
59.504378711562758
 20
114.3711064368793018
 30
0.0
  0
VERTEX
  5
2424
  8
0
 10
59.4525375819446822
 20
114.3541746435483049
 30
0.0
  0
VERTEX
  5
2425
  8
0
 10
59.4006668356084901
 20
114.3376300588855941
 30
0.0
  0
VERTEX
  5
2426
  8
0
 10
59.3487687488792517
 20
114.3214618301986008
 30
0.0
  0
VERTEX
  5
2427
  8
0
 10
59.2968455983138298
 20
114.3056591024379998
 30
0.0
  0
VERTEX
  5
2428
  8
0
 10
59.2448996604690521
 20
114.2902110205549064
 30
0.0
  0
VERTEX
  5
2429
  8
0
 10
59.1929332119010994
 20
114.2751067295058931
 30
0.0
  0
VERTEX
  5
242A
  8
0
 10
59.1409480925208797
 20
114.2603388454773068
 30
0.0
  0
VERTEX
  5
242B
  8
0
 10
59.0889444576952769
 20
114.2459133763941992
 30
0.0
  0
VERTEX
  5
242C
  8
0
 10
59.0369220566173567
 20
114.2318395591705951
 30
0.0
  0
VERTEX
  5
242D
  8
0
 10
58.9848806384801492
 20
114.2181266307207039
 30
0.0
  0
VERTEX
  5
242E
  8
0
 10
58.9328199524767271
 20
114.2047838279587069
 30
0.0
  0
VERTEX
  5
242F
  8
0
 10
58.8807397438709401
 20
114.1918203830280021
 30
0.0
  0
VERTEX
  5
2430
  8
0
 10
58.8286385973635788
 20
114.1792441189440979
 30
0.0
  0
VERTEX
  5
2431
  8
0
 10
58.7765123252257808
 20
114.1670594925045066
 30
0.0
  0
VERTEX
  5
2432
  8
0
 10
58.7243563344841775
 20
114.1552704684685011
 30
0.0
  0
VERTEX
  5
2433
  8
0
 10
58.6721660321654213
 20
114.143881011595397
 30
0.0
  0
VERTEX
  5
2434
  8
0
 10
58.6199368252960014
 20
114.1328950866442966
 30
0.0
  0
VERTEX
  5
2435
  8
0
 10
58.5676642264169232
 20
114.1223166239096969
 30
0.0
  0
VERTEX
  5
2436
  8
0
 10
58.5153478852256512
 20
114.1121482023353053
 30
0.0
  0
VERTEX
  5
2437
  8
0
 10
58.4629928462366024
 20
114.1023906387147946
 30
0.0
  0
VERTEX
  5
2438
  8
0
 10
58.4106045165788714
 20
114.0930446313984987
 30
0.0
  0
VERTEX
  5
2439
  8
0
 10
58.3581883033816098
 20
114.0841108787364959
 30
0.0
  0
VERTEX
  5
243A
  8
0
 10
58.3057496137739122
 20
114.0755900790793049
 30
0.0
  0
VERTEX
  5
243B
  8
0
 10
58.2532938548849799
 20
114.0674829307769045
 30
0.0
  0
VERTEX
  5
243C
  8
0
 10
58.2008264338438721
 20
114.0597901321796002
 30
0.0
  0
VERTEX
  5
243D
  8
0
 10
58.1483526522826466
 20
114.0525129040586023
 30
0.0
  0
VERTEX
  5
243E
  8
0
 10
58.0958755571710981
 20
114.0456636322404051
 30
0.0
  0
VERTEX
  5
243F
  8
0
 10
58.043396032309893
 20
114.0392654145373967
 30
0.0
  0
VERTEX
  5
2440
  8
0
 10
57.990914874310981
 20
114.0333417805199048
 30
0.0
  0
VERTEX
  5
2441
  8
0
 10
57.938432879785978
 20
114.0279162597582996
 30
0.0
  0
VERTEX
  5
2442
  8
0
 10
57.8859508453468266
 20
114.0230123818230936
 30
0.0
  0
VERTEX
  5
2443
  8
0
 10
57.8334695676051567
 20
114.0186536762846998
 30
0.0
  0
VERTEX
  5
2444
  8
0
 10
57.7809898431728968
 20
114.0148636727134033
 30
0.0
  0
VERTEX
  5
2445
  8
0
 10
57.728512385253282
 20
114.0116584377656039
 30
0.0
  0
VERTEX
  5
2446
  8
0
 10
57.6760372133466035
 20
114.0089919694739962
 30
0.0
  0
VERTEX
  5
2447
  8
0
 10
57.623564002997341
 20
114.0067874906531955
 30
0.0
  0
VERTEX
  5
2448
  8
0
 10
57.5710924272791473
 20
114.0049680030580959
 30
0.0
  0
VERTEX
  5
2449
  8
0
 10
57.5186221592658669
 20
114.0034565084435059
 30
0.0
  0
VERTEX
  5
244A
  8
0
 10
57.4661528720312731
 20
114.0021760085643052
 30
0.0
  0
VERTEX
  5
244B
  8
0
 10
57.4136842386491182
 20
114.001049505175402
 30
0.0
  0
VERTEX
  5
244C
  8
0
 10
57.3612159321931969
 20
114.0000000000316049
 30
0.0
  0
SEQEND
  5
244D
  8
0
  0
POLYLINE
  5
2128
  8
0
 66
     1
 10
0.0
 20
0.0
 30
0.0
  0
VERTEX
  5
244E
  8
0
 10
57.3612159321931969
 20
122.0000000000316049
 30
0.0
  0
VERTEX
  5
244F
  8
0
 10
57.4137030308784233
 20
121.9993578770840941
 30
0.0
  0
VERTEX
  5
2450
  8
0
 10
57.4661881186517007
 20
121.9985882076763062
 30
0.0
  0
VERTEX
  5
2451
  8
0
 10
57.5186691846011513
 20
121.9975634453477937
 30
0.0
  0
VERTEX
  5
2452
  8
0
 10
57.5711442178148403
 20
121.9961560436383934
 30
0.0
  0
VERTEX
  5
2453
  8
0
 10
57.6236112445710731
 20
121.9942394472299014
 30
0.0
  0
VERTEX
  5
2454
  8
0
 10
57.6760705350604326
 20
121.9917469024976953
 30
0.0
  0
VERTEX
  5
2455
  8
0
 10
57.7285258447451497
 20
121.9887045405222068
 30
0.0
  0
VERTEX
  5
2456
  8
0
 10
57.7809812297397229
 20
121.9851465049581947
 30
0.0
  0
VERTEX
  5
2457
  8
0
 10
57.8334407461585371
 20
121.9811069394602043
 30
0.0
  0
VERTEX
  5
2458
  8
0
 10
57.8859081307224983
 20
121.9766178178113023
 30
0.0
  0
VERTEX
  5
2459
  8
0
 10
57.9383837058975288
 20
121.9716879182865057
 30
0.0
  0
VERTEX
  5
245A
  8
0
 10
57.9908657254114814
 20
121.9663119647264011
 30
0.0
  0
VERTEX
  5
245B
  8
0
 10
58.0433524140632429
 20
121.9604844844344029
 30
0.0
  0
VERTEX
  5
245C
  8
0
 10
58.0958419966020685
 20
121.9542000048465979
 30
0.0
  0
VERTEX
  5
245D
  8
0
 10
58.1483318801449514
 20
121.9474552412982007
 30
0.0
  0
VERTEX
  5
245E
  8
0
 10
58.200816578042982
 20
121.9402546525442972
 30
0.0
  0
VERTEX
  5
245F
  8
0
 10
58.2532899637650416
 20
121.9326044095984969
 30
0.0
  0
VERTEX
  5
2460
  8
0
 10
58.3057459107800966
 20
121.924510683474395
 30
0.0
  0
VERTEX
  5
2461
  8
0
 10
58.3581783274383383
 20
121.9159796893155061
 30
0.0
  0
VERTEX
  5
2462
  8
0
 10
58.4105829326361388
 20
121.907019932864003
 30
0.0
  0
VERTEX
  5
2463
  8
0
 10
58.4629581002978398
 20
121.8976432788512057
 30
0.0
  0
VERTEX
  5
2464
  8
0
 10
58.5153024159234931
 20
121.8878618596819052
 30
0.0
  0
VERTEX
  5
2465
  8
0
 10
58.5676144650132713
 20
121.8776878077609069
 30
0.0
  0
VERTEX
  5
2466
  8
0
 10
58.6198929127473818
 20
121.8671326335937977
 30
0.0
  0
VERTEX
  5
2467
  8
0
 10
58.672137614134563
 20
121.8561985611447938
 30
0.0
  0
VERTEX
  5
2468
  8
0
 10
58.7243493388778504
 20
121.8448806752388975
 30
0.0
  0
VERTEX
  5
2469
  8
0
 10
58.7765288801383576
 20
121.8331738776145983
 30
0.0
  0
VERTEX
  5
246A
  8
0
 10
58.8286770310768929
 20
121.8210730700106978
 30
0.0
  0
VERTEX
  5
246B
  8
0
 10
58.8807945848544705
 20
121.8085731541656997
 30
0.0
  0
VERTEX
  5
246C
  8
0
 10
58.9328823346320902
 20
121.7956690318182069
 30
0.0
  0
VERTEX
  5
246D
  8
0
 10
58.9849410735706101
 20
121.7823556047068934
 30
0.0
  0
VERTEX
  5
246E
  8
0
 10
59.0369715948310088
 20
121.7686277745704047
 30
0.0
  0
VERTEX
  5
246F
  8
0
 10
59.088974691574272
 20
121.7544804431473011
 30
0.0
  0
VERTEX
  5
2470
  8
0
 10
59.1409511569613073
 20
121.7399085121761999
 30
0.0
  0
VERTEX
  5
2471
  8
0
 10
59.1929017841531504
 20
121.7249068833959029
 30
0.0
  0
VERTEX
  5
2472
  8
0
 10
59.2448275747887578
 20
121.7094771178659016
 30
0.0
  0
VERTEX
  5
2473
  8
0
 10
59.2967303937826387
 20
121.6936483518620946
 30
0.0
  0
VERTEX
  5
2474
  8
0
 10
59.3486123294654817
 20
121.6774568581454048
 30
0.0
  0
VERTEX
  5
2475
  8
0
 10
59.4004754701685371
 20
121.6609389094870011
 30
0.0
  0
VERTEX
  5
2476
  8
0
 10
59.4523219042227993
 20
121.644130778658095
 30
0.0
  0
VERTEX
  5
2477
  8
0
 10
59.5041537199593904
 20
121.6270687384301965
 30
0.0
  0
VERTEX
  5
2478
  8
0
 10
59.5559730057093972
 20
121.6097890615744035
 30
0.0
  0
VERTEX
  5
2479
  8
0
 10
59.6077818498039278
 20
121.592328020862098
 30
0.0
  0
VERTEX
  5
247A
  8
0
 10
59.6595823405740475
 20
121.5747218890647048
 30
0.0
  0
VERTEX
  5
247B
  8
0
 10
59.7113765663509
 20
121.5570069389532932
 30
0.0
  0
VERTEX
  5
247C
  8
0
 10
59.7631666154655932
 20
121.5392194432993023
 30
0.0
  0
VERTEX
  5
247D
  8
0
 10
59.8149545762491286
 20
121.5213956748740003
 30
0.0
  0
SEQEND
  5
247E
  8
0
  0
POLYLINE
  5
2129
  8
0
 66
     1
 10
0.0
 20
0.0
 30
0.0
  0
VERTEX
  5
247F
  8
0
 10
42.6387840678577277
 20
114.0000000000316049
 30
0.0
  0
VERTEX
  5
2480
  8
0
 10
42.5862969691724516
 20
114.0006421229792011
 30
0.0
  0
VERTEX
  5
2481
  8
0
 10
42.5338118813991102
 20
114.0014117923870032
 30
0.0
  0
VERTEX
  5
2482
  8
0
 10
42.4813308154496099
 20
114.0024365547155014
 30
0.0
  0
VERTEX
  5
2483
  8
0
 10
42.4288557822358072
 20
114.0038439564249018
 30
0.0
  0
VERTEX
  5
2484
  8
0
 10
42.3763887554795176
 20
114.0057605528333937
 30
0.0
  0
VERTEX
  5
2485
  8
0
 10
42.3239294649900373
 20
114.0082530975656994
 30
0.0
  0
VERTEX
  5
2486
  8
0
 10
42.2714741553051567
 20
114.011295459541202
 30
0.0
  0
VERTEX
  5
2487
  8
0
 10
42.2190187703105266
 20
114.0148534951052994
 30
0.0
  0
VERTEX
  5
2488
  8
0
 10
42.1665592538915419
 20
114.0188930606034035
 30
0.0
  0
VERTEX
  5
2489
  8
0
 10
42.1140918693274671
 20
114.023382182252405
 30
0.0
  0
VERTEX
  5
248A
  8
0
 10
42.0616162941523726
 20
114.0283120817772016
 30
0.0
  0
VERTEX
  5
248B
  8
0
 10
42.0091342746382566
 20
114.0336880353373061
 30
0.0
  0
VERTEX
  5
248C
  8
0
 10
41.9566475859863814
 20
114.0395155156294038
 30
0.0
  0
VERTEX
  5
248D
  8
0
 10
41.9041580034475416
 20
114.0457999952172941
 30
0.0
  0
VERTEX
  5
248E
  8
0
 10
41.8516681199046232
 20
114.0525447587657055
 30
0.0
  0
VERTEX
  5
248F
  8
0
 10
41.7991834220065286
 20
114.0597453475195948
 30
0.0
  0
VERTEX
  5
2490
  8
0
 10
41.7467100362844619
 20
114.0673955904652956
 30
0.0
  0
VERTEX
  5
2491
  8
0
 10
41.6942540892694566
 20
114.0754893165893975
 30
0.0
  0
VERTEX
  5
2492
  8
0
 10
41.6418216726113997
 20
114.0840203107482012
 30
0.0
  0
VERTEX
  5
2493
  8
0
 10
41.5894170674138195
 20
114.0929800671996048
 30
0.0
  0
VERTEX
  5
2494
  8
0
 10
41.5370418997524098
 20
114.1023567212123027
 30
0.0
  0
VERTEX
  5
2495
  8
0
 10
41.4846975841270407
 20
114.1121381403815036
 30
0.0
  0
VERTEX
  5
2496
  8
0
 10
41.4323855350375467
 20
114.1223121923024024
 30
0.0
  0
VERTEX
  5
2497
  8
0
 10
41.3801070873036494
 20
114.1328673664692985
 30
0.0
  0
VERTEX
  5
2498
  8
0
 10
41.3278623859167169
 20
114.143801438918203
 30
0.0
  0
VERTEX
  5
2499
  8
0
 10
41.2756506611735787
 20
114.1551193248239997
 30
0.0
  0
VERTEX
  5
249A
  8
0
 10
41.223471119913313
 20
114.1668261224481995
 30
0.0
  0
VERTEX
  5
249B
  8
0
 10
41.1713229689748914
 20
114.1789269300520999
 30
0.0
  0
VERTEX
  5
249C
  8
0
 10
41.1192054151974276
 20
114.191426845897098
 30
0.0
  0
VERTEX
  5
249D
  8
0
 10
41.0671176654199073
 20
114.2043309682446051
 30
0.0
  0
VERTEX
  5
249E
  8
0
 10
41.0150589264814585
 20
114.2176443953559044
 30
0.0
  0
VERTEX
  5
249F
  8
0
 10
40.9630284052210527
 20
114.2313722254923931
 30
0.0
  0
VERTEX
  5
24A0
  8
0
 10
40.9110253084778606
 20
114.2455195569154967
 30
0.0
  0
VERTEX
  5
24A1
  8
0
 10
40.859048843090747
 20
114.2600914878864984
 30
0.0
  0
VERTEX
  5
24A2
  8
0
 10
40.8070982158989821
 20
114.2750931166668948
 30
0.0
  0
VERTEX
  5
24A3
  8
0
 10
40.7551724252633107
 20
114.2905228821968961
 30
0.0
  0
VERTEX
  5
24A4
  8
0
 10
40.7032696062693731
 20
114.3063516482007032
 30
0.0
  0
VERTEX
  5
24A5
  8
0
 10
40.6513876705864092
 20
114.322543141917393
 30
0.0
  0
VERTEX
  5
24A6
  8
0
 10
40.5995245298833467
 20
114.3390610905758962
 30
0.0
  0
VERTEX
  5
24A7
  8
0
 10
40.547678095828978
 20
114.3558692214048023
 30
0.0
  0
VERTEX
  5
24A8
  8
0
 10
40.4958462800922803
 20
114.3729312616328002
 30
0.0
  0
VERTEX
  5
24A9
  8
0
 10
40.4440269943421526
 20
114.3902109384885932
 30
0.0
  0
VERTEX
  5
24AA
  8
0
 10
40.3922181502475226
 20
114.4076719792008987
 30
0.0
  0
VERTEX
  5
24AB
  8
0
 10
40.3404176594772821
 20
114.4252781109984056
 30
0.0
  0
VERTEX
  5
24AC
  8
0
 10
40.288623433700252
 20
114.442993061109803
 30
0.0
  0
VERTEX
  5
24AD
  8
0
 10
40.2368333845855091
 20
114.4607805567637939
 30
0.0
  0
VERTEX
  5
24AE
  8
0
 10
40.1850454238017889
 20
114.4786043251891954
 30
0.0
  0
SEQEND
  5
24AF
  8
0
  0
POLYLINE
  5
212A
  8
0
 66
     1
 10
0.0
 20
0.0
 30
0.0
  0
VERTEX
  5
24B0
  8
0
 10
40.1850454238017889
 20
121.5213956748740998
 30
0.0
  0
VERTEX
  5
24B1
  8
0
 10
40.236777476872021
 20
121.5396947628416058
 30
0.0
  0
VERTEX
  5
24B2
  8
0
 10
40.2885147741212677
 20
121.5579282325378045
 30
0.0
  0
VERTEX
  5
24B3
  8
0
 10
40.340262559728437
 20
121.576030465691403
 30
0.0
  0
VERTEX
  5
24B4
  8
0
 10
40.3920260778726217
 20
121.5939358440311935
 30
0.0
  0
VERTEX
  5
24B5
  8
0
 10
40.4438105727327866
 20
121.6115787492857976
 30
0.0
  0
VERTEX
  5
24B6
  8
0
 10
40.4956212884878823
 20
121.6288935631838939
 30
0.0
  0
VERTEX
  5
24B7
  8
0
 10
40.5474624181058516
 20
121.645825356514905
 30
0.0
  0
VERTEX
  5
24B8
  8
0
 10
40.5993331644419797
 20
121.6623699411775021
 30
0.0
  0
VERTEX
  5
24B9
  8
0
 10
40.6512312511711116
 20
121.6785381698644954
 30
0.0
  0
VERTEX
  5
24BA
  8
0
 10
40.7031544017364624
 20
121.694340897624997
 30
0.0
  0
VERTEX
  5
24BB
  8
0
 10
40.7551003395811335
 20
121.7097889795081045
 30
0.0
  0
VERTEX
  5
24BC
  8
0
 10
40.8070667881489726
 20
121.7248932705570041
 30
0.0
  0
VERTEX
  5
24BD
  8
0
 10
40.8590519075291283
 20
121.7396611545856047
 30
0.0
  0
VERTEX
  5
24BE
  8
0
 10
40.9110555423546316
 20
121.7540866236686981
 30
0.0
  0
VERTEX
  5
24BF
  8
0
 10
40.9630779434324879
 20
121.7681604408923022
 30
0.0
  0
VERTEX
  5
24C0
  8
0
 10
41.0151193615697025
 20
121.7818733693420938
 30
0.0
  0
VERTEX
  5
24C1
  8
0
 10
41.0671800475731104
 20
121.7952161721041051
 30
0.0
  0
VERTEX
  5
24C2
  8
0
 10
41.119260256179011
 20
121.8081796170348952
 30
0.0
  0
VERTEX
  5
24C3
  8
0
 10
41.1713614026865002
 20
121.8207558811187994
 30
0.0
  0
VERTEX
  5
24C4
  8
0
 10
41.2234876748244687
 20
121.8329405075584049
 30
0.0
  0
VERTEX
  5
24C5
  8
0
 10
41.2756436655662284
 20
121.8447295315944956
 30
0.0
  0
VERTEX
  5
24C6
  8
0
 10
41.3278339678852191
 20
121.8561189884676992
 30
0.0
  0
VERTEX
  5
24C7
  8
0
 10
41.3800631747548096
 20
121.8671049134188991
 30
0.0
  0
VERTEX
  5
24C8
  8
0
 10
41.4323357736340583
 20
121.8776833761534988
 30
0.0
  0
VERTEX
  5
24C9
  8
0
 10
41.4846521148255079
 20
121.887851797728004
 30
0.0
  0
VERTEX
  5
24CA
  8
0
 10
41.5370071538147769
 20
121.8976093613486
 30
0.0
  0
VERTEX
  5
24CB
  8
0
 10
41.5893954834726216
 20
121.9069553686649954
 30
0.0
  0
VERTEX
  5
24CC
  8
0
 10
41.6418116966699969
 20
121.9158891213269982
 30
0.0
  0
VERTEX
  5
24CD
  8
0
 10
41.6942503862778082
 20
121.9244099209843029
 30
0.0
  0
VERTEX
  5
24CE
  8
0
 10
41.7467061451667973
 20
121.9325170692867033
 30
0.0
  0
VERTEX
  5
24CF
  8
0
 10
41.7991735662079691
 20
121.9402098678839934
 30
0.0
  0
VERTEX
  5
24D0
  8
0
 10
41.8516473477692372
 20
121.9474870960051049
 30
0.0
  0
VERTEX
  5
24D1
  8
0
 10
41.9041244428808
 20
121.9543363678232026
 30
0.0
  0
VERTEX
  5
24D2
  8
0
 10
41.9566039677418914
 20
121.9607345855261968
 30
0.0
  0
VERTEX
  5
24D3
  8
0
 10
42.0090851257408033
 20
121.966658219543703
 30
0.0
  0
VERTEX
  5
24D4
  8
0
 10
42.0615671202656927
 20
121.972083740305294
 30
0.0
  0
VERTEX
  5
24D5
  8
0
 10
42.1140491547047802
 20
121.9769876182405
 30
0.0
  0
VERTEX
  5
24D6
  8
0
 10
42.1665304324463293
 20
121.9813463237787943
 30
0.0
  0
VERTEX
  5
24D7
  8
0
 10
42.2190101568785394
 20
121.9851363273500056
 30
0.0
  0
VERTEX
  5
24D8
  8
0
 10
42.2714876147980476
 20
121.9883415622978049
 30
0.0
  0
VERTEX
  5
24D9
  8
0
 10
42.3239627867046124
 20
121.9910080305893985
 30
0.0
  0
VERTEX
  5
24DA
  8
0
 10
42.3764359970538678
 20
121.9932125094101991
 30
0.0
  0
VERTEX
  5
24DB
  8
0
 10
42.4289075727719975
 20
121.9950319970052988
 30
0.0
  0
VERTEX
  5
24DC
  8
0
 10
42.4813778407851714
 20
121.9965434916198035
 30
0.0
  0
VERTEX
  5
24DD
  8
0
 10
42.5338471280197084
 20
121.9978239914990041
 30
0.0
  0
VERTEX
  5
24DE
  8
0
 10
42.5863157614018135
 20
121.9989504948878931
 30
0.0
  0
VERTEX
  5
24DF
  8
0
 10
42.6387840678577277
 20
122.0000000000316049
 30
0.0
  0
SEQEND
  5
24E0
  8
0
  0
POLYLINE
  5
212B
  8
0
 66
     1
 10
0.0
 20
0.0
 30
0.0
  0
VERTEX
  5
24E1
  8
0
 10
45.0925227119136025
 20
114.4786043251891954
 30
0.0
  0
VERTEX
  5
24E2
  8
0
 10
45.0408063511601995
 20
114.4603052372217036
 30
0.0
  0
VERTEX
  5
24E3
  8
0
 10
44.9890842147142891
 20
114.4420717675254053
 30
0.0
  0
VERTEX
  5
24E4
  8
0
 10
44.9373505268833284
 20
114.4239695343718068
 30
0.0
  0
VERTEX
  5
24E5
  8
0
 10
44.8855995119747533
 20
114.4060641560321017
 30
0.0
  0
VERTEX
  5
24E6
  8
0
 10
44.8338253942960705
 20
114.3884212507774976
 30
0.0
  0
VERTEX
  5
24E7
  8
0
 10
44.7820223981547088
 20
114.3711064368794013
 30
0.0
  0
VERTEX
  5
24E8
  8
0
 10
44.7301856947152601
 20
114.3541746435484043
 30
0.0
  0
VERTEX
  5
24E9
  8
0
 10
44.6783149498850207
 20
114.337630058885793
 30
0.0
  0
VERTEX
  5
24EA
  8
0
 10
44.6264111619132109
 20
114.3214618301987997
 30
0.0
  0
VERTEX
  5
24EB
  8
0
 10
44.5744753292576092
 20
114.3056591024383977
 30
0.0
  0
VERTEX
  5
24EC
  8
0
 10
44.5225084503761721
 20
114.2902110205553043
 30
0.0
  0
VERTEX
  5
24ED
  8
0
 10
44.4705115237264792
 20
114.2751067295064047
 30
0.0
  0
VERTEX
  5
24EE
  8
0
 10
44.4184853917026814
 20
114.2603388454779036
 30
0.0
  0
VERTEX
  5
24EF
  8
0
 10
44.3664302946181692
 20
114.245913376394796
 30
0.0
  0
VERTEX
  5
24F0
  8
0
 10
44.3143463276136771
 20
114.2318395591712061
 30
0.0
  0
VERTEX
  5
24F1
  8
0
 10
44.2622335858299607
 20
114.2181266307213008
 30
0.0
  0
VERTEX
  5
24F2
  8
0
 10
44.2100921644079108
 20
114.2047838279593037
 30
0.0
  0
VERTEX
  5
24F3
  8
0
 10
44.1579221636792525
 20
114.1918203830285989
 30
0.0
  0
VERTEX
  5
24F4
  8
0
 10
44.105725217227409
 20
114.1792441189445952
 30
0.0
  0
VERTEX
  5
24F5
  8
0
 10
44.0535066213688467
 20
114.167059492505004
 30
0.0
  0
VERTEX
  5
24F6
  8
0
 10
44.0012722077999001
 20
114.1552704684687995
 30
0.0
  0
VERTEX
  5
24F7
  8
0
 10
43.9490278082165489
 20
114.143881011595596
 30
0.0
  0
VERTEX
  5
24F8
  8
0
 10
43.8967792543150495
 20
114.1328950866443961
 30
0.0
  0
VERTEX
  5
24F9
  8
0
 10
43.8445322723538879
 20
114.1223166239096969
 30
0.0
  0
VERTEX
  5
24FA
  8
0
 10
43.7922884544369708
 20
114.1121482023352058
 30
0.0
  0
VERTEX
  5
24FB
  8
0
 10
43.7400440017660799
 20
114.1023906387145956
 30
0.0
  0
VERTEX
  5
24FC
  8
0
 10
43.6877947531914401
 20
114.0930446313981008
 30
0.0
  0
VERTEX
  5
24FD
  8
0
 10
43.635536547563099
 20
114.084110878736098
 30
0.0
  0
VERTEX
  5
24FE
  8
0
 10
43.5832652237313525
 20
114.0755900790787933
 30
0.0
  0
VERTEX
  5
24FF
  8
0
 10
43.5309766205463617
 20
114.0674829307762934
 30
0.0
  0
VERTEX
  5
2500
  8
0
 10
43.4786665768581884
 20
114.0597901321790033
 30
0.0
  0
VERTEX
  5
2501
  8
0
 10
43.426331052307539
 20
114.0525129040580055
 30
0.0
  0
VERTEX
  5
2502
  8
0
 10
43.3739685880386787
 20
114.0456636322397941
 30
0.0
  0
VERTEX
  5
2503
  8
0
 10
43.3215802019442435
 20
114.0392654145367999
 30
0.0
  0
VERTEX
  5
2504
  8
0
 10
43.2691670117448481
 20
114.0333417805192937
 30
0.0
  0
VERTEX
  5
2505
  8
0
 10
43.2167301351610575
 20
114.0279162597578022
 30
0.0
  0
VERTEX
  5
2506
  8
0
 10
43.164270689913451
 20
114.0230123818225962
 30
0.0
  0
VERTEX
  5
2507
  8
0
 10
43.1117897937227212
 20
114.0186536762842024
 30
0.0
  0
VERTEX
  5
2508
  8
0
 10
43.0592885643094405
 20
114.0148636727130054
 30
0.0
  0
VERTEX
  5
2509
  8
0
 10
43.0067682176326116
 20
114.0116584377653055
 30
0.0
  0
VERTEX
  5
250A
  8
0
 10
42.9542307866953976
 20
114.0089919694736977
 30
0.0
  0
VERTEX
  5
250B
  8
0
 10
42.901678709612213
 20
114.0067874906529966
 30
0.0
  0
VERTEX
  5
250C
  8
0
 10
42.8491144274073505
 20
114.0049680030578969
 30
0.0
  0
VERTEX
  5
250D
  8
0
 10
42.7965403811051033
 20
114.0034565084433069
 30
0.0
  0
VERTEX
  5
250E
  8
0
 10
42.7439590117298778
 20
114.0021760085642057
 30
0.0
  0
VERTEX
  5
250F
  8
0
 10
42.6913727603059669
 20
114.001049505175402
 30
0.0
  0
VERTEX
  5
2510
  8
0
 10
42.6387840678577277
 20
114.0000000000316049
 30
0.0
  0
SEQEND
  5
2511
  8
0
  0
POLYLINE
  5
212C
  8
0
 66
     1
 10
0.0
 20
0.0
 30
0.0
  0
VERTEX
  5
2512
  8
0
 10
54.9074772881373292
 20
121.5213956748740998
 30
0.0
  0
VERTEX
  5
2513
  8
0
 10
54.9591936488907322
 20
121.5396947628416058
 30
0.0
  0
VERTEX
  5
2514
  8
0
 10
55.0109157853366924
 20
121.5579282325378045
 30
0.0
  0
VERTEX
  5
2515
  8
0
 10
55.0626494731677596
 20
121.576030465691403
 30
0.0
  0
VERTEX
  5
2516
  8
0
 10
55.1144004880763987
 20
121.593935844031094
 30
0.0
  0
VERTEX
  5
2517
  8
0
 10
55.1661746057552591
 20
121.6115787492855986
 30
0.0
  0
VERTEX
  5
2518
  8
0
 10
55.2179776018967416
 20
121.6288935631835955
 30
0.0
  0
VERTEX
  5
2519
  8
0
 10
55.2698143053364106
 20
121.6458253565144929
 30
0.0
  0
VERTEX
  5
251A
  8
0
 10
55.3216850501668205
 20
121.6623699411770048
 30
0.0
  0
VERTEX
  5
251B
  8
0
 10
55.3735888381388577
 20
121.6785381698639981
 30
0.0
  0
VERTEX
  5
251C
  8
0
 10
55.425524670794573
 20
121.6943408976244001
 30
0.0
  0
VERTEX
  5
251D
  8
0
 10
55.4774915496761807
 20
121.7097889795073939
 30
0.0
  0
VERTEX
  5
251E
  8
0
 10
55.5294884763260299
 20
121.7248932705561941
 30
0.0
  0
VERTEX
  5
251F
  8
0
 10
55.5815146083499485
 20
121.7396611545846952
 30
0.0
  0
VERTEX
  5
2520
  8
0
 10
55.6335697054345815
 20
121.7540866236678028
 30
0.0
  0
VERTEX
  5
2521
  8
0
 10
55.6856536724391233
 20
121.7681604408914069
 30
0.0
  0
VERTEX
  5
2522
  8
0
 10
55.7377664142228397
 20
121.7818733693411986
 30
0.0
  0
VERTEX
  5
2523
  8
0
 10
55.7899078356448399
 20
121.7952161721031956
 30
0.0
  0
VERTEX
  5
2524
  8
0
 10
55.8420778363733916
 20
121.8081796170339999
 30
0.0
  0
VERTEX
  5
2525
  8
0
 10
55.8942747828250504
 20
121.8207558811180036
 30
0.0
  0
VERTEX
  5
2526
  8
0
 10
55.9464933786833214
 20
121.8329405075577938
 30
0.0
  0
VERTEX
  5
2527
  8
0
 10
55.9987277922519979
 20
121.8447295315940977
 30
0.0
  0
VERTEX
  5
2528
  8
0
 10
56.050972191835001
 20
121.8561189884675002
 30
0.0
  0
VERTEX
  5
2529
  8
0
 10
56.1032207457361594
 20
121.8671049134187996
 30
0.0
  0
VERTEX
  5
252A
  8
0
 10
56.1554677276969301
 20
121.8776833761535983
 30
0.0
  0
VERTEX
  5
252B
  8
0
 10
56.207711545613499
 20
121.8878517977283025
 30
0.0
  0
VERTEX
  5
252C
  8
0
 10
56.2599559982840631
 20
121.8976093613489979
 30
0.0
  0
VERTEX
  5
252D
  8
0
 10
56.3122052468584684
 20
121.9069553686656064
 30
0.0
  0
VERTEX
  5
252E
  8
0
 10
56.3644634524864614
 20
121.9158891213276945
 30
0.0
  0
VERTEX
  5
252F
  8
0
 10
56.4167347763180373
 20
121.9244099209850987
 30
0.0
  0
VERTEX
  5
2530
  8
0
 10
56.4690233795029073
 20
121.9325170692875986
 30
0.0
  0
VERTEX
  5
2531
  8
0
 10
56.5213334231909315
 20
121.9402098678850024
 30
0.0
  0
VERTEX
  5
2532
  8
0
 10
56.5736689477415595
 20
121.9474870960060002
 30
0.0
  0
VERTEX
  5
2533
  8
0
 10
56.6260314120104269
 20
121.9543363678241974
 30
0.0
  0
VERTEX
  5
2534
  8
0
 10
56.6784197981049331
 20
121.9607345855272058
 30
0.0
  0
VERTEX
  5
2535
  8
0
 10
56.7308329883044777
 20
121.9666582195445983
 30
0.0
  0
VERTEX
  5
2536
  8
0
 10
56.7832698648884389
 20
121.972083740306104
 30
0.0
  0
VERTEX
  5
2537
  8
0
 10
56.8357293101361805
 20
121.9769876182410968
 30
0.0
  0
VERTEX
  5
2538
  8
0
 10
56.8882102063271304
 20
121.9813463237794053
 30
0.0
  0
VERTEX
  5
2539
  8
0
 10
56.9407114357405817
 20
121.9851363273505029
 30
0.0
  0
VERTEX
  5
253A
  8
0
 10
56.9932317824175811
 20
121.9883415622982028
 30
0.0
  0
VERTEX
  5
253B
  8
0
 10
57.0457692133549017
 20
121.9910080305896969
 30
0.0
  0
VERTEX
  5
253C
  8
0
 10
57.0983212904382569
 20
121.9932125094103981
 30
0.0
  0
VERTEX
  5
253D
  8
0
 10
57.150885572643233
 20
121.9950319970054977
 30
0.0
  0
VERTEX
  5
253E
  8
0
 10
57.2034596189456011
 20
121.9965434916200024
 30
0.0
  0
VERTEX
  5
253F
  8
0
 10
57.2560409883209331
 20
121.9978239914991036
 30
0.0
  0
VERTEX
  5
2540
  8
0
 10
57.3086272397449079
 20
121.9989504948880068
 30
0.0
  0
VERTEX
  5
2541
  8
0
 10
57.3612159321932609
 20
122.0000000000317044
 30
0.0
  0
SEQEND
  5
2542
  8
0
  0
POLYLINE
  5
212D
  8
0
 66
     1
 10
0.0
 20
0.0
 30
0.0
  0
VERTEX
  5
2543
  8
0
 10
57.3612159321931969
 20
114.0000000000316049
 30
0.0
  0
VERTEX
  5
2544
  8
0
 10
57.3086507591890495
 20
114.0006421229791016
 30
0.0
  0
VERTEX
  5
2545
  8
0
 10
57.2560856512651526
 20
114.0014117923869037
 30
0.0
  0
VERTEX
  5
2546
  8
0
 10
57.2035206735017709
 20
114.0024365547153025
 30
0.0
  0
VERTEX
  5
2547
  8
0
 10
57.1509558909790982
 20
114.0038439564245039
 30
0.0
  0
VERTEX
  5
2548
  8
0
 10
57.0983914064286182
 20
114.0057605528329958
 30
0.0
  0
VERTEX
  5
2549
  8
0
 10
57.0458295943045712
 20
114.008253097565003
 30
0.0
  0
VERTEX
  5
254A
  8
0
 10
56.9932763575284298
 20
114.0112954595403068
 30
0.0
  0
VERTEX
  5
254B
  8
0
 10
56.9407379034002403
 20
114.0148534951042052
 30
0.0
  0
VERTEX
  5
254C
  8
0
 10
56.8882204392200492
 20
114.0188930606019966
 30
0.0
  0
VERTEX
  5
254D
  8
0
 10
56.8357298327426292
 20
114.0233821822506997
 30
0.0
  0
VERTEX
  5
254E
  8
0
 10
56.7832683220511925
 20
114.0283120817752973
 30
0.0
  0
VERTEX
  5
254F
  8
0
 10
56.7308359459674989
 20
114.0336880353353024
 30
0.0
  0
VERTEX
  5
2550
  8
0
 10
56.6784327125589016
 20
114.0395155156272011
 30
0.0
  0
VERTEX
  5
2551
  8
0
 10
56.6260586298447492
 20
114.0457999952151056
 30
0.0
  0
VERTEX
  5
2552
  8
0
 10
56.5737129144423534
 20
114.0525447587634034
 30
0.0
  0
VERTEX
  5
2553
  8
0
 10
56.5213919820360999
 20
114.0597453475173069
 30
0.0
  0
VERTEX
  5
2554
  8
0
 10
56.4690916289560505
 20
114.067395590463093
 30
0.0
  0
VERTEX
  5
2555
  8
0
 10
56.4168076515321104
 20
114.0754893165872943
 30
0.0
  0
VERTEX
  5
2556
  8
0
 10
56.3645358627256883
 20
114.0840203107464959
 30
0.0
  0
VERTEX
  5
2557
  8
0
 10
56.3122729387615735
 20
114.092980067198198
 30
0.0
  0
VERTEX
  5
2558
  8
0
 10
56.2600168217748475
 20
114.1023567212112937
 30
0.0
  0
VERTEX
  5
2559
  8
0
 10
56.2077655547794919
 20
114.1121381403809067
 30
0.0
  0
VERTEX
  5
255A
  8
0
 10
56.1555171807893885
 20
114.1223121923023029
 30
0.0
  0
VERTEX
  5
255B
  8
0
 10
56.1032699435101634
 20
114.132867366469597
 30
0.0
  0
VERTEX
  5
255C
  8
0
 10
56.05102508348903
 20
114.1438014389187998
 30
0.0
  0
VERTEX
  5
255D
  8
0
 10
55.9987861451303885
 20
114.1551193248249945
 30
0.0
  0
VERTEX
  5
255E
  8
0
 10
55.9465567319222075
 20
114.1668261224493932
 30
0.0
  0
VERTEX
  5
255F
  8
0
 10
55.8943404473524126
 20
114.1789269300535068
 30
0.0
  0
VERTEX
  5
2560
  8
0
 10
55.8421408949088232
 20
114.1914268458987038
 30
0.0
  0
VERTEX
  5
2561
  8
0
 10
55.7899616780794716
 20
114.2043309682461967
 30
0.0
  0
VERTEX
  5
2562
  8
0
 10
55.7378064003521629
 20
114.2176443953575955
 30
0.0
  0
VERTEX
  5
2563
  8
0
 10
55.685678665214823
 20
114.2313722254941979
 30
0.0
  0
VERTEX
  5
2564
  8
0
 10
55.6335820761554984
 20
114.2455195569173014
 30
0.0
  0
VERTEX
  5
2565
  8
0
 10
55.5815202366619516
 20
114.2600914878883032
 30
0.0
  0
VERTEX
  5
2566
  8
0
 10
55.5294967502221581
 20
114.2750931166686001
 30
0.0
  0
VERTEX
  5
2567
  8
0
 10
55.4775140763889496
 20
114.2905228821986015
 30
0.0
  0
VERTEX
  5
2568
  8
0
 10
55.4255699378567783
 20
114.3063516482021953
 30
0.0
  0
VERTEX
  5
2569
  8
0
 10
55.3736608314181922
 20
114.3225431419188993
 30
0.0
  0
VERTEX
  5
256A
  8
0
 10
55.3217832538637708
 20
114.3390610905772036
 30
0.0
  0
VERTEX
  5
256B
  8
0
 10
55.2699337019842503
 20
114.355869221405996
 30
0.0
  0
VERTEX
  5
256C
  8
0
 10
55.2181086725701604
 20
114.372931261633795
 30
0.0
  0
VERTEX
  5
256D
  8
0
 10
55.1663046624122373
 20
114.3902109384895027
 30
0.0
  0
VERTEX
  5
256E
  8
0
 10
55.1145181683011174
 20
114.407671979201595
 30
0.0
  0
VERTEX
  5
256F
  8
0
 10
55.062745687027423
 20
114.4252781109990025
 30
0.0
  0
VERTEX
  5
2570
  8
0
 10
55.0109837153817622
 20
114.4429930611102009
 30
0.0
  0
VERTEX
  5
2571
  8
0
 10
54.9592287501548
 20
114.4607805567640071
 30
0.0
  0
VERTEX
  5
2572
  8
0
 10
54.9074772881372226
 20
114.4786043251891954
 30
0.0
  0
SEQEND
  5
2573
  8
0
  0
POLYLINE
  5
212E
  8
0
 66
     1
 10
0.0
 20
0.0
 30
0.0
  0
VERTEX
  5
2574
  8
0
 10
42.6387840678577277
 20
122.0000000000316049
 30
0.0
  0
VERTEX
  5
2575
  8
0
 10
42.6913492408617614
 20
121.9993578770840941
 30
0.0
  0
VERTEX
  5
2576
  8
0
 10
42.7439143487855375
 20
121.9985882076763062
 30
0.0
  0
VERTEX
  5
2577
  8
0
 10
42.7964793265488126
 20
121.9975634453478932
 30
0.0
  0
VERTEX
  5
2578
  8
0
 10
42.8490441090713077
 20
121.9961560436385071
 30
0.0
  0
VERTEX
  5
2579
  8
0
 10
42.9016085936216172
 20
121.9942394472300009
 30
0.0
  0
VERTEX
  5
257A
  8
0
 10
42.9541704057455078
 20
121.9917469024978942
 30
0.0
  0
VERTEX
  5
257B
  8
0
 10
43.0067236425213579
 20
121.9887045405225052
 30
0.0
  0
VERTEX
  5
257C
  8
0
 10
43.0592620966492632
 20
121.9851465049584931
 30
0.0
  0
VERTEX
  5
257D
  8
0
 10
43.1117795608292269
 20
121.9811069394606022
 30
0.0
  0
VERTEX
  5
257E
  8
0
 10
43.1642701673064195
 20
121.9766178178117002
 30
0.0
  0
VERTEX
  5
257F
  8
0
 10
43.2167316779976431
 20
121.9716879182870031
 30
0.0
  0
VERTEX
  5
2580
  8
0
 10
43.269164054081152
 20
121.966311964726998
 30
0.0
  0
VERTEX
  5
2581
  8
0
 10
43.3215672874895787
 20
121.9604844844349998
 30
0.0
  0
VERTEX
  5
2582
  8
0
 10
43.3739413702035606
 20
121.9542000048470953
 30
0.0
  0
VERTEX
  5
2583
  8
0
 10
43.4262870856059067
 20
121.9474552412987975
 30
0.0
  0
VERTEX
  5
2584
  8
0
 10
43.4786080180121033
 20
121.940254652544894
 30
0.0
  0
VERTEX
  5
2585
  8
0
 10
43.5309083710922735
 20
121.9326044095989943
 30
0.0
  0
VERTEX
  5
2586
  8
0
 10
43.5831923485163699
 20
121.9245106834749066
 30
0.0
  0
VERTEX
  5
2587
  8
0
 10
43.6354641373231402
 20
121.915979689315904
 30
0.0
  0
VERTEX
  5
2588
  8
0
 10
43.68772706128766
 20
121.9070199328643014
 30
0.0
  0
VERTEX
  5
2589
  8
0
 10
43.7399831782748194
 20
121.8976432788514046
 30
0.0
  0
VERTEX
  5
258A
  8
0
 10
43.7922344452707009
 20
121.8878618596820047
 30
0.0
  0
VERTEX
  5
258B
  8
0
 10
43.844482819261323
 20
121.8776878077609069
 30
0.0
  0
VERTEX
  5
258C
  8
0
 10
43.8967300565409531
 20
121.8671326335936982
 30
0.0
  0
VERTEX
  5
258D
  8
0
 10
43.948974916562463
 20
121.8561985611446943
 30
0.0
  0
VERTEX
  5
258E
  8
0
 10
44.0012138549214384
 20
121.8448806752386986
 30
0.0
  0
VERTEX
  5
258F
  8
0
 10
44.0534432681299108
 20
121.8331738776142998
 30
0.0
  0
VERTEX
  5
2590
  8
0
 10
44.1056595527000397
 20
121.8210730700102999
 30
0.0
  0
VERTEX
  5
2591
  8
0
 10
44.1578591051438067
 20
121.8085731541653018
 30
0.0
  0
VERTEX
  5
2592
  8
0
 10
44.210038321973343
 20
121.7956690318176953
 30
0.0
  0
VERTEX
  5
2593
  8
0
 10
44.2621935997007583
 20
121.782355604706396
 30
0.0
  0
VERTEX
  5
2594
  8
0
 10
44.3143213348380911
 20
121.7686277745698931
 30
0.0
  0
VERTEX
  5
2595
  8
0
 10
44.3664179238975223
 20
121.7544804431468037
 30
0.0
  0
VERTEX
  5
2596
  8
0
 10
44.4184797633910691
 20
121.739908512175802
 30
0.0
  0
VERTEX
  5
2597
  8
0
 10
44.4705032498308128
 20
121.7249068833954055
 30
0.0
  0
VERTEX
  5
2598
  8
0
 10
44.5224859236640214
 20
121.7094771178655037
 30
0.0
  0
VERTEX
  5
2599
  8
0
 10
44.5744300621960789
 20
121.6936483518616967
 30
0.0
  0
VERTEX
  5
259A
  8
0
 10
44.6263391686345514
 20
121.6774568581450069
 30
0.0
  0
VERTEX
  5
259B
  8
0
 10
44.6782167461888093
 20
121.6609389094866032
 30
0.0
  0
VERTEX
  5
259C
  8
0
 10
44.730066298068202
 20
121.6441307786577966
 30
0.0
  0
VERTEX
  5
259D
  8
0
 10
44.7818913274820716
 20
121.6270687384298981
 30
0.0
  0
VERTEX
  5
259E
  8
0
 10
44.8336953376397602
 20
121.6097890615742045
 30
0.0
  0
VERTEX
  5
259F
  8
0
 10
44.8854818317506599
 20
121.5923280208619985
 30
0.0
  0
VERTEX
  5
25A0
  8
0
 10
44.9372543130241411
 20
121.5747218890645058
 30
0.0
  0
VERTEX
  5
25A1
  8
0
 10
44.9890162846695532
 20
121.5570069389531938
 30
0.0
  0
VERTEX
  5
25A2
  8
0
 10
45.0407712498962312
 20
121.5392194432993023
 30
0.0
  0
VERTEX
  5
25A3
  8
0
 10
45.0925227119136025
 20
121.5213956748740998
 30
0.0
  0
SEQEND
  5
25A4
  8
0
  0
POLYLINE
  5
212F
  8
0
 66
     1
 10
0.0
 20
0.0
 30
0.0
  0
VERTEX
  5
25A5
  8
0
 10
50.000000000025409
 20
114.0000000000316049
 30
0.0
  0
VERTEX
  5
25A6
  8
0
 10
49.8949475206333091
 20
114.0006466404654049
 30
0.0
  0
VERTEX
  5
25A7
  8
0
 10
49.7898971129726533
 20
114.0014195375396042
 30
0.0
  0
VERTEX
  5
25A8
  8
0
 10
49.6848508487749925
 20
114.0024449478950004
 30
0.0
  0
VERTEX
  5
25A9
  8
0
 10
49.5798107997717281
 20
114.0038491281721065
 30
0.0
  0
VERTEX
  5
25AA
  8
0
 10
49.4747790380071706
 20
114.005757689934498
 30
0.0
  0
VERTEX
  5
25AB
  8
0
 10
49.3697576619843517
 20
114.0082416841583068
 30
0.0
  0
VERTEX
  5
25AC
  8
0
 10
49.2647488163830687
 20
114.0112769407451054
 30
0.0
  0
VERTEX
  5
25AD
  8
0
 10
49.159754650527141
 20
114.0148297131676003
 30
0.0
  0
VERTEX
  5
25AE
  8
0
 10
49.0547773137402601
 20
114.0188662548987963
 30
0.0
  0
VERTEX
  5
25AF
  8
0
 10
48.9498189419107916
 20
114.0233542632623056
 30
0.0
  0
VERTEX
  5
25B0
  8
0
 10
48.8448814736603367
 20
114.0282826349865957
 30
0.0
  0
VERTEX
  5
25B1
  8
0
 10
48.7399666976580122
 20
114.0336563815136941
 30
0.0
  0
VERTEX
  5
25B2
  8
0
 10
48.6350763988241326
 20
114.0394809171631039
 30
0.0
  0
VERTEX
  5
25B3
  8
0
 10
48.5302123620791122
 20
114.0457616562542995
 30
0.0
  0
VERTEX
  5
25B4
  8
0
 10
48.42537638827298
 20
114.0525025384109057
 30
0.0
  0
VERTEX
  5
25B5
  8
0
 10
48.3205703607642931
 20
114.0596998650606935
 30
0.0
  0
VERTEX
  5
25B6
  8
0
 10
48.2157961895442213
 20
114.0673474721371008
 30
0.0
  0
VERTEX
  5
25B7
  8
0
 10
48.1110557846168874
 20
114.075439194355198
 30
0.0
  0
VERTEX
  5
25B8
  8
0
 10
48.0063510533848898
 20
114.0839688601473938
 30
0.0
  0
VERTEX
  5
25B9
  8
0
 10
47.9016832387171121
 20
114.0929286932149012
 30
0.0
  0
VERTEX
  5
25BA
  8
0
 10
47.7970520410951281
 20
114.1023071926642984
 30
0.0
  0
VERTEX
  5
25BB
  8
0
 10
47.6924569427234175
 20
114.1120923305018948
 30
0.0
  0
VERTEX
  5
25BC
  8
0
 10
47.5878974258066592
 20
114.122272078734099
 30
0.0
  0
VERTEX
  5
25BD
  8
0
 10
47.4833730053719592
 20
114.1328345786413934
 30
0.0
  0
VERTEX
  5
25BE
  8
0
 10
47.3788845521909181
 20
114.1437749634115022
 30
0.0
  0
VERTEX
  5
25BF
  8
0
 10
47.2744347457827416
 20
114.1550976943880045
 30
0.0
  0
VERTEX
  5
25C0
  8
0
 10
47.1700263914568225
 20
114.1668078816454965
 30
0.0
  0
VERTEX
  5
25C1
  8
0
 10
47.0656622945225465
 20
114.1789106352585037
 30
0.0
  0
VERTEX
  5
25C2
  8
0
 10
46.9613452602892494
 20
114.1914110653014944
 30
0.0
  0
VERTEX
  5
25C3
  8
0
 10
46.8570780940664235
 20
114.204314281849193
 30
0.0
  0
VERTEX
  5
25C4
  8
0
 10
46.7528636011633125
 20
114.2176253949759968
 30
0.0
  0
VERTEX
  5
25C5
  8
0
 10
46.648704586889437
 20
114.2313495147565021
 30
0.0
  0
VERTEX
  5
25C6
  8
0
 10
46.5446038565540903
 20
114.2454917512652059
 30
0.0
  0
VERTEX
  5
25C7
  8
0
 10
46.4405642154666722
 20
114.2600572145767046
 30
0.0
  0
VERTEX
  5
25C8
  8
0
 10
46.3365884689366112
 20
114.275051014765495
 30
0.0
  0
VERTEX
  5
25C9
  8
0
 10
46.2326784553894683
 20
114.2904734954061041
 30
0.0
  0
VERTEX
  5
25CA
  8
0
 10
46.1288304923902999
 20
114.3062977835836023
 30
0.0
  0
VERTEX
  5
25CB
  8
0
 10
46.025038941066839
 20
114.322487361626898
 30
0.0
  0
VERTEX
  5
25CC
  8
0
 10
45.9212981602515171
 20
114.3390057005492935
 30
0.0
  0
VERTEX
  5
25CD
  8
0
 10
45.8176025087767584
 20
114.3558162713642048
 30
0.0
  0
VERTEX
  5
25CE
  8
0
 10
45.713946345475037
 20
114.3728825450852042
 30
0.0
  0
VERTEX
  5
25CF
  8
0
 10
45.6103240291787415
 20
114.3901679927255941
 30
0.0
  0
VERTEX
  5
25D0
  8
0
 10
45.5067299187202821
 20
114.407636085298904
 30
0.0
  0
VERTEX
  5
25D1
  8
0
 10
45.4031583729321326
 20
114.4252502938184932
 30
0.0
  0
VERTEX
  5
25D2
  8
0
 10
45.2996037506466678
 20
114.4429740892977065
 30
0.0
  0
VERTEX
  5
25D3
  8
0
 10
45.1960604106963615
 20
114.4607709427502016
 30
0.0
  0
VERTEX
  5
25D4
  8
0
 10
45.0925227119136025
 20
114.4786043251891954
 30
0.0
  0
SEQEND
  5
25D5
  8
0
  0
POLYLINE
  5
2130
  8
0
 66
     1
 10
0.0
 20
0.0
 30
0.0
  0
VERTEX
  5
25D6
  8
0
 10
54.9074772881372226
 20
114.4786043251891954
 30
0.0
  0
VERTEX
  5
25D7
  8
0
 10
54.8040295040077012
 20
114.4603022743872032
 30
0.0
  0
VERTEX
  5
25D8
  8
0
 10
54.7005706166648906
 20
114.4420663025940001
 30
0.0
  0
VERTEX
  5
25D9
  8
0
 10
54.5970895228954305
 20
114.4239624888186029
 30
0.0
  0
VERTEX
  5
25DA
  8
0
 10
54.4935751194860174
 20
114.4060569120697011
 30
0.0
  0
VERTEX
  5
25DB
  8
0
 10
54.3900163032233692
 20
114.3884156513562971
 30
0.0
  0
VERTEX
  5
25DC
  8
0
 10
54.2864019708941328
 20
114.3711047856870948
 30
0.0
  0
VERTEX
  5
25DD
  8
0
 10
54.182723318781818
 20
114.3541780861201005
 30
0.0
  0
VERTEX
  5
25DE
  8
0
 10
54.0789811415527879
 20
114.3376379488104959
 30
0.0
  0
VERTEX
  5
25DF
  8
0
 10
53.9751787378873473
 20
114.3214733672944021
 30
0.0
  0
VERTEX
  5
25E0
  8
0
 10
53.8713194064724803
 20
114.305673335071404
 30
0.0
  0
VERTEX
  5
25E1
  8
0
 10
53.7674064459953911
 20
114.2902268456410013
 30
0.0
  0
VERTEX
  5
25E2
  8
0
 10
53.6634431546447672
 20
114.2751228954178941
 30
0.0
  0
VERTEX
  5
25E3
  8
0
 10
53.5594320741652226
 20
114.2603549060502957
 30
0.0
  0
VERTEX
  5
25E4
  8
0
 10
53.4553734668820084
 20
114.2459296338946046
 30
0.0
  0
VERTEX
  5
25E5
  8
0
 10
53.3512671674924874
 20
114.2318563369498037
 30
0.0
  0
VERTEX
  5
25E6
  8
0
 10
53.2471130106939583
 20
114.2181442732152021
 30
0.0
  0
VERTEX
  5
25E7
  8
0
 10
53.1429108311838831
 20
114.2048027006896973
 30
0.0
  0
VERTEX
  5
25E8
  8
0
 10
53.0386604697921982
 20
114.1918408540157941
 30
0.0
  0
VERTEX
  5
25E9
  8
0
 10
52.934362250912379
 20
114.1792661261440998
 30
0.0
  0
VERTEX
  5
25EA
  8
0
 10
52.8300173237879633
 20
114.1670827685147032
 30
0.0
  0
VERTEX
  5
25EB
  8
0
 10
52.725626918215589
 20
114.1552947257743966
 30
0.0
  0
VERTEX
  5
25EC
  8
0
 10
52.6211922639919933
 20
114.1439059425701004
 30
0.0
  0
VERTEX
  5
25ED
  8
0
 10
52.5167145909136934
 20
114.1329203635486067
 30
0.0
  0
VERTEX
  5
25EE
  8
0
 10
52.4121951289643491
 20
114.1223418408910959
 30
0.0
  0
VERTEX
  5
25EF
  8
0
 10
52.3076351114429983
 20
114.1121725869961949
 30
0.0
  0
VERTEX
  5
25F0
  8
0
 10
52.2030357744947722
 20
114.1024134065616948
 30
0.0
  0
VERTEX
  5
25F1
  8
0
 10
52.0983983543571298
 20
114.0930650585748936
 30
0.0
  0
VERTEX
  5
25F2
  8
0
 10
51.9937240872677719
 20
114.0841283020232027
 30
0.0
  0
VERTEX
  5
25F3
  8
0
 10
51.8890142094641575
 20
114.0756038958939058
 30
0.0
  0
VERTEX
  5
25F4
  8
0
 10
51.7842699571838807
 20
114.0674925991744004
 30
0.0
  0
VERTEX
  5
25F5
  8
0
 10
51.6794925666644573
 20
114.0597951708520981
 30
0.0
  0
VERTEX
  5
25F6
  8
0
 10
51.5746833008382168
 20
114.0525132702027946
 30
0.0
  0
VERTEX
  5
25F7
  8
0
 10
51.469843792359022
 20
114.0456610255135956
 30
0.0
  0
VERTEX
  5
25F8
  8
0
 10
51.3649759440248772
 20
114.0392616757837061
 30
0.0
  0
VERTEX
  5
25F9
  8
0
 10
51.2600816647960684
 20
114.033338667839601
 30
0.0
  0
VERTEX
  5
25FA
  8
0
 10
51.1551628636328175
 20
114.0279154485076987
 30
0.0
  0
VERTEX
  5
25FB
  8
0
 10
51.0502214494955027
 20
114.0230154646146019
 30
0.0
  0
VERTEX
  5
25FC
  8
0
 10
50.9452593313444027
 20
114.0186621629866011
 30
0.0
  0
VERTEX
  5
25FD
  8
0
 10
50.8402784181396896
 20
114.0148789904501996
 30
0.0
  0
VERTEX
  5
25FE
  8
0
 10
50.7352806374968281
 20
114.0116803673485038
 30
0.0
  0
VERTEX
  5
25FF
  8
0
 10
50.6302680483465224
 20
114.0090171756884985
 30
0.0
  0
VERTEX
  5
2600
  8
0
 10
50.5252427660037711
 20
114.0068130153012049
 30
0.0
  0
VERTEX
  5
2601
  8
0
 10
50.4202069060005371
 20
114.0049913809745021
 30
0.0
  0
VERTEX
  5
2602
  8
0
 10
50.3151625838690393
 20
114.0034757674962975
 30
0.0
  0
VERTEX
  5
2603
  8
0
 10
50.2101119151412831
 20
114.0021896696544985
 30
0.0
  0
VERTEX
  5
2604
  8
0
 10
50.1050570153493595
 20
114.0010565822369983
 30
0.0
  0
VERTEX
  5
2605
  8
0
 10
50.000000000025409
 20
114.0000000000316049
 30
0.0
  0
SEQEND
  5
2606
  8
0
  0
POLYLINE
  5
2131
  8
0
 66
     1
 10
0.0
 20
0.0
 30
0.0
  0
VERTEX
  5
2607
  8
0
 10
50.000000000025409
 20
122.0000000000316049
 30
0.0
  0
VERTEX
  5
2608
  8
0
 10
50.1050524794175729
 20
121.9993533595979045
 30
0.0
  0
VERTEX
  5
2609
  8
0
 10
50.2101028870782216
 20
121.9985804625235062
 30
0.0
  0
VERTEX
  5
260A
  8
0
 10
50.3151491512758682
 20
121.9975550521679963
 30
0.0
  0
VERTEX
  5
260B
  8
0
 10
50.4201892002791325
 20
121.996150871890805
 30
0.0
  0
VERTEX
  5
260C
  8
0
 10
50.5252209620437611
 20
121.9942423101282003
 30
0.0
  0
VERTEX
  5
260D
  8
0
 10
50.63024233806658
 20
121.9917583159043062
 30
0.0
  0
VERTEX
  5
260E
  8
0
 10
50.7352511836678488
 20
121.9887230593172944
 30
0.0
  0
VERTEX
  5
260F
  8
0
 10
50.8402453495237978
 20
121.9851702868946006
 30
0.0
  0
VERTEX
  5
2610
  8
0
 10
50.9452226863106716
 20
121.9811337451632056
 30
0.0
  0
VERTEX
  5
2611
  8
0
 10
51.0501810581400335
 20
121.9766457367994974
 30
0.0
  0
VERTEX
  5
2612
  8
0
 10
51.1551185263904813
 20
121.9717173650750937
 30
0.0
  0
VERTEX
  5
2613
  8
0
 10
51.2600333023927419
 20
121.9663436185478957
 30
0.0
  0
VERTEX
  5
2614
  8
0
 10
51.3649236012266215
 20
121.9605190828983012
 30
0.0
  0
VERTEX
  5
2615
  8
0
 10
51.4697876379716419
 20
121.9542383438071056
 30
0.0
  0
VERTEX
  5
2616
  8
0
 10
51.5746236117777812
 20
121.9474974616504994
 30
0.0
  0
VERTEX
  5
2617
  8
0
 10
51.679429639286468
 20
121.9403001350005979
 30
0.0
  0
VERTEX
  5
2618
  8
0
 10
51.7842038105065967
 20
121.9326525279243043
 30
0.0
  0
VERTEX
  5
2619
  8
0
 10
51.8889442154338667
 20
121.9245608057063066
 30
0.0
  0
VERTEX
  5
261A
  8
0
 10
51.9936489466659779
 20
121.9160311399142955
 30
0.0
  0
VERTEX
  5
261B
  8
0
 10
52.0983167613337628
 20
121.9070713068471008
 30
0.0
  0
VERTEX
  5
261C
  8
0
 10
52.2029479589557965
 20
121.8976928073981014
 30
0.0
  0
VERTEX
  5
261D
  8
0
 10
52.3075430573275568
 20
121.8879076695608035
 30
0.0
  0
VERTEX
  5
261E
  8
0
 10
52.4121025742443294
 20
121.8777279213289972
 30
0.0
  0
VERTEX
  5
261F
  8
0
 10
52.5166269946790791
 20
121.8671654214220013
 30
0.0
  0
VERTEX
  5
2620
  8
0
 10
52.621115447860177
 20
121.8562250366522051
 30
0.0
  0
VERTEX
  5
2621
  8
0
 10
52.7255652542683606
 20
121.8449023056760012
 30
0.0
  0
VERTEX
  5
2622
  8
0
 10
52.8299736085942868
 20
121.8331921184186939
 30
0.0
  0
VERTEX
  5
2623
  8
0
 10
52.9343377055285984
 20
121.8210893648058999
 30
0.0
  0
VERTEX
  5
2624
  8
0
 10
53.0386547397618529
 20
121.8085889347629944
 30
0.0
  0
VERTEX
  5
2625
  8
0
 10
53.1429219059847284
 20
121.7956857182153954
 30
0.0
  0
VERTEX
  5
2626
  8
0
 10
53.2471363988877897
 20
121.7823746050887053
 30
0.0
  0
VERTEX
  5
2627
  8
0
 10
53.3512954131617221
 20
121.7686504853081999
 30
0.0
  0
VERTEX
  5
2628
  8
0
 10
53.4553961434970688
 20
121.7545082487994961
 30
0.0
  0
VERTEX
  5
2629
  8
0
 10
53.5594357845844797
 20
121.7399427854879974
 30
0.0
  0
VERTEX
  5
262A
  8
0
 10
53.6634115311145479
 20
121.7249489852990934
 30
0.0
  0
VERTEX
  5
262B
  8
0
 10
53.7673215446616268
 20
121.7095265046583989
 30
0.0
  0
VERTEX
  5
262C
  8
0
 10
53.8711695076607882
 20
121.6937022164808013
 30
0.0
  0
VERTEX
  5
262D
  8
0
 10
53.9749610589842632
 20
121.6775126384375056
 30
0.0
  0
VERTEX
  5
262E
  8
0
 10
54.0787018397995212
 20
121.6609942995149964
 30
0.0
  0
VERTEX
  5
262F
  8
0
 10
54.1823974912742869
 20
121.6441837286999004
 30
0.0
  0
VERTEX
  5
2630
  8
0
 10
54.2860536545759871
 20
121.6271174549788014
 30
0.0
  0
VERTEX
  5
2631
  8
0
 10
54.389675970872311
 20
121.6098320073382979
 30
0.0
  0
VERTEX
  5
2632
  8
0
 10
54.4932700813307065
 20
121.5923639147649027
 30
0.0
  0
VERTEX
  5
2633
  8
0
 10
54.596841627118863
 20
121.5747497062451998
 30
0.0
  0
VERTEX
  5
2634
  8
0
 10
54.7003962494043208
 20
121.5570259107658018
 30
0.0
  0
VERTEX
  5
2635
  8
0
 10
54.8039395893545702
 20
121.539229057313193
 30
0.0
  0
VERTEX
  5
2636
  8
0
 10
54.9074772881373292
 20
121.5213956748740998
 30
0.0
  0
SEQEND
  5
2637
  8
0
  0
POLYLINE
  5
2132
  8
0
 66
     1
 10
0.0
 20
0.0
 30
0.0
  0
VERTEX
  5
2638
  8
0
 10
45.0925227119136025
 20
121.5213956748740998
 30
0.0
  0
VERTEX
  5
2639
  8
0
 10
45.1959704960431097
 20
121.5396977256760067
 30
0.0
  0
VERTEX
  5
263A
  8
0
 10
45.2994293833859203
 20
121.5579336974691955
 30
0.0
  0
VERTEX
  5
263B
  8
0
 10
45.4029104771553804
 20
121.576037511244607
 30
0.0
  0
VERTEX
  5
263C
  8
0
 10
45.5064248805647935
 20
121.5939430879934946
 30
0.0
  0
VERTEX
  5
263D
  8
0
 10
45.6099836968274914
 20
121.6115843487069981
 30
0.0
  0
VERTEX
  5
263E
  8
0
 10
45.7135980291567421
 20
121.6288952143761009
 30
0.0
  0
VERTEX
  5
263F
  8
0
 10
45.8172766812691066
 20
121.6458219139430952
 30
0.0
  0
VERTEX
  5
2640
  8
0
 10
45.9210188584981367
 20
121.6623620512527992
 30
0.0
  0
VERTEX
  5
2641
  8
0
 10
46.0248212621636412
 20
121.678526632768893
 30
0.0
  0
VERTEX
  5
2642
  8
0
 10
46.1286805935784514
 20
121.6943266649919053
 30
0.0
  0
VERTEX
  5
2643
  8
0
 10
46.2325935540555975
 20
121.7097731544222938
 30
0.0
  0
VERTEX
  5
2644
  8
0
 10
46.3365568454061574
 20
121.7248771046455005
 30
0.0
  0
VERTEX
  5
2645
  8
0
 10
46.4405679258856594
 20
121.739645094013099
 30
0.0
  0
VERTEX
  5
2646
  8
0
 10
46.5446265331688593
 20
121.7540703661688042
 30
0.0
  0
VERTEX
  5
2647
  8
0
 10
46.6487328325583803
 20
121.7681436631135057
 30
0.0
  0
VERTEX
  5
2648
  8
0
 10
46.7528869893569023
 20
121.7818557268482067
 30
0.0
  0
VERTEX
  5
2649
  8
0
 10
46.8570891688669775
 20
121.7951972993735978
 30
0.0
  0
VERTEX
  5
264A
  8
0
 10
46.9613395302586625
 20
121.8081591460475011
 30
0.0
  0
VERTEX
  5
264B
  8
0
 10
47.0656377491384816
 20
121.8207338739191954
 30
0.0
  0
VERTEX
  5
264C
  8
0
 10
47.1699826762629186
 20
121.8329172315486062
 30
0.0
  0
VERTEX
  5
264D
  8
0
 10
47.2743730818352716
 20
121.844705274288799
 30
0.0
  0
VERTEX
  5
264E
  8
0
 10
47.3788077360589384
 20
121.8560940574930953
 30
0.0
  0
VERTEX
  5
264F
  8
0
 10
47.4832854091372383
 20
121.8670796365146032
 30
0.0
  0
VERTEX
  5
2650
  8
0
 10
47.5878048710865116
 20
121.8776581591720998
 30
0.0
  0
VERTEX
  5
2651
  8
0
 10
47.6923648886078624
 20
121.8878274130669013
 30
0.0
  0
VERTEX
  5
2652
  8
0
 10
47.7969642255561098
 20
121.8975865935014014
 30
0.0
  0
VERTEX
  5
2653
  8
0
 10
47.9016016456937379
 20
121.9069349414882026
 30
0.0
  0
VERTEX
  5
2654
  8
0
 10
48.00627591278311
 20
121.9158716980398935
 30
0.0
  0
VERTEX
  5
2655
  8
0
 10
48.1109857905867599
 20
121.9243961041692046
 30
0.0
  0
VERTEX
  5
2656
  8
0
 10
48.215730042867051
 20
121.9325074008886958
 30
0.0
  0
VERTEX
  5
2657
  8
0
 10
48.3205074333864104
 20
121.9402048292108987
 30
0.0
  0
VERTEX
  5
2658
  8
0
 10
48.4253166992127078
 20
121.9474867298603016
 30
0.0
  0
VERTEX
  5
2659
  8
0
 10
48.5301562076919026
 20
121.9543389745495006
 30
0.0
  0
VERTEX
  5
265A
  8
0
 10
48.6350240560260616
 20
121.9607383242794043
 30
0.0
  0
VERTEX
  5
265B
  8
0
 10
48.7399183352548633
 20
121.9666613322234952
 30
0.0
  0
VERTEX
  5
265C
  8
0
 10
48.8448371364181
 20
121.9720845515553975
 30
0.0
  0
VERTEX
  5
265D
  8
0
 10
48.949778550555429
 20
121.9769845354485938
 30
0.0
  0
VERTEX
  5
265E
  8
0
 10
49.0547406687065219
 20
121.9813378370765946
 30
0.0
  0
VERTEX
  5
265F
  8
0
 10
49.1597215819112421
 20
121.9851210096129961
 30
0.0
  0
VERTEX
  5
2660
  8
0
 10
49.2647193625540964
 20
121.9883196327146067
 30
0.0
  0
VERTEX
  5
2661
  8
0
 10
49.3697319517044093
 20
121.9909828243746972
 30
0.0
  0
VERTEX
  5
2662
  8
0
 10
49.4747572340471606
 20
121.993186984762005
 30
0.0
  0
VERTEX
  5
2663
  8
0
 10
49.5797930940503306
 20
121.9950086190886935
 30
0.0
  0
VERTEX
  5
2664
  8
0
 10
49.6848374161818285
 20
121.9965242325668981
 30
0.0
  0
VERTEX
  5
2665
  8
0
 10
49.7898880849095917
 20
121.9978103304086972
 30
0.0
  0
VERTEX
  5
2666
  8
0
 10
49.8949429847014585
 20
121.9989434178261973
 30
0.0
  0
VERTEX
  5
2667
  8
0
 10
50.000000000025473
 20
122.0000000000316049
 30
0.0
  0
SEQEND
  5
2668
  8
0
  0
POLYLINE
  5
2133
  8
0
 66
     1
 10
0.0
 20
0.0
 30
0.0
  0
VERTEX
  5
2669
  8
0
 10
42.6387840677805912
 20
180.25
 30
0.0
  0
VERTEX
  5
266A
  8
0
 10
42.5862969690953719
 20
180.1589995258773058
 30
0.0
  0
VERTEX
  5
266B
  8
0
 10
42.5338118813220873
 20
180.0680002879034873
 30
0.0
  0
VERTEX
  5
266C
  8
0
 10
42.4813308153726368
 20
179.9770035222271076
 30
0.0
  0
VERTEX
  5
266D
  8
0
 10
42.428855782158962
 20
179.886010464997014
 30
0.0
  0
VERTEX
  5
266E
  8
0
 10
42.3763887554027576
 20
179.795022374365999
 30
0.0
  0
VERTEX
  5
266F
  8
0
 10
42.323929464913391
 20
179.7040418361229968
 30
0.0
  0
VERTEX
  5
2670
  8
0
 10
42.2714741552286384
 20
179.613073498157604
 30
0.0
  0
VERTEX
  5
2671
  8
0
 10
42.2190187702341007
 20
179.5221221862435925
 30
0.0
  0
VERTEX
  5
2672
  8
0
 10
42.1665592538152794
 20
179.4311927261549044
 30
0.0
  0
VERTEX
  5
2673
  8
0
 10
42.1140918692512969
 20
179.3402897359941903
 30
0.0
  0
VERTEX
  5
2674
  8
0
 10
42.0616162940762806
 20
179.2494156139019026
 30
0.0
  0
VERTEX
  5
2675
  8
0
 10
42.0091342745622782
 20
179.1585714129159044
 30
0.0
  0
VERTEX
  5
2676
  8
0
 10
41.9566475859105594
 20
179.067758167264401
 30
0.0
  0
VERTEX
  5
2677
  8
0
 10
41.9041580033717693
 20
178.9769769111491087
 30
0.0
  0
VERTEX
  5
2678
  8
0
 10
41.8516681198289007
 20
178.8862282369991021
 30
0.0
  0
VERTEX
  5
2679
  8
0
 10
41.79918342193087
 20
178.7955111737213088
 30
0.0
  0
VERTEX
  5
267A
  8
0
 10
41.746710036208782
 20
178.7048244044902958
 30
0.0
  0
VERTEX
  5
267B
  8
0
 10
41.6942540891937199
 20
178.6141666124802043
 30
0.0
  0
VERTEX
  5
267C
  8
0
 10
41.6418216725354213
 20
178.5235364799310105
 30
0.0
  0
VERTEX
  5
267D
  8
0
 10
41.5894170673376209
 20
178.4329326405739096
 30
0.0
  0
VERTEX
  5
267E
  8
0
 10
41.5370418996759483
 20
178.3423536570066119
 30
0.0
  0
VERTEX
  5
267F
  8
0
 10
41.4846975840502807
 20
178.2517980861580895
 30
0.0
  0
VERTEX
  5
2680
  8
0
 10
41.4323855349605026
 20
178.1612644849575133
 30
0.0
  0
VERTEX
  5
2681
  8
0
 10
41.3801070872263423
 20
178.0707515960694138
 30
0.0
  0
VERTEX
  5
2682
  8
0
 10
41.3278623858391967
 20
177.9802609356650862
 30
0.0
  0
VERTEX
  5
2683
  8
0
 10
41.2756506610958525
 20
177.889796152081999
 30
0.0
  0
VERTEX
  5
2684
  8
0
 10
41.2234711198354091
 20
177.7993609483378066
 30
0.0
  0
VERTEX
  5
2685
  8
0
 10
41.1713229688968525
 20
177.7089590274501916
 30
0.0
  0
VERTEX
  5
2686
  8
0
 10
41.1192054151192323
 20
177.6185940924370925
 30
0.0
  0
VERTEX
  5
2687
  8
0
 10
41.0671176653416694
 20
177.5282698463161921
 30
0.0
  0
VERTEX
  5
2688
  8
0
 10
41.0150589264031495
 20
177.4379899921050878
 30
0.0
  0
VERTEX
  5
2689
  8
0
 10
40.9630284051427225
 20
177.3477582328216897
 30
0.0
  0
VERTEX
  5
268A
  8
0
 10
40.9110253083994735
 20
177.2575782714835952
 30
0.0
  0
VERTEX
  5
268B
  8
0
 10
40.859048843012431
 20
177.1674538111086861
 30
0.0
  0
VERTEX
  5
268C
  8
0
 10
40.8070982158206093
 20
177.0773885547147017
 30
0.0
  0
VERTEX
  5
268D
  8
0
 10
40.7551724251850729
 20
176.9873847640517965
 30
0.0
  0
VERTEX
  5
268E
  8
0
 10
40.7032696061912134
 20
176.8974387328053979
 30
0.0
  0
VERTEX
  5
268F
  8
0
 10
40.6513876705083135
 20
176.8075452101215888
 30
0.0
  0
VERTEX
  5
2690
  8
0
 10
40.5995245298052723
 20
176.7176989451440932
 30
0.0
  0
VERTEX
  5
2691
  8
0
 10
40.5476780957510172
 20
176.6278946870166067
 30
0.0
  0
VERTEX
  5
2692
  8
0
 10
40.4958462800144616
 20
176.5381271848829101
 30
0.0
  0
VERTEX
  5
2693
  8
0
 10
40.4440269942644406
 20
176.4483911878866991
 30
0.0
  0
VERTEX
  5
2694
  8
0
 10
40.3922181501699171
 20
176.3586814451718965
 30
0.0
  0
VERTEX
  5
2695
  8
0
 10
40.340417659399769
 20
176.268992705881999
 30
0.0
  0
VERTEX
  5
2696
  8
0
 10
40.2886234336229094
 20
176.1793197191609011
 30
0.0
  0
VERTEX
  5
2697
  8
0
 10
40.2368333845082518
 20
176.0896572341522983
 30
0.0
  0
VERTEX
  5
2698
  8
0
 10
40.1850454237246808
 20
176.0
 30
0.0
  0
SEQEND
  5
2699
  8
0
  0
POLYLINE
  5
2134
  8
0
 66
     1
 10
0.0
 20
0.0
 30
0.0
  0
VERTEX
  5
269A
  8
0
 10
40.1850454237246808
 20
176.0
 30
0.0
  0
VERTEX
  5
269B
  8
0
 10
40.236777476794849
 20
175.9104155756292016
 30
0.0
  0
VERTEX
  5
269C
  8
0
 10
40.2885147740440388
 20
175.8208214543350039
 30
0.0
  0
VERTEX
  5
269D
  8
0
 10
40.3402625596511868
 20
175.7312079391940074
 30
0.0
  0
VERTEX
  5
269E
  8
0
 10
40.3920260777953075
 20
175.6415653332826139
 30
0.0
  0
VERTEX
  5
269F
  8
0
 10
40.4438105726553871
 20
175.5518839396775945
 30
0.0
  0
VERTEX
  5
26A0
  8
0
 10
40.4956212884104332
 20
175.4621540614554078
 30
0.0
  0
VERTEX
  5
26A1
  8
0
 10
40.5474624180283101
 20
175.3723677019459899
 30
0.0
  0
VERTEX
  5
26A2
  8
0
 10
40.5993331643643671
 20
175.2825249356041866
 30
0.0
  0
VERTEX
  5
26A3
  8
0
 10
40.6512312510934422
 20
175.1926282293457007
 30
0.0
  0
VERTEX
  5
26A4
  8
0
 10
40.7031544016586793
 20
175.1026800504610037
 30
0.0
  0
VERTEX
  5
26A5
  8
0
 10
40.755100339503251
 20
175.0126828662407945
 30
0.0
  0
VERTEX
  5
26A6
  8
0
 10
40.8070667880710403
 20
174.9226391439748909
 30
0.0
  0
VERTEX
  5
26A7
  8
0
 10
40.8590519074511107
 20
174.8325509186493036
 30
0.0
  0
VERTEX
  5
26A8
  8
0
 10
40.9110555422766069
 20
174.7424185574550961
 30
0.0
  0
VERTEX
  5
26A9
  8
0
 10
40.9630779433544703
 20
174.652242025447805
 30
0.0
  0
VERTEX
  5
26AA
  8
0
 10
41.0151193614916778
 20
174.5620212876833079
 30
0.0
  0
VERTEX
  5
26AB
  8
0
 10
41.0671800474951567
 20
174.4717563092171133
 30
0.0
  0
VERTEX
  5
26AC
  8
0
 10
41.1192602561011427
 20
174.3814470588303038
 30
0.0
  0
VERTEX
  5
26AD
  8
0
 10
41.1713614026087384
 20
174.2910946056994135
 30
0.0
  0
VERTEX
  5
26AE
  8
0
 10
41.2234876747467922
 20
174.2007026476975113
 30
0.0
  0
VERTEX
  5
26AF
  8
0
 10
41.2756436654887295
 20
174.110275266932689
 30
0.0
  0
VERTEX
  5
26B0
  8
0
 10
41.3278339678078908
 20
174.0198165455136063
 30
0.0
  0
VERTEX
  5
26B1
  8
0
 10
41.3800631746776375
 20
173.9293305655482982
 30
0.0
  0
VERTEX
  5
26B2
  8
0
 10
41.432335773557071
 20
173.8388213483148093
 30
0.0
  0
VERTEX
  5
26B3
  8
0
 10
41.4846521147486769
 20
173.7482905299692959
 30
0.0
  0
VERTEX
  5
26B4
  8
0
 10
41.5370071537381023
 20
173.6577366364890054
 30
0.0
  0
VERTEX
  5
26B5
  8
0
 10
41.5893954833961175
 20
173.5671579847995076
 30
0.0
  0
VERTEX
  5
26B6
  8
0
 10
41.641811696593642
 20
173.476552891826401
 30
0.0
  0
VERTEX
  5
26B7
  8
0
 10
41.694250386201503
 20
173.3859196744949998
 30
0.0
  0
VERTEX
  5
26B8
  8
0
 10
41.7467061450905987
 20
173.2952566497311011
 30
0.0
  0
VERTEX
  5
26B9
  8
0
 10
41.7991735661317634
 20
173.2045621344599908
 30
0.0
  0
VERTEX
  5
26BA
  8
0
 10
41.851647347693131
 20
173.113834524175104
 30
0.0
  0
VERTEX
  5
26BB
  8
0
 10
41.9041244428046795
 20
173.0230738935040904
 30
0.0
  0
VERTEX
  5
26BC
  8
0
 10
41.9566039676657567
 20
172.9322819280704948
 30
0.0
  0
VERTEX
  5
26BD
  8
0
 10
42.0090851256645621
 20
172.8414603784310088
 30
0.0
  0
VERTEX
  5
26BE
  8
0
 10
42.0615671201893804
 20
172.7506109951422104
 30
0.0
  0
VERTEX
  5
26BF
  8
0
 10
42.1140491546283826
 20
172.6597355287607911
 30
0.0
  0
VERTEX
  5
26C0
  8
0
 10
42.1665304323698535
 20
172.5688357298431868
 30
0.0
  0
VERTEX
  5
26C1
  8
0
 10
42.2190101568019713
 20
172.4779133489462026
 30
0.0
  0
VERTEX
  5
26C2
  8
0
 10
42.2714876147213587
 20
172.3869702019063936
 30
0.0
  0
VERTEX
  5
26C3
  8
0
 10
42.3239627866278667
 20
172.2960086474921013
 30
0.0
  0
VERTEX
  5
26C4
  8
0
 10
42.376435996977051
 20
172.2050313136709008
 30
0.0
  0
VERTEX
  5
26C5
  8
0
 10
42.4289075726950884
 20
172.1140408303436971
 30
0.0
  0
VERTEX
  5
26C6
  8
0
 10
42.4813778407082268
 20
172.0230398274117931
 30
0.0
  0
VERTEX
  5
26C7
  8
0
 10
42.533847127942721
 20
171.9320309347764919
 30
0.0
  0
VERTEX
  5
26C8
  8
0
 10
42.5863157613247481
 20
171.8410167823388122
 30
0.0
  0
VERTEX
  5
26C9
  8
0
 10
42.6387840677805627
 20
171.75
 30
0.0
  0
SEQEND
  5
26CA
  8
0
  0
POLYLINE
  5
2135
  8
0
 66
     1
 10
0.0
 20
0.0
 30
0.0
  0
VERTEX
  5
26CB
  8
0
 10
57.361215932116103
 20
171.75
 30
0.0
  0
VERTEX
  5
26CC
  8
0
 10
57.4137030308012584
 20
171.8410004741226089
 30
0.0
  0
VERTEX
  5
26CD
  8
0
 10
57.4661881185745287
 20
171.9319997120965979
 30
0.0
  0
VERTEX
  5
26CE
  8
0
 10
57.5186691845239579
 20
172.0229964777728924
 30
0.0
  0
VERTEX
  5
26CF
  8
0
 10
57.5711442177376327
 20
172.113989535002986
 30
0.0
  0
VERTEX
  5
26D0
  8
0
 10
57.6236112444938371
 20
172.2049776256340863
 30
0.0
  0
VERTEX
  5
26D1
  8
0
 10
57.6760705349831824
 20
172.2959581638770885
 30
0.0
  0
VERTEX
  5
26D2
  8
0
 10
57.7285258446678711
 20
172.3869265018425949
 30
0.0
  0
VERTEX
  5
26D3
  8
0
 10
57.7809812296623804
 20
172.4778778137566064
 30
0.0
  0
VERTEX
  5
26D4
  8
0
 10
57.8334407460811519
 20
172.5688072738452945
 30
0.0
  0
VERTEX
  5
26D5
  8
0
 10
57.8859081306450776
 20
172.6597102640058949
 30
0.0
  0
VERTEX
  5
26D6
  8
0
 10
57.9383837058200299
 20
172.7505843860982964
 30
0.0
  0
VERTEX
  5
26D7
  8
0
 10
57.9908657253339683
 20
172.8414285870844083
 30
0.0
  0
VERTEX
  5
26D8
  8
0
 10
58.0433524139857013
 20
172.932241832735798
 30
0.0
  0
VERTEX
  5
26D9
  8
0
 10
58.0958419965244275
 20
173.023023088851204
 30
0.0
  0
VERTEX
  5
26DA
  8
0
 10
58.1483318800672677
 20
173.1137717630012105
 30
0.0
  0
VERTEX
  5
26DB
  8
0
 10
58.2008165779652984
 20
173.2044888262788902
 30
0.0
  0
VERTEX
  5
26DC
  8
0
 10
58.2532899636873935
 20
173.2951755955099884
 30
0.0
  0
VERTEX
  5
26DD
  8
0
 10
58.3057459107024911
 20
173.3858333875199946
 30
0.0
  0
VERTEX
  5
26DE
  8
0
 10
58.3581783273608323
 20
173.4764635200691885
 30
0.0
  0
VERTEX
  5
26DF
  8
0
 10
58.4105829325587322
 20
173.5670673594262894
 30
0.0
  0
VERTEX
  5
26E0
  8
0
 10
58.4629581002204972
 20
173.6576463429935018
 30
0.0
  0
VERTEX
  5
26E1
  8
0
 10
58.5153024158462571
 20
173.7482019138419105
 30
0.0
  0
VERTEX
  5
26E2
  8
0
 10
58.567614464936149
 20
173.8387355150424867
 30
0.0
  0
VERTEX
  5
26E3
  8
0
 10
58.6198929126704016
 20
173.9292484039305009
 30
0.0
  0
VERTEX
  5
26E4
  8
0
 10
58.6721376140576183
 20
174.0197390643348001
 30
0.0
  0
VERTEX
  5
26E5
  8
0
 10
58.7243493388010407
 20
174.1102038479178873
 30
0.0
  0
VERTEX
  5
26E6
  8
0
 10
58.7765288800615622
 20
174.2006390516619945
 30
0.0
  0
VERTEX
  5
26E7
  8
0
 10
58.8286770310001828
 20
174.2910409725494958
 30
0.0
  0
VERTEX
  5
26E8
  8
0
 10
58.8807945847778171
 20
174.3814059075625948
 30
0.0
  0
VERTEX
  5
26E9
  8
0
 10
58.9328823345554227
 20
174.4717301536834952
 30
0.0
  0
VERTEX
  5
26EA
  8
0
 10
58.9849410734939923
 20
174.5620100078944859
 30
0.0
  0
VERTEX
  5
26EB
  8
0
 10
59.0369715947543909
 20
174.6522417671779976
 30
0.0
  0
VERTEX
  5
26EC
  8
0
 10
59.0889746914976683
 20
174.7424217285160069
 30
0.0
  0
VERTEX
  5
26ED
  8
0
 10
59.1409511568847108
 20
174.8325461888910013
 30
0.0
  0
VERTEX
  5
26EE
  8
0
 10
59.1929017840764899
 20
174.922611445285014
 30
0.0
  0
VERTEX
  5
26EF
  8
0
 10
59.244827574712069
 20
175.0126152359478056
 30
0.0
  0
VERTEX
  5
26F0
  8
0
 10
59.2967303937059
 20
175.1025612671942042
 30
0.0
  0
VERTEX
  5
26F1
  8
0
 10
59.3486123293887715
 20
175.1924547898780986
 30
0.0
  0
VERTEX
  5
26F2
  8
0
 10
59.4004754700917772
 20
175.2823010548555942
 30
0.0
  0
VERTEX
  5
26F3
  8
0
 10
59.4523219041459967
 20
175.3721053129831091
 30
0.0
  0
VERTEX
  5
26F4
  8
0
 10
59.504153719882531
 20
175.4618728151168057
 30
0.0
  0
VERTEX
  5
26F5
  8
0
 10
59.5559730056324881
 20
175.5516088121129883
 30
0.0
  0
VERTEX
  5
26F6
  8
0
 10
59.6077818497269902
 20
175.6413185548279046
 30
0.0
  0
VERTEX
  5
26F7
  8
0
 10
59.6595823404970815
 20
175.7310072941178021
 30
0.0
  0
VERTEX
  5
26F8
  8
0
 10
59.7113765662738771
 20
175.8206802808390137
 30
0.0
  0
VERTEX
  5
26F9
  8
0
 10
59.7631666153884922
 20
175.910342765847588
 30
0.0
  0
VERTEX
  5
26FA
  8
0
 10
59.8149545761719921
 20
176.0
 30
0.0
  0
SEQEND
  5
26FB
  8
0
  0
POLYLINE
  5
2136
  8
0
 66
     1
 10
0.0
 20
0.0
 30
0.0
  0
VERTEX
  5
26FC
  8
0
 10
59.8149545761719921
 20
175.9999999999998863
 30
0.0
  0
VERTEX
  5
26FD
  8
0
 10
59.7632225231017671
 20
176.0895844243705994
 30
0.0
  0
VERTEX
  5
26FE
  8
0
 10
59.711485225852563
 20
176.1791785456647972
 30
0.0
  0
VERTEX
  5
26FF
  8
0
 10
59.6597374402453511
 20
176.2687920608057937
 30
0.0
  0
VERTEX
  5
2700
  8
0
 10
59.6079739221011735
 20
176.3584346667171019
 30
0.0
  0
VERTEX
  5
2701
  8
0
 10
59.556189427241037
 20
176.4481160603220928
 30
0.0
  0
VERTEX
  5
2702
  8
0
 10
59.5043787114859413
 20
176.537845938544308
 30
0.0
  0
VERTEX
  5
2703
  8
0
 10
59.4525375818680004
 20
176.6276322980536122
 30
0.0
  0
VERTEX
  5
2704
  8
0
 10
59.4006668355318723
 20
176.7174750643953871
 30
0.0
  0
VERTEX
  5
2705
  8
0
 10
59.348768748802712
 20
176.8073717706537877
 30
0.0
  0
VERTEX
  5
2706
  8
0
 10
59.2968455982373825
 20
176.8973199495383994
 30
0.0
  0
VERTEX
  5
2707
  8
0
 10
59.2448996603927185
 20
176.9873171337586086
 30
0.0
  0
VERTEX
  5
2708
  8
0
 10
59.1929332118248794
 20
177.0773608560245123
 30
0.0
  0
VERTEX
  5
2709
  8
0
 10
59.1409480924447379
 20
177.1674490813499858
 30
0.0
  0
VERTEX
  5
270A
  8
0
 10
59.0889444576192204
 20
177.257581442544307
 30
0.0
  0
VERTEX
  5
270B
  8
0
 10
59.0369220565413286
 20
177.3477579745515129
 30
0.0
  0
VERTEX
  5
270C
  8
0
 10
58.9848806384041495
 20
177.4379787123160952
 30
0.0
  0
VERTEX
  5
270D
  8
0
 10
58.932819952400699
 20
177.5282436907822898
 30
0.0
  0
VERTEX
  5
270E
  8
0
 10
58.8807397437947699
 20
177.618552941169014
 30
0.0
  0
VERTEX
  5
270F
  8
0
 10
58.8286385972872878
 20
177.7089053942999044
 30
0.0
  0
VERTEX
  5
2710
  8
0
 10
58.7765123251493478
 20
177.7992973523020055
 30
0.0
  0
VERTEX
  5
2711
  8
0
 10
58.7243563344075596
 20
177.8897247330667994
 30
0.0
  0
VERTEX
  5
2712
  8
0
 10
58.672166032088569
 20
177.9801834544859958
 30
0.0
  0
VERTEX
  5
2713
  8
0
 10
58.6199368252190212
 20
178.0706694344513892
 30
0.0
  0
VERTEX
  5
2714
  8
0
 10
58.5676642263397795
 20
178.1611786516851055
 30
0.0
  0
VERTEX
  5
2715
  8
0
 10
58.5153478851483229
 20
178.2517094700307041
 30
0.0
  0
VERTEX
  5
2716
  8
0
 10
58.4629928461590893
 20
178.3422633635111083
 30
0.0
  0
VERTEX
  5
2717
  8
0
 10
58.4106045165011878
 20
178.4328420152006913
 30
0.0
  0
VERTEX
  5
2718
  8
0
 10
58.3581883033038125
 20
178.5234471081739116
 30
0.0
  0
VERTEX
  5
2719
  8
0
 10
58.3057496136960296
 20
178.6140803255053129
 30
0.0
  0
VERTEX
  5
271A
  8
0
 10
58.2532938548070334
 20
178.7047433502694105
 30
0.0
  0
VERTEX
  5
271B
  8
0
 10
58.2008264337658829
 20
178.7954378655404923
 30
0.0
  0
VERTEX
  5
271C
  8
0
 10
58.1483526522045224
 20
178.8861654758254076
 30
0.0
  0
VERTEX
  5
271D
  8
0
 10
58.0958755570929597
 20
178.9769261064965065
 30
0.0
  0
VERTEX
  5
271E
  8
0
 10
58.0433960322318327
 20
179.0677180719299884
 30
0.0
  0
VERTEX
  5
271F
  8
0
 10
57.9909148742329421
 20
179.1585396215693891
 30
0.0
  0
VERTEX
  5
2720
  8
0
 10
57.938432879708067
 20
179.2493890048581875
 30
0.0
  0
VERTEX
  5
2721
  8
0
 10
57.8859508452689795
 20
179.3402644712396068
 30
0.0
  0
VERTEX
  5
2722
  8
0
 10
57.8334695675274304
 20
179.4311642701570975
 30
0.0
  0
VERTEX
  5
2723
  8
0
 10
57.7809898430952202
 20
179.52208665105411
 30
0.0
  0
VERTEX
  5
2724
  8
0
 10
57.7285123851757405
 20
179.6130297980938053
 30
0.0
  0
VERTEX
  5
2725
  8
0
 10
57.6760372132691472
 20
179.7039913525080124
 30
0.0
  0
VERTEX
  5
2726
  8
0
 10
57.6235640029199203
 20
179.7949686863292129
 30
0.0
  0
VERTEX
  5
2727
  8
0
 10
57.571092427201819
 20
179.8859591696563029
 30
0.0
  0
VERTEX
  5
2728
  8
0
 10
57.5186221591886166
 20
179.9769601725880932
 30
0.0
  0
VERTEX
  5
2729
  8
0
 10
57.4661528719540797
 20
180.0679690652233944
 30
0.0
  0
VERTEX
  5
272A
  8
0
 10
57.4136842385719888
 20
180.1589832176611026
 30
0.0
  0
VERTEX
  5
272B
  8
0
 10
57.3612159321161172
 20
180.25
 30
0.0
  0
SEQEND
  5
272C
  8
0
  0
POLYLINE
  5
2137
  8
0
 66
     1
 10
0.0
 20
0.0
 30
0.0
  0
VERTEX
  5
272D
  8
0
 10
49.9999999999483791
 20
184.5
 30
0.0
  0
VERTEX
  5
272E
  8
0
 10
49.8949475205562578
 20
184.4999516159060988
 30
0.0
  0
VERTEX
  5
272F
  8
0
 10
49.789897112895602
 20
184.4999018090709058
 30
0.0
  0
VERTEX
  5
2730
  8
0
 10
49.6848508486979199
 20
184.4998491567529868
 30
0.0
  0
VERTEX
  5
2731
  8
0
 10
49.5798107996946484
 20
184.4997922362109932
 30
0.0
  0
VERTEX
  5
2732
  8
0
 10
49.4747790379300909
 20
184.4997296555187063
 30
0.0
  0
VERTEX
  5
2733
  8
0
 10
49.369757661907272
 20
184.4996626290904942
 30
0.0
  0
VERTEX
  5
2734
  8
0
 10
49.2647488163060032
 20
184.499596920019286
 30
0.0
  0
VERTEX
  5
2735
  8
0
 10
49.1597546504500187
 20
184.4995387488606866
 30
0.0
  0
VERTEX
  5
2736
  8
0
 10
49.0547773136632088
 20
184.4994943361699882
 30
0.0
  0
VERTEX
  5
2737
  8
0
 10
48.9498189418337972
 20
184.4994696393031859
 30
0.0
  0
VERTEX
  5
2738
  8
0
 10
48.8448814735833423
 20
184.4994667511728892
 30
0.0
  0
VERTEX
  5
2739
  8
0
 10
48.7399666975810533
 20
184.4994848271385024
 30
0.0
  0
VERTEX
  5
273A
  8
0
 10
48.6350763987472305
 20
184.4995229491181874
 30
0.0
  0
VERTEX
  5
273B
  8
0
 10
48.5302123620021675
 20
184.4995801990307029
 30
0.0
  0
VERTEX
  5
273C
  8
0
 10
48.4253763881959927
 20
184.4996550297086912
 30
0.0
  0
VERTEX
  5
273D
  8
0
 10
48.3205703606872987
 20
184.4997426356318044
 30
0.0
  0
VERTEX
  5
273E
  8
0
 10
48.2157961894671985
 20
184.4998371595318076
 30
0.0
  0
VERTEX
  5
273F
  8
0
 10
48.1110557845399001
 20
184.4999327436212866
 30
0.0
  0
VERTEX
  5
2740
  8
0
 10
48.006351053307867
 20
184.5000235344265889
 30
0.0
  0
VERTEX
  5
2741
  8
0
 10
47.9016832386400822
 20
184.5001047802672076
 30
0.0
  0
VERTEX
  5
2742
  8
0
 10
47.7970520410180129
 20
184.5001742867345058
 30
0.0
  0
VERTEX
  5
2743
  8
0
 10
47.6924569426463165
 20
184.5002302213218002
 30
0.0
  0
VERTEX
  5
2744
  8
0
 10
47.5878974257294871
 20
184.5002707515226064
 30
0.0
  0
VERTEX
  5
2745
  8
0
 10
47.4833730052947303
 20
184.5002940866642973
 30
0.0
  0
VERTEX
  5
2746
  8
0
 10
47.3788845521136821
 20
184.5003001640365028
 30
0.0
  0
VERTEX
  5
2747
  8
0
 10
47.274434745705463
 20
184.5002912262654888
 30
0.0
  0
VERTEX
  5
2748
  8
0
 10
47.1700263913795368
 20
184.5002696763033896
 30
0.0
  0
VERTEX
  5
2749
  8
0
 10
47.065662294445211
 20
184.5002379171021119
 30
0.0
  0
VERTEX
  5
274A
  8
0
 10
46.9613452602119423
 20
184.5001983516137045
 30
0.0
  0
VERTEX
  5
274B
  8
0
 10
46.857078093989081
 20
184.5001533827903017
 30
0.0
  0
VERTEX
  5
274C
  8
0
 10
46.7528636010859984
 20
184.5001054135838103
 30
0.0
  0
VERTEX
  5
274D
  8
0
 10
46.6487045868120873
 20
184.5000568469463929
 30
0.0
  0
VERTEX
  5
274E
  8
0
 10
46.5446038564767477
 20
184.5000100858300982
 30
0.0
  0
VERTEX
  5
274F
  8
0
 10
46.4405642153893368
 20
184.4999675331868048
 30
0.0
  0
VERTEX
  5
2750
  8
0
 10
46.3365884688592828
 20
184.4999315919687035
 30
0.0
  0
VERTEX
  5
2751
  8
0
 10
46.2326784553121612
 20
184.4999043004899022
 30
0.0
  0
VERTEX
  5
2752
  8
0
 10
46.1288304923129928
 20
184.4998856149998119
 30
0.0
  0
VERTEX
  5
2753
  8
0
 10
46.0250389409895604
 20
184.4998747539227111
 30
0.0
  0
VERTEX
  5
2754
  8
0
 10
45.9212981601742527
 20
184.4998709348172952
 30
0.0
  0
VERTEX
  5
2755
  8
0
 10
45.8176025086995367
 20
184.4998733752424016
 30
0.0
  0
VERTEX
  5
2756
  8
0
 10
45.713946345397801
 20
184.4998812927564984
 30
0.0
  0
VERTEX
  5
2757
  8
0
 10
45.6103240291015197
 20
184.4998939049185083
 30
0.0
  0
VERTEX
  5
2758
  8
0
 10
45.5067299186430887
 20
184.4999104292868992
 30
0.0
  0
VERTEX
  5
2759
  8
0
 10
45.4031583728549322
 20
184.4999300834207077
 30
0.0
  0
VERTEX
  5
275A
  8
0
 10
45.2996037505695028
 20
184.4999520848782026
 30
0.0
  0
VERTEX
  5
275B
  8
0
 10
45.1960604106192179
 20
184.4999756512183922
 30
0.0
  0
VERTEX
  5
275C
  8
0
 10
45.0925227118364873
 20
184.5
 30
0.0
  0
SEQEND
  5
275D
  8
0
  0
POLYLINE
  5
2138
  8
0
 66
     1
 10
0.0
 20
0.0
 30
0.0
  0
VERTEX
  5
275E
  8
0
 10
45.0925227118364873
 20
184.5
 30
0.0
  0
VERTEX
  5
275F
  8
0
 10
45.0408063510830914
 20
184.4104065156658976
 30
0.0
  0
VERTEX
  5
2760
  8
0
 10
44.9890842146371028
 20
184.3208036412779052
 30
0.0
  0
VERTEX
  5
2761
  8
0
 10
44.9373505268060498
 20
184.2311819867821043
 30
0.0
  0
VERTEX
  5
2762
  8
0
 10
44.8855995118973894
 20
184.1415321621242924
 30
0.0
  0
VERTEX
  5
2763
  8
0
 10
44.8338253942185574
 20
184.0518447772508921
 30
0.0
  0
VERTEX
  5
2764
  8
0
 10
44.7820223980770606
 20
183.9621104421077007
 30
0.0
  0
VERTEX
  5
2765
  8
0
 10
44.7301856946374414
 20
183.8723215271432139
 30
0.0
  0
VERTEX
  5
2766
  8
0
 10
44.6783149498070173
 20
183.7824787599321041
 30
0.0
  0
VERTEX
  5
2767
  8
0
 10
44.6264111618350228
 20
183.6925853452877107
 30
0.0
  0
VERTEX
  5
2768
  8
0
 10
44.5744753291792506
 20
183.6026444884114142
 30
0.0
  0
VERTEX
  5
2769
  8
0
 10
44.5225084502976571
 20
183.5126593945045954
 30
0.0
  0
VERTEX
  5
276A
  8
0
 10
44.4705115236478079
 20
183.422633268767612
 30
0.0
  0
VERTEX
  5
276B
  8
0
 10
44.4184853916239035
 20
183.3325687221029057
 30
0.0
  0
VERTEX
  5
276C
  8
0
 10
44.3664302945392706
 20
183.2424660726578907
 30
0.0
  0
VERTEX
  5
276D
  8
0
 10
44.3143463275347074
 20
183.1523250857549954
 30
0.0
  0
VERTEX
  5
276E
  8
0
 10
44.2622335857509981
 20
183.0621455267169893
 30
0.0
  0
VERTEX
  5
276F
  8
0
 10
44.2100921643289766
 20
182.971927160866386
 30
0.0
  0
VERTEX
  5
2770
  8
0
 10
44.1579221636004817
 20
182.881669751985811
 30
0.0
  0
VERTEX
  5
2771
  8
0
 10
44.1057252171488301
 20
182.7913726089784063
 30
0.0
  0
VERTEX
  5
2772
  8
0
 10
44.0535066212905804
 20
182.7010339541010921
 30
0.0
  0
VERTEX
  5
2773
  8
0
 10
44.0012722077218825
 20
182.6106518507766054
 30
0.0
  0
VERTEX
  5
2774
  8
0
 10
43.9490278081388794
 20
182.5202243624273137
 30
0.0
  0
VERTEX
  5
2775
  8
0
 10
43.8967792542377424
 20
182.4297495524756982
 30
0.0
  0
VERTEX
  5
2776
  8
0
 10
43.8445322722768722
 20
182.3392255453073858
 30
0.0
  0
VERTEX
  5
2777
  8
0
 10
43.7922884543602891
 20
182.2486528556295013
 30
0.0
  0
VERTEX
  5
2778
  8
0
 10
43.7400440016897321
 20
182.1580351151081913
 30
0.0
  0
VERTEX
  5
2779
  8
0
 10
43.6877947531153481
 20
182.0673761649177038
 30
0.0
  0
VERTEX
  5
277A
  8
0
 10
43.6355365474872983
 20
181.9766798462318036
 30
0.0
  0
VERTEX
  5
277B
  8
0
 10
43.5832652236557507
 20
181.8859500002243976
 30
0.0
  0
VERTEX
  5
277C
  8
0
 10
43.5309766204708808
 20
181.7951904680695918
 30
0.0
  0
VERTEX
  5
277D
  8
0
 10
43.4786665767828708
 20
181.7044050909412931
 30
0.0
  0
VERTEX
  5
277E
  8
0
 10
43.4263310522322286
 20
181.6135976579340081
 30
0.0
  0
VERTEX
  5
277F
  8
0
 10
43.3739685879633612
 20
181.5227708451151045
 30
0.0
  0
VERTEX
  5
2780
  8
0
 10
43.3215802018688265
 20
181.4319262606900907
 30
0.0
  0
VERTEX
  5
2781
  8
0
 10
43.2691670116693103
 20
181.3410654698234055
 30
0.0
  0
VERTEX
  5
2782
  8
0
 10
43.2167301350853634
 20
181.2501900376792889
 30
0.0
  0
VERTEX
  5
2783
  8
0
 10
43.1642706898375934
 20
181.1593015294220947
 30
0.0
  0
VERTEX
  5
2784
  8
0
 10
43.1117897936466932
 20
181.0684015102162903
 30
0.0
  0
VERTEX
  5
2785
  8
0
 10
43.0592885642332135
 20
180.9774915452260018
 30
0.0
  0
VERTEX
  5
2786
  8
0
 10
43.0067682175562425
 20
180.8865731600218965
 30
0.0
  0
VERTEX
  5
2787
  8
0
 10
42.9542307866189219
 20
180.7956475508759127
 30
0.0
  0
VERTEX
  5
2788
  8
0
 10
42.901678709535588
 20
180.7047157507847999
 30
0.0
  0
VERTEX
  5
2789
  8
0
 10
42.8491144273305906
 20
180.6137787915727984
 30
0.0
  0
VERTEX
  5
278A
  8
0
 10
42.796540381028251
 20
180.5228377050642052
 30
0.0
  0
VERTEX
  5
278B
  8
0
 10
42.7439590116529118
 20
180.4318935230830903
 30
0.0
  0
VERTEX
  5
278C
  8
0
 10
42.6913727602288802
 20
180.3409472774536084
 30
0.0
  0
VERTEX
  5
278D
  8
0
 10
42.6387840677805627
 20
180.2499999999998863
 30
0.0
  0
SEQEND
  5
278E
  8
0
  0
POLYLINE
  5
2139
  8
0
 66
     1
 10
0.0
 20
0.0
 30
0.0
  0
VERTEX
  5
278F
  8
0
 10
45.0925227118366081
 20
167.5
 30
0.0
  0
VERTEX
  5
2790
  8
0
 10
45.1959704959660868
 20
167.5000074937831869
 30
0.0
  0
VERTEX
  5
2791
  8
0
 10
45.2994293833088975
 20
167.5000145785851942
 30
0.0
  0
VERTEX
  5
2792
  8
0
 10
45.4029104770783576
 20
167.5000208454247002
 30
0.0
  0
VERTEX
  5
2793
  8
0
 10
45.5064248804877707
 20
167.5000258853204116
 30
0.0
  0
VERTEX
  5
2794
  8
0
 10
45.6099836967504189
 20
167.5000292892910068
 30
0.0
  0
VERTEX
  5
2795
  8
0
 10
45.7135980290796908
 20
167.5000306483553913
 30
0.0
  0
VERTEX
  5
2796
  8
0
 10
45.8172766811920198
 20
167.5000295217899975
 30
0.0
  0
VERTEX
  5
2797
  8
0
 10
45.921018858421057
 20
167.5000253363764955
 30
0.0
  0
VERTEX
  5
2798
  8
0
 10
46.0248212620865331
 20
167.5000174843308116
 30
0.0
  0
VERTEX
  5
2799
  8
0
 10
46.1286805935013575
 20
167.5000053578692132
 30
0.0
  0
VERTEX
  5
279A
  8
0
 10
46.2325935539784822
 20
167.4999883492079107
 30
0.0
  0
VERTEX
  5
279B
  8
0
 10
46.3365568453290777
 20
167.4999658506798994
 30
0.0
  0
VERTEX
  5
279C
  8
0
 10
46.4405679258086082
 20
167.4999374323878101
 30
0.0
  0
VERTEX
  5
279D
  8
0
 10
46.5446265330918081
 20
167.4999032001121861
 30
0.0
  0
VERTEX
  5
279E
  8
0
 10
46.6487328324813291
 20
167.4998633601290123
 30
0.0
  0
VERTEX
  5
279F
  8
0
 10
46.7528869892798298
 20
167.4998181187141881
 30
0.0
  0
VERTEX
  5
27A0
  8
0
 10
46.857089168789912
 20
167.499767682143613
 30
0.0
  0
VERTEX
  5
27A1
  8
0
 10
46.9613395301816112
 20
167.4997122829246905
 30
0.0
  0
VERTEX
  5
27A2
  8
0
 10
47.0656377490614304
 20
167.4996542219367939
 30
0.0
  0
VERTEX
  5
27A3
  8
0
 10
47.1699826761858674
 20
167.4995993282348081
 30
0.0
  0
VERTEX
  5
27A4
  8
0
 10
47.2743730817582204
 20
167.4995537754276995
 30
0.0
  0
VERTEX
  5
27A5
  8
0
 10
47.3788077359818871
 20
167.4995237371244912
 30
0.0
  0
VERTEX
  5
27A6
  8
0
 10
47.4832854090601515
 20
167.4995153869340925
 30
0.0
  0
VERTEX
  5
27A7
  8
0
 10
47.5878048710094603
 20
167.4995345576384125
 30
0.0
  0
VERTEX
  5
27A8
  8
0
 10
47.6923648885308111
 20
167.4995810378003114
 30
0.0
  0
VERTEX
  5
27A9
  8
0
 10
47.796964225479087
 20
167.4996494272137113
 30
0.0
  0
VERTEX
  5
27AA
  8
0
 10
47.9016016456166582
 20
167.4997341571848892
 30
0.0
  0
VERTEX
  5
27AB
  8
0
 10
48.0062759127060588
 20
167.4998296590202926
 30
0.0
  0
VERTEX
  5
27AC
  8
0
 10
48.1109857905096874
 20
167.4999303640261985
 30
0.0
  0
VERTEX
  5
27AD
  8
0
 10
48.2157300427899713
 20
167.5000307035089975
 30
0.0
  0
VERTEX
  5
27AE
  8
0
 10
48.3205074333093592
 20
167.5001251087749949
 30
0.0
  0
VERTEX
  5
27AF
  8
0
 10
48.4253166991356281
 20
167.5002082354322113
 30
0.0
  0
VERTEX
  5
27B0
  8
0
 10
48.530156207614823
 20
167.5002778456693875
 30
0.0
  0
VERTEX
  5
27B1
  8
0
 10
48.6350240559489677
 20
167.50033397155579
 30
0.0
  0
VERTEX
  5
27B2
  8
0
 10
48.7399183351777694
 20
167.5003766969394974
 30
0.0
  0
VERTEX
  5
27B3
  8
0
 10
48.844837136340999
 20
167.5004061056687874
 30
0.0
  0
VERTEX
  5
27B4
  8
0
 10
48.949778550478328
 20
167.5004222815915966
 30
0.0
  0
VERTEX
  5
27B5
  8
0
 10
49.0547406686294494
 20
167.5004253085562027
 30
0.0
  0
VERTEX
  5
27B6
  8
0
 10
49.1597215818341269
 20
167.5004152704109117
 30
0.0
  0
VERTEX
  5
27B7
  8
0
 10
49.2647193624769315
 20
167.5003923932555949
 30
0.0
  0
VERTEX
  5
27B8
  8
0
 10
49.3697319516272088
 20
167.5003579045178981
 30
0.0
  0
VERTEX
  5
27B9
  8
0
 10
49.4747572339699886
 20
167.5003134615764111
 30
0.0
  0
VERTEX
  5
27BA
  8
0
 10
49.5797930939732012
 20
167.5002607234650043
 30
0.0
  0
VERTEX
  5
27BB
  8
0
 10
49.684837416104692
 20
167.5002013492176047
 30
0.0
  0
VERTEX
  5
27BC
  8
0
 10
49.7898880848324481
 20
167.5001369978683101
 30
0.0
  0
VERTEX
  5
27BD
  8
0
 10
49.8949429846243788
 20
167.5000693284511044
 30
0.0
  0
VERTEX
  5
27BE
  8
0
 10
49.9999999999483578
 20
167.4999999999998863
 30
0.0
  0
SEQEND
  5
27BF
  8
0
  0
POLYLINE
  5
213A
  8
0
 66
     1
 10
0.0
 20
0.0
 30
0.0
  0
VERTEX
  5
27C0
  8
0
 10
42.6387840677805912
 20
171.75
 30
0.0
  0
VERTEX
  5
27C1
  8
0
 10
42.691349240784632
 20
171.6590446021062917
 30
0.0
  0
VERTEX
  5
27C2
  8
0
 10
42.7439143487084223
 20
171.5680915637879025
 30
0.0
  0
VERTEX
  5
27C3
  8
0
 10
42.7964793264716477
 20
171.4771432446198105
 30
0.0
  0
VERTEX
  5
27C4
  8
0
 10
42.849044108994093
 20
171.3862020041773064
 30
0.0
  0
VERTEX
  5
27C5
  8
0
 10
42.9016085935443527
 20
171.2952701808297888
 30
0.0
  0
VERTEX
  5
27C6
  8
0
 10
42.9541704056681226
 20
171.2043488334799974
 30
0.0
  0
VERTEX
  5
27C7
  8
0
 10
43.0067236424439088
 20
171.1134370337468908
 30
0.0
  0
VERTEX
  5
27C8
  8
0
 10
43.0592620965717217
 20
171.0225336818193966
 30
0.0
  0
VERTEX
  5
27C9
  8
0
 10
43.1117795607515788
 20
170.9316376778861013
 30
0.0
  0
VERTEX
  5
27CA
  8
0
 10
43.1642701672286933
 20
170.8407480949034039
 30
0.0
  0
VERTEX
  5
27CB
  8
0
 10
43.2167316779198174
 20
170.7498658526774875
 30
0.0
  0
VERTEX
  5
27CC
  8
0
 10
43.2691640540032765
 20
170.6589929900434868
 30
0.0
  0
VERTEX
  5
27CD
  8
0
 10
43.3215672874116819
 20
170.5681315614849041
 30
0.0
  0
VERTEX
  5
27CE
  8
0
 10
43.3739413701256069
 20
170.4772836215146015
 30
0.0
  0
VERTEX
  5
27CF
  8
0
 10
43.4262870855278891
 20
170.386451711849702
 30
0.0
  0
VERTEX
  5
27D0
  8
0
 10
43.478608017934107
 20
170.2956400985212042
 30
0.0
  0
VERTEX
  5
27D1
  8
0
 10
43.5309083710142772
 20
170.2048534288477981
 30
0.0
  0
VERTEX
  5
27D2
  8
0
 10
43.5831923484384376
 20
170.1140963501480883
 30
0.0
  0
VERTEX
  5
27D3
  8
0
 10
43.6354641372453216
 20
170.0233734790654978
 30
0.0
  0
VERTEX
  5
27D4
  8
0
 10
43.6877270612100119
 20
169.9326878400104022
 30
0.0
  0
VERTEX
  5
27D5
  8
0
 10
43.7399831781973489
 20
169.8420401225041871
 30
0.0
  0
VERTEX
  5
27D6
  8
0
 10
43.7922344451934009
 20
169.7514308300044092
 30
0.0
  0
VERTEX
  5
27D7
  8
0
 10
43.8444828191842007
 20
169.6608604659683124
 30
0.0
  0
VERTEX
  5
27D8
  8
0
 10
43.8967300564640013
 20
169.5703295577160077
 30
0.0
  0
VERTEX
  5
27D9
  8
0
 10
43.9489749164857031
 20
169.4798389888993881
 30
0.0
  0
VERTEX
  5
27DA
  8
0
 10
44.0012138548448206
 20
169.389389917104694
 30
0.0
  0
VERTEX
  5
27DB
  8
0
 10
44.0534432680533996
 20
169.2989835069431876
 30
0.0
  0
VERTEX
  5
27DC
  8
0
 10
44.1056595526235924
 20
169.2086209230263023
 30
0.0
  0
VERTEX
  5
27DD
  8
0
 10
44.1578591050674376
 20
169.1183033299651868
 30
0.0
  0
VERTEX
  5
27DE
  8
0
 10
44.2100383218970592
 20
169.0280318923713025
 30
0.0
  0
VERTEX
  5
27DF
  8
0
 10
44.2621935996245384
 20
168.9378077748559974
 30
0.0
  0
VERTEX
  5
27E0
  8
0
 10
44.3143213347619209
 20
168.8476321420305908
 30
0.0
  0
VERTEX
  5
27E1
  8
0
 10
44.3664179238213308
 20
168.7575061585064873
 30
0.0
  0
VERTEX
  5
27E2
  8
0
 10
44.4184797633148705
 20
168.6674309888948926
 30
0.0
  0
VERTEX
  5
27E3
  8
0
 10
44.4705032497546071
 20
168.5774077978072967
 30
0.0
  0
VERTEX
  5
27E4
  8
0
 10
44.522485923587773
 20
168.4874368486736955
 30
0.0
  0
VERTEX
  5
27E5
  8
0
 10
44.5744300621198022
 20
168.3975146732738892
 30
0.0
  0
VERTEX
  5
27E6
  8
0
 10
44.6263391685582391
 20
168.3076368376331118
 30
0.0
  0
VERTEX
  5
27E7
  8
0
 10
44.6782167461124402
 20
168.2177989077754887
 30
0.0
  0
VERTEX
  5
27E8
  8
0
 10
44.7300662979917476
 20
168.1279964497250887
 30
0.0
  0
VERTEX
  5
27E9
  8
0
 10
44.7818913274055532
 20
168.0382250295062079
 30
0.0
  0
VERTEX
  5
27EA
  8
0
 10
44.8336953375631921
 20
167.9484802131426022
 30
0.0
  0
VERTEX
  5
27EB
  8
0
 10
44.885481831674042
 20
167.8587575666585963
 30
0.0
  0
VERTEX
  5
27EC
  8
0
 10
44.9372543129474309
 20
167.7690526560782018
 30
0.0
  0
VERTEX
  5
27ED
  8
0
 10
44.9890162845927577
 20
167.6793610474256013
 30
0.0
  0
VERTEX
  5
27EE
  8
0
 10
45.0407712498193504
 20
167.5896783067248066
 30
0.0
  0
VERTEX
  5
27EF
  8
0
 10
45.0925227118366081
 20
167.4999999999998863
 30
0.0
  0
SEQEND
  5
27F0
  8
0
  0
POLYLINE
  5
213B
  8
0
 66
     1
 10
0.0
 20
0.0
 30
0.0
  0
VERTEX
  5
27F1
  8
0
 10
57.361215932116103
 20
180.25
 30
0.0
  0
VERTEX
  5
27F2
  8
0
 10
57.308650759112048
 20
180.3409553978935946
 30
0.0
  0
VERTEX
  5
27F3
  8
0
 10
57.2560856511882434
 20
180.4319084362120122
 30
0.0
  0
VERTEX
  5
27F4
  8
0
 10
57.2035206734249684
 20
180.5228567553801042
 30
0.0
  0
VERTEX
  5
27F5
  8
0
 10
57.1509558909024804
 20
180.6137979958226083
 30
0.0
  0
VERTEX
  5
27F6
  8
0
 10
57.0983914063521425
 20
180.7047298191698985
 30
0.0
  0
VERTEX
  5
27F7
  8
0
 10
57.0458295942282803
 20
180.7956511665196899
 30
0.0
  0
VERTEX
  5
27F8
  8
0
 10
56.9932763574524017
 20
180.8865629662527112
 30
0.0
  0
VERTEX
  5
27F9
  8
0
 10
56.940737903324468
 20
180.9774663181802055
 30
0.0
  0
VERTEX
  5
27FA
  8
0
 10
56.8882204391445327
 20
181.0683623221133871
 30
0.0
  0
VERTEX
  5
27FB
  8
0
 10
56.8357298326673686
 20
181.1592519050961982
 30
0.0
  0
VERTEX
  5
27FC
  8
0
 10
56.783268321976152
 20
181.2501341473220009
 30
0.0
  0
VERTEX
  5
27FD
  8
0
 10
56.7308359458926432
 20
181.3410070099560016
 30
0.0
  0
VERTEX
  5
27FE
  8
0
 10
56.6784327124841809
 20
181.4318684385146128
 30
0.0
  0
VERTEX
  5
27FF
  8
0
 10
56.6260586297701991
 20
181.5227163784848017
 30
0.0
  0
VERTEX
  5
2800
  8
0
 10
56.5737129143678814
 20
181.6135482881497012
 30
0.0
  0
VERTEX
  5
2801
  8
0
 10
56.5213919819616422
 20
181.7043599014781989
 30
0.0
  0
VERTEX
  5
2802
  8
0
 10
56.4690916288815004
 20
181.795146571151605
 30
0.0
  0
VERTEX
  5
2803
  8
0
 10
56.4168076514573897
 20
181.8859036498512864
 30
0.0
  0
VERTEX
  5
2804
  8
0
 10
56.3645358626506621
 20
181.9766265209339053
 30
0.0
  0
VERTEX
  5
2805
  8
0
 10
56.3122729386861067
 20
182.0673121599891999
 30
0.0
  0
VERTEX
  5
2806
  8
0
 10
56.2600168216989687
 20
182.1579598774955002
 30
0.0
  0
VERTEX
  5
2807
  8
0
 10
56.2077655547031085
 20
182.2485691699953918
 30
0.0
  0
VERTEX
  5
2808
  8
0
 10
56.1555171807124793
 20
182.3391395340316024
 30
0.0
  0
VERTEX
  5
2809
  8
0
 10
56.1032699434328492
 20
182.4296704422839923
 30
0.0
  0
VERTEX
  5
280A
  8
0
 10
56.0510250834112966
 20
182.5201610111006119
 30
0.0
  0
VERTEX
  5
280B
  8
0
 10
55.9987861450523496
 20
182.6106100828953913
 30
0.0
  0
VERTEX
  5
280C
  8
0
 10
55.9465567318438488
 20
182.7010164930568976
 30
0.0
  0
VERTEX
  5
280D
  8
0
 10
55.8943404472737768
 20
182.7913790769740103
 30
0.0
  0
VERTEX
  5
280E
  8
0
 10
55.8421408948300098
 20
182.8816966700350974
 30
0.0
  0
VERTEX
  5
280F
  8
0
 10
55.7899616780004521
 20
182.9719681076290101
 30
0.0
  0
VERTEX
  5
2810
  8
0
 10
55.7378064002730298
 20
183.0621922251442868
 30
0.0
  0
VERTEX
  5
2811
  8
0
 10
55.6856786651356686
 20
183.1523678579696934
 30
0.0
  0
VERTEX
  5
2812
  8
0
 10
55.6335820760762729
 20
183.2424938414937969
 30
0.0
  0
VERTEX
  5
2813
  8
0
 10
55.5815202365827474
 20
183.3325690111055053
 30
0.0
  0
VERTEX
  5
2814
  8
0
 10
55.5294967501430108
 20
183.4225922021931012
 30
0.0
  0
VERTEX
  5
2815
  8
0
 10
55.4775140763098022
 20
183.5125631513265034
 30
0.0
  0
VERTEX
  5
2816
  8
0
 10
55.4255699377777376
 20
183.6024853267263097
 30
0.0
  0
VERTEX
  5
2817
  8
0
 10
55.3736608313392367
 20
183.6923631623670872
 30
0.0
  0
VERTEX
  5
2818
  8
0
 10
55.321783253784993
 20
183.7822010922247102
 30
0.0
  0
VERTEX
  5
2819
  8
0
 10
55.2699337019056074
 20
183.8720035502749965
 30
0.0
  0
VERTEX
  5
281A
  8
0
 10
55.218108672491752
 20
183.9617749704939911
 30
0.0
  0
VERTEX
  5
281B
  8
0
 10
55.1663046623340279
 20
184.0515197868573978
 30
0.0
  0
VERTEX
  5
281C
  8
0
 10
55.1145181682231211
 20
184.1412424333414037
 30
0.0
  0
VERTEX
  5
281D
  8
0
 10
55.0627456869496186
 20
184.2309473439217129
 30
0.0
  0
VERTEX
  5
281E
  8
0
 10
55.010983715304242
 20
184.3206389525743134
 30
0.0
  0
VERTEX
  5
281F
  8
0
 10
54.9592287500775285
 20
184.4103216932751081
 30
0.0
  0
VERTEX
  5
2820
  8
0
 10
54.9074772880601927
 20
184.5
 30
0.0
  0
SEQEND
  5
2821
  8
0
  0
POLYLINE
  5
213C
  8
0
 66
     1
 10
0.0
 20
0.0
 30
0.0
  0
VERTEX
  5
2822
  8
0
 10
54.9074772880601927
 20
184.5
 30
0.0
  0
VERTEX
  5
2823
  8
0
 10
54.8040295039306784
 20
184.4999925062166994
 30
0.0
  0
VERTEX
  5
2824
  8
0
 10
54.7005706165878678
 20
184.4999854214146922
 30
0.0
  0
VERTEX
  5
2825
  8
0
 10
54.5970895228184006
 20
184.4999791545751862
 30
0.0
  0
VERTEX
  5
2826
  8
0
 10
54.4935751194090017
 20
184.4999741146795031
 30
0.0
  0
VERTEX
  5
2827
  8
0
 10
54.390016303146318
 20
184.499970710708908
 30
0.0
  0
VERTEX
  5
2828
  8
0
 10
54.2864019708170531
 20
184.499969351644495
 30
0.0
  0
VERTEX
  5
2829
  8
0
 10
54.182723318704717
 20
184.4999704782098888
 30
0.0
  0
VERTEX
  5
282A
  8
0
 10
54.0789811414756798
 20
184.4999746636235045
 30
0.0
  0
VERTEX
  5
282B
  8
0
 10
53.9751787378102108
 20
184.4999825156691031
 30
0.0
  0
VERTEX
  5
282C
  8
0
 10
53.8713194063953722
 20
184.4999946421305879
 30
0.0
  0
VERTEX
  5
282D
  8
0
 10
53.7674064459182475
 20
184.500011650792004
 30
0.0
  0
VERTEX
  5
282E
  8
0
 10
53.6634431545676591
 20
184.5000341493199869
 30
0.0
  0
VERTEX
  5
282F
  8
0
 10
53.5594320740881287
 20
184.5000625676121047
 30
0.0
  0
VERTEX
  5
2830
  8
0
 10
53.4553734668049572
 20
184.5000967998877002
 30
0.0
  0
VERTEX
  5
2831
  8
0
 10
53.3512671674154078
 20
184.5001366398709877
 30
0.0
  0
VERTEX
  5
2832
  8
0
 10
53.247113010616907
 20
184.5001818812856982
 30
0.0
  0
VERTEX
  5
2833
  8
0
 10
53.1429108311068319
 20
184.5002323178563017
 30
0.0
  0
VERTEX
  5
2834
  8
0
 10
53.0386604697151469
 20
184.5002877170753095
 30
0.0
  0
VERTEX
  5
2835
  8
0
 10
52.9343622508353135
 20
184.5003457780632061
 30
0.0
  0
VERTEX
  5
2836
  8
0
 10
52.8300173237108979
 20
184.5004006717651066
 30
0.0
  0
VERTEX
  5
2837
  8
0
 10
52.7256269181385235
 20
184.5004462245721868
 30
0.0
  0
VERTEX
  5
2838
  8
0
 10
52.621192263914871
 20
184.5004762628755088
 30
0.0
  0
VERTEX
  5
2839
  8
0
 10
52.5167145908365924
 20
184.5004846130657938
 30
0.0
  0
VERTEX
  5
283A
  8
0
 10
52.4121951288872765
 20
184.5004654423615023
 30
0.0
  0
VERTEX
  5
283B
  8
0
 10
52.3076351113659328
 20
184.5004189621996034
 30
0.0
  0
VERTEX
  5
283C
  8
0
 10
52.2030357744176499
 20
184.5003505727862034
 30
0.0
  0
VERTEX
  5
283D
  8
0
 10
52.0983983542800502
 20
184.5002658428149971
 30
0.0
  0
VERTEX
  5
283E
  8
0
 10
51.9937240871906567
 20
184.5001703409795937
 30
0.0
  0
VERTEX
  5
283F
  8
0
 10
51.8890142093870494
 20
184.5000696359736878
 30
0.0
  0
VERTEX
  5
2840
  8
0
 10
51.7842699571067726
 20
184.4999692964908888
 30
0.0
  0
VERTEX
  5
2841
  8
0
 10
51.6794925665873777
 20
184.4998748912248061
 30
0.0
  0
VERTEX
  5
2842
  8
0
 10
51.5746833007610803
 20
184.4997917645677035
 30
0.0
  0
VERTEX
  5
2843
  8
0
 10
51.4698437922818925
 20
184.4997221543304988
 30
0.0
  0
VERTEX
  5
2844
  8
0
 10
51.3649759439477407
 20
184.4996660284440964
 30
0.0
  0
VERTEX
  5
2845
  8
0
 10
51.260081664718939
 20
184.4996233030603889
 30
0.0
  0
VERTEX
  5
2846
  8
0
 10
51.1551628635557094
 20
184.4995938943310989
 30
0.0
  0
VERTEX
  5
2847
  8
0
 10
51.0502214494183804
 20
184.4995777184082897
 30
0.0
  0
VERTEX
  5
2848
  8
0
 10
50.945259331267259
 20
184.499574691443712
 30
0.0
  0
VERTEX
  5
2849
  8
0
 10
50.8402784180625815
 20
184.4995847295890883
 30
0.0
  0
VERTEX
  5
284A
  8
0
 10
50.7352806374197769
 20
184.4996076067442914
 30
0.0
  0
VERTEX
  5
284B
  8
0
 10
50.6302680482694711
 20
184.4996420954819882
 30
0.0
  0
VERTEX
  5
284C
  8
0
 10
50.5252427659266914
 20
184.4996865384235036
 30
0.0
  0
VERTEX
  5
284D
  8
0
 10
50.4202069059235214
 20
184.4997392765349957
 30
0.0
  0
VERTEX
  5
284E
  8
0
 10
50.3151625837920164
 20
184.49979865078231
 30
0.0
  0
VERTEX
  5
284F
  8
0
 10
50.2101119150642887
 20
184.4998630021314909
 30
0.0
  0
VERTEX
  5
2850
  8
0
 10
50.1050570152724006
 20
184.4999306715488103
 30
0.0
  0
VERTEX
  5
2851
  8
0
 10
49.9999999999484075
 20
184.5
 30
0.0
  0
SEQEND
  5
2852
  8
0
  0
POLYLINE
  5
213D
  8
0
 66
     1
 10
0.0
 20
0.0
 30
0.0
  0
VERTEX
  5
2853
  8
0
 10
49.9999999999483791
 20
167.5
 30
0.0
  0
VERTEX
  5
2854
  8
0
 10
50.105052479340479
 20
167.5000483840937875
 30
0.0
  0
VERTEX
  5
2855
  8
0
 10
50.2101028870011135
 20
167.5000981909288953
 30
0.0
  0
VERTEX
  5
2856
  8
0
 10
50.3151491511987885
 20
167.5001508432467858
 30
0.0
  0
VERTEX
  5
2857
  8
0
 10
50.42018920020206
 20
167.5002077637888078
 30
0.0
  0
VERTEX
  5
2858
  8
0
 10
50.5252209619666175
 20
167.5002703444810095
 30
0.0
  0
VERTEX
  5
2859
  8
0
 10
50.6302423379894506
 20
167.5003373709091079
 30
0.0
  0
VERTEX
  5
285A
  8
0
 10
50.7352511835907123
 20
167.5004030799802877
 30
0.0
  0
VERTEX
  5
285B
  8
0
 10
50.8402453494466613
 20
167.5004612511388018
 30
0.0
  0
VERTEX
  5
285C
  8
0
 10
50.9452226862334783
 20
167.5005056638293865
 30
0.0
  0
VERTEX
  5
285D
  8
0
 10
51.0501810580628899
 20
167.5005303606961888
 30
0.0
  0
VERTEX
  5
285E
  8
0
 10
51.1551185263133519
 20
167.5005332488264003
 30
0.0
  0
VERTEX
  5
285F
  8
0
 10
51.2600333023156622
 20
167.5005151728607871
 30
0.0
  0
VERTEX
  5
2860
  8
0
 10
51.3649236011495134
 20
167.5004770508809884
 30
0.0
  0
VERTEX
  5
2861
  8
0
 10
51.4697876378945693
 20
167.5004198009685012
 30
0.0
  0
VERTEX
  5
2862
  8
0
 10
51.57462361170073
 20
167.5003449702903993
 30
0.0
  0
VERTEX
  5
2863
  8
0
 10
51.6794296392094168
 20
167.5002573643672861
 30
0.0
  0
VERTEX
  5
2864
  8
0
 10
51.7842038104295099
 20
167.5001628404673113
 30
0.0
  0
VERTEX
  5
2865
  8
0
 10
51.8889442153567799
 20
167.5000672563778892
 30
0.0
  0
VERTEX
  5
2866
  8
0
 10
51.9936489465888769
 20
167.4999764655727006
 30
0.0
  0
VERTEX
  5
2867
  8
0
 10
52.0983167612566618
 20
167.4998952197321955
 30
0.0
  0
VERTEX
  5
2868
  8
0
 10
52.2029479588787027
 20
167.4998257132650963
 30
0.0
  0
VERTEX
  5
2869
  8
0
 10
52.3075430572504203
 20
167.4997697786778872
 30
0.0
  0
VERTEX
  5
286A
  8
0
 10
52.4121025741672213
 20
167.4997292484771947
 30
0.0
  0
VERTEX
  5
286B
  8
0
 10
52.5166269946019497
 20
167.499705913335589
 30
0.0
  0
VERTEX
  5
286C
  8
0
 10
52.6211154477830121
 20
167.4996998359636109
 30
0.0
  0
VERTEX
  5
286D
  8
0
 10
52.7255652541912312
 20
167.4997087737347101
 30
0.0
  0
VERTEX
  5
286E
  8
0
 10
52.8299736085171787
 20
167.4997303236968946
 30
0.0
  0
VERTEX
  5
286F
  8
0
 10
52.934337705451469
 20
167.4997620828982861
 30
0.0
  0
VERTEX
  5
2870
  8
0
 10
53.0386547396847732
 20
167.4998016483866934
 30
0.0
  0
VERTEX
  5
2871
  8
0
 10
53.142921905907663
 20
167.4998466172102098
 30
0.0
  0
VERTEX
  5
2872
  8
0
 10
53.2471363988107385
 20
167.4998945864165876
 30
0.0
  0
VERTEX
  5
2873
  8
0
 10
53.3512954130846424
 20
167.4999431530540903
 30
0.0
  0
VERTEX
  5
2874
  8
0
 10
53.4553961434199891
 20
167.4999899141704134
 30
0.0
  0
VERTEX
  5
2875
  8
0
 10
53.5594357845074001
 20
167.5000324668137068
 30
0.0
  0
VERTEX
  5
2876
  8
0
 10
53.6634115310374611
 20
167.5000684080318081
 30
0.0
  0
VERTEX
  5
2877
  8
0
 10
53.7673215445845969
 20
167.5000956995106094
 30
0.0
  0
VERTEX
  5
2878
  8
0
 10
53.8711695075837724
 20
167.5001143850006997
 30
0.0
  0
VERTEX
  5
2879
  8
0
 10
53.974961058907212
 20
167.5001252460778005
 30
0.0
  0
VERTEX
  5
287A
  8
0
 10
54.0787018397225268
 20
167.5001290651831027
 30
0.0
  0
VERTEX
  5
287B
  8
0
 10
54.1823974911972428
 20
167.5001266247579963
 30
0.0
  0
VERTEX
  5
287C
  8
0
 10
54.2860536544989429
 20
167.5001187072437858
 30
0.0
  0
VERTEX
  5
287D
  8
0
 10
54.3896759707952171
 20
167.5001060950818044
 30
0.0
  0
VERTEX
  5
287E
  8
0
 10
54.4932700812536481
 20
167.500089570713186
 30
0.0
  0
VERTEX
  5
287F
  8
0
 10
54.5968416270417833
 20
167.5000699165794913
 30
0.0
  0
VERTEX
  5
2880
  8
0
 10
54.7003962493272127
 20
167.5000479151217974
 30
0.0
  0
VERTEX
  5
2881
  8
0
 10
54.8039395892774905
 20
167.5000243487816078
 30
0.0
  0
VERTEX
  5
2882
  8
0
 10
54.9074772880601927
 20
167.5
 30
0.0
  0
SEQEND
  5
2883
  8
0
  0
POLYLINE
  5
213E
  8
0
 66
     1
 10
0.0
 20
0.0
 30
0.0
  0
VERTEX
  5
2884
  8
0
 10
54.9074772880601927
 20
167.5
 30
0.0
  0
VERTEX
  5
2885
  8
0
 10
54.9591936488136525
 20
167.5895934843339887
 30
0.0
  0
VERTEX
  5
2886
  8
0
 10
55.0109157852596411
 20
167.6791963587220096
 30
0.0
  0
VERTEX
  5
2887
  8
0
 10
55.0626494730907083
 20
167.7688180132178957
 30
0.0
  0
VERTEX
  5
2888
  8
0
 10
55.1144004879993972
 20
167.8584678378755939
 30
0.0
  0
VERTEX
  5
2889
  8
0
 10
55.1661746056782292
 20
167.9481552227489942
 30
0.0
  0
VERTEX
  5
288A
  8
0
 10
55.2179776018197401
 20
168.037889557892214
 30
0.0
  0
VERTEX
  5
288B
  8
0
 10
55.2698143052593522
 20
168.1276784728567009
 30
0.0
  0
VERTEX
  5
288C
  8
0
 10
55.3216850500897692
 20
168.2175212400678106
 30
0.0
  0
VERTEX
  5
288D
  8
0
 10
55.373588838061842
 20
168.3074146547120904
 30
0.0
  0
VERTEX
  5
288E
  8
0
 10
55.425524670717607
 20
168.3973555115883869
 30
0.0
  0
VERTEX
  5
288F
  8
0
 10
55.4774915495992502
 20
168.4873406054952056
 30
0.0
  0
VERTEX
  5
2890
  8
0
 10
55.5294884762491279
 20
168.5773667312323028
 30
0.0
  0
VERTEX
  5
2891
  8
0
 10
55.5815146082730323
 20
168.6674312778970091
 30
0.0
  0
VERTEX
  5
2892
  8
0
 10
55.6335697053577007
 20
168.7575339273419956
 30
0.0
  0
VERTEX
  5
2893
  8
0
 10
55.6856536723622568
 20
168.8476749142448909
 30
0.0
  0
VERTEX
  5
2894
  8
0
 10
55.7377664141459306
 20
168.9378544732828971
 30
0.0
  0
VERTEX
  5
2895
  8
0
 10
55.7899078355679592
 20
169.0280728391335003
 30
0.0
  0
VERTEX
  5
2896
  8
0
 10
55.8420778362964327
 20
169.1183302480141037
 30
0.0
  0
VERTEX
  5
2897
  8
0
 10
55.894274782748063
 20
169.2086273910215937
 30
0.0
  0
VERTEX
  5
2898
  8
0
 10
55.9464933786062488
 20
169.2989660458987942
 30
0.0
  0
VERTEX
  5
2899
  8
0
 10
55.9987277921749111
 20
169.3893481492233946
 30
0.0
  0
VERTEX
  5
289A
  8
0
 10
56.0509721917578574
 20
169.4797756375726863
 30
0.0
  0
VERTEX
  5
289B
  8
0
 10
56.1032207456589376
 20
169.5702504475241881
 30
0.0
  0
VERTEX
  5
289C
  8
0
 10
56.1554677276197722
 20
169.6607744546925005
 30
0.0
  0
VERTEX
  5
289D
  8
0
 10
56.2077115455362772
 20
169.7513471443704987
 30
0.0
  0
VERTEX
  5
289E
  8
0
 10
56.2599559982067987
 20
169.841964884891695
 30
0.0
  0
VERTEX
  5
289F
  8
0
 10
56.3122052467811613
 20
169.9326238350824099
 30
0.0
  0
VERTEX
  5
28A0
  8
0
 10
56.3644634524091828
 20
170.0233201537683101
 30
0.0
  0
VERTEX
  5
28A1
  8
0
 10
56.4167347762407019
 20
170.1140499997756876
 30
0.0
  0
VERTEX
  5
28A2
  8
0
 10
56.4690233794255505
 20
170.2048095319304934
 30
0.0
  0
VERTEX
  5
28A3
  8
0
 10
56.5213334231135605
 20
170.2955949090589058
 30
0.0
  0
VERTEX
  5
28A4
  8
0
 10
56.5736689476642027
 20
170.3864023420661056
 30
0.0
  0
VERTEX
  5
28A5
  8
0
 10
56.6260314119330701
 20
170.4772291548850092
 30
0.0
  0
VERTEX
  5
28A6
  8
0
 10
56.678419798027619
 20
170.5680737393099946
 30
0.0
  0
VERTEX
  5
28A7
  8
0
 10
56.7308329882271494
 20
170.6589345301767082
 30
0.0
  0
VERTEX
  5
28A8
  8
0
 10
56.7832698648111318
 20
170.7498099623207111
 30
0.0
  0
VERTEX
  5
28A9
  8
0
 10
56.8357293100589018
 20
170.8406984705779053
 30
0.0
  0
VERTEX
  5
28AA
  8
0
 10
56.8882102062498518
 20
170.9315984897837097
 30
0.0
  0
VERTEX
  5
28AB
  8
0
 10
56.9407114356633599
 20
171.0225084547739129
 30
0.0
  0
VERTEX
  5
28AC
  8
0
 10
56.9932317823403025
 20
171.1134268399779899
 30
0.0
  0
VERTEX
  5
28AD
  8
0
 10
57.0457692132776515
 20
171.2043524491240873
 30
0.0
  0
VERTEX
  5
28AE
  8
0
 10
57.0983212903610067
 20
171.2952842492152001
 30
0.0
  0
VERTEX
  5
28AF
  8
0
 10
57.1508855725660396
 20
171.386221208427088
 30
0.0
  0
VERTEX
  5
28B0
  8
0
 10
57.2034596188683793
 20
171.4771622949357095
 30
0.0
  0
VERTEX
  5
28B1
  8
0
 10
57.2560409882437398
 20
171.5681064769169097
 30
0.0
  0
VERTEX
  5
28B2
  8
0
 10
57.308627239667743
 20
171.6590527225463916
 30
0.0
  0
VERTEX
  5
28B3
  8
0
 10
57.361215932116103
 20
171.75
 30
0.0
  0
SEQEND
  5
28B4
  8
0
  0
LINE
  5
213F
  8
1
 10
33.5
 20
50.0
 30
0.0
 11
66.5
 21
50.0
 31
0.0
  0
LINE
  5
2140
  8
1
 10
50.0
 20
66.5
 30
0.0
 11
50.0
 21
33.5
 31
0.0
  0
LINE
  5
2141
  8
1
 10
49.9999999999737881
 20
159.5000000000262048
 30
0.0
 11
49.9999999999737881
 21
192.5000000000262048
 31
0.0
  0
LINE
  5
2142
  8
1
 10
33.4999999999737881
 20
176.0000000000262048
 30
0.0
 11
66.4999999999737952
 21
176.0000000000262048
 31
0.0
  0
LINE
  5
2144
  8
1
 10
110.0
 20
139.0
 30
0.0
 11
110.0
 21
87.0000000000000142
 31
0.0
  0
LINE
  5
2146
  8
1
 10
50.0000000000000284
 20
139.0
 30
0.0
 11
50.0
 21
87.0000000000000142
 31
0.0
  0
CIRCLE
  5
2151
  8
3
 10
49.9999999999737881
 20
176.0000000000262048
 30
0.0
 40
5.7225000000000001
  0
LINE
  5
2152
  8
3
 10
115.7224999999998971
 20
136.0
 30
0.0
 11
115.7224999999998971
 21
124.0
 31
0.0
  0
LINE
  5
2153
  8
3
 10
104.2774999999999039
 20
135.9999999999998863
 30
0.0
 11
104.2774999999999039
 21
124.0
 31
0.0
  0
LINE
  5
2154
  8
3
 10
44.2775000000000531
 20
136.0
 30
0.0
 11
44.2775000000000887
 21
124.0
 31
0.0
  0
LINE
  5
2155
  8
3
 10
55.7225000000000819
 20
135.9999999999998863
 30
0.0
 11
55.7225000000000819
 21
124.0
 31
0.0
  0
VIEWPORT
  5
22
 67
     1
  8
0
 10
261.517699115044195
 20
148.5
 30
0.0
 40
523.0353982300885036
 41
297.0
 68
     1
 69
     1
1001
ACAD
1000
MVIEW
1002
{
1070
    16
1010
0.0
1020
0.0
1030
0.0
1010
0.0
1020
0.0
1030
1.0
1040
0.0
1040
297.0
1040
261.517699115044195
1040
148.5
1040
50.0
1040
0.0
1040
0.0
1070
     0
1070
   100
1070
     1
1070
     1
1070
     0
1070
     0
1070
     0
1070
     0
1040
0.0
1040
0.0
1040
0.0
1040
1.0
1040
1.0
1040
10.0
1040
10.0
1070
     0
1002
{
1002
}
1002
}
  0
ENDSEC
  0
EOF
