  0
SECTION
  2
HEADER
  9
$ACADVER
  1
AC1009
  9
$INSBASE
 10
0.0
 20
0.0
 30
0.0
  9
$EXTMIN
 10
0.0
 20
-2.960436562073669
 30
0.0
  9
$EXTMAX
 10
98.5000000000000142
 20
141.0
 30
0.0
  9
$LIMMIN
 10
0.0
 20
0.0
  9
$LIMMAX
 10
400.0
 20
277.0
  9
$ORTHOMODE
 70
     1
  9
$REGENMODE
 70
     1
  9
$FILLMODE
 70
     1
  9
$QTEXTMODE
 70
     0
  9
$MIRRTEXT
 70
     1
  9
$DRAGMODE
 70
     2
  9
$LTSCALE
 40
5.0
  9
$OSMODE
 70
    37
  9
$ATTMODE
 70
     1
  9
$TEXTSIZE
 40
2.5
  9
$TRACEWID
 40
1.0
  9
$TEXTSTYLE
  7
STANDARD
  9
$CLAYER
  8
0
  9
$CELTYPE
  6
BYLAYER
  9
$CECOLOR
 62
   256
  9
$DIMSCALE
 40
1.0
  9
$DIMASZ
 40
3.0
  9
$DIMEXO
 40
1.0
  9
$DIMDLI
 40
6.0
  9
$DIMRND
 40
0.0
  9
$DIMDLE
 40
0.0
  9
$DIMEXE
 40
1.0
  9
$DIMTP
 40
495.0
  9
$DIMTM
 40
0.0
  9
$DIMTXT
 40
3.0
  9
$DIMCEN
 40
0.0
  9
$DIMTSZ
 40
0.0
  9
$DIMTOL
 70
     0
  9
$DIMLIM
 70
     0
  9
$DIMTIH
 70
     0
  9
$DIMTOH
 70
     0
  9
$DIMSE1
 70
     0
  9
$DIMSE2
 70
     0
  9
$DIMTAD
 70
     3
  9
$DIMZIN
 70
     8
  9
$DIMBLK
  1

  9
$DIMASO
 70
     0
  9
$DIMSHO
 70
     1
  9
$DIMPOST
  1

  9
$DIMAPOST
  1

  9
$DIMALT
 70
     0
  9
$DIMALTD
 70
     2
  9
$DIMALTF
 40
25.3999999999999986
  9
$DIMLFAC
 40
1.0
  9
$DIMTOFL
 70
     1
  9
$DIMTVP
 40
0.0
  9
$DIMTIX
 70
     1
  9
$DIMSOXD
 70
     0
  9
$DIMSAH
 70
     1
  9
$DIMBLK1
  1
ARROW1
  9
$DIMBLK2
  1
ARROW1
  9
$DIMSTYLE
  2
ITM
  9
$DIMCLRD
 70
     4
  9
$DIMCLRE
 70
     4
  9
$DIMCLRT
 70
     4
  9
$DIMTFAC
 40
1.0
  9
$DIMGAP
 40
1.0
  9
$LUNITS
 70
     2
  9
$LUPREC
 70
     1
  9
$SKETCHINC
 40
1.0
  9
$FILLETRAD
 40
0.0
  9
$AUNITS
 70
     0
  9
$AUPREC
 70
     0
  9
$MENU
  1
.
  9
$ELEVATION
 40
0.0
  9
$PELEVATION
 40
0.0
  9
$THICKNESS
 40
0.0
  9
$LIMCHECK
 70
     0
  9
$BLIPMODE
 70
     0
  9
$CHAMFERA
 40
10.0
  9
$CHAMFERB
 40
10.0
  9
$SKPOLY
 70
     0
  9
$TDCREATE
 40
2451415.6127083338797092
  9
$TDUPDATE
 40
2460886.7184143518097699
  9
$TDINDWG
 40
0.3383812616
  9
$TDUSRTIMER
 40
0.3383812616
  9
$USRTIMER
 70
     1
  9
$ANGBASE
 50
0.0
  9
$ANGDIR
 70
     0
  9
$PDMODE
 70
     0
  9
$PDSIZE
 40
0.0
  9
$PLINEWID
 40
0.0
  9
$COORDS
 70
     1
  9
$SPLFRAME
 70
     0
  9
$SPLINETYPE
 70
     6
  9
$SPLINESEGS
 70
     8
  9
$ATTDIA
 70
     1
  9
$ATTREQ
 70
     1
  9
$HANDLING
 70
     1
  9
$HANDSEED
  5
254E
  9
$SURFTAB1
 70
     6
  9
$SURFTAB2
 70
     6
  9
$SURFTYPE
 70
     6
  9
$SURFU
 70
     6
  9
$SURFV
 70
     6
  9
$UCSNAME
  2

  9
$UCSORG
 10
0.0
 20
0.0
 30
0.0
  9
$UCSXDIR
 10
1.0
 20
0.0
 30
0.0
  9
$UCSYDIR
 10
0.0
 20
1.0
 30
0.0
  9
$PUCSNAME
  2

  9
$PUCSORG
 10
0.0
 20
0.0
 30
0.0
  9
$PUCSXDIR
 10
1.0
 20
0.0
 30
0.0
  9
$PUCSYDIR
 10
0.0
 20
1.0
 30
0.0
  9
$USERI1
 70
     3
  9
$USERI2
 70
     1
  9
$USERI3
 70
     1
  9
$USERI4
 70
     0
  9
$USERI5
 70
     0
  9
$USERR1
 40
1.0
  9
$USERR2
 40
3.0
  9
$USERR3
 40
3.0
  9
$USERR4
 40
3.0
  9
$USERR5
 40
10.0
  9
$WORLDVIEW
 70
     1
  9
$SHADEDGE
 70
     3
  9
$SHADEDIF
 70
    70
  9
$TILEMODE
 70
     1
  9
$MAXACTVP
 70
    16
  9
$PLIMCHECK
 70
     0
  9
$PEXTMIN
 10
1.0000000000000000E+20
 20
1.0000000000000000E+20
 30
1.0000000000000000E+20
  9
$PEXTMAX
 10
-1.0000000000000000E+20
 20
-1.0000000000000000E+20
 30
-1.0000000000000000E+20
  9
$PLIMMIN
 10
0.0
 20
0.0
  9
$PLIMMAX
 10
420.0
 20
297.0
  9
$UNITMODE
 70
     0
  9
$VISRETAIN
 70
     0
  9
$PLINEGEN
 70
     0
  9
$PSLTSCALE
 70
     1
  0
ENDSEC
  0
SECTION
  2
TABLES
  0
TABLE
  2
VPORT
 70
     1
  0
VPORT
  2
*ACTIVE
 70
     0
 10
0.0
 20
0.0
 11
1.0
 21
1.0
 12
199.8363338788871033
 22
85.3912421994202191
 13
0.0
 23
0.0
 14
10.0
 24
10.0
 15
10.0
 25
10.0
 16
0.0
 26
0.0
 36
1.0
 17
0.0
 27
0.0
 37
0.0
 40
170.7824843988404098
 41
2.340243902439024
 42
50.0
 43
0.0
 44
0.0
 50
0.0
 51
0.0
 71
     0
 72
   100
 73
     1
 74
     1
 75
     0
 76
     0
 77
     0
 78
     0
  0
ENDTAB
  0
TABLE
  2
LTYPE
 70
     3
  0
LTYPE
  2
CONTINUOUS
 70
     0
  3
Solid line
 72
    65
 73
     0
 40
0.0
  0
LTYPE
  2
CENTER
 70
     0
  3
____ _ ____ _ ____ _ ____ _ ____ _ ____ _ ____ 
 72
    65
 73
     4
 40
2.0
 49
1.25
 49
-0.25
 49
0.25
 49
-0.25
  0
LTYPE
  2
PHANTOM2
 70
     0
  3
___ _ _ ___ _ _ ___ _ _ ___ _ _
 72
    65
 73
     6
 40
1.25
 49
0.625
 49
-0.125
 49
0.125
 49
-0.125
 49
0.125
 49
-0.125
  0
ENDTAB
  0
TABLE
  2
LAYER
 70
     5
  0
LAYER
  2
0
 70
     0
 62
     7
  6
CONTINUOUS
  0
LAYER
  2
WAKU
 70
     0
 62
     5
  6
CONTINUOUS
  0
LAYER
  2
1
 70
     0
 62
     1
  6
CENTER
  0
LAYER
  2
3
 70
     0
 62
     3
  6
CONTINUOUS
  0
LAYER
  2
DEFPOINTS
 70
     0
 62
     7
  6
CONTINUOUS
  0
ENDTAB
  0
TABLE
  2
STYLE
 70
     3
  0
STYLE
  2
STANDARD
 70
     0
 40
0.0
 41
1.0
 50
0.0
 71
     0
 42
2.5
  3
ROMANS
  4
EXTFONT
  0
STYLE
  2
K
 70
     0
 40
0.0
 41
1.0
 50
0.0
 71
     0
 42
3.0
  3
ROMANS
  4
bigfont
  0
STYLE
  2
STANDARD1
 70
     0
 40
0.0
 41
1.0
 50
0.0
 71
     0
 42
3.0
  3
txt
  4

  0
ENDTAB
  0
TABLE
  2
VIEW
 70
     0
  0
ENDTAB
  0
TABLE
  2
UCS
 70
     0
  0
ENDTAB
  0
TABLE
  2
APPID
 70
    44
  0
APPID
  2
ACAD
 70
     0
  0
APPID
  2
ACAD_NAV_VCDISPLAY
 70
     0
  0
APPID
  2
DCO15
 70
     0
  0
APPID
  2
GENIUS_GENOREF_13
 70
     0
  0
APPID
  2
GENIUS_GENOENT_13
 70
     0
  0
APPID
  2
GENIUS_GENBH_13
 70
     0
  0
APPID
  2
GENIUS_GENOBJ_13
 70
     0
  0
APPID
  2
GENIUS_GENODEF_13
 70
     0
  0
APPID
  2
GENIUS_GENOLIS_13
 70
     0
  0
APPID
  2
GENIUS_GENOBJ-NBEHI-BHF_13
 70
     0
  0
APPID
  2
GENIUS_GENOBJ-NBEHI-BHB_13
 70
     0
  0
APPID
  2
GENIUS_GENOBJ-F-PART_13
 70
     0
  0
APPID
  2
GENIUS_GEFSTDP_13
 70
     0
  0
APPID
  2
GENIUS_GENOBJ-N-RSSYM_13
 70
     0
  0
APPID
  2
GENIUS_GENSYMENT_13
 70
     0
  0
APPID
  2
GENIUS_GENOBJ-N-TIT_13
 70
     0
  0
APPID
  2
GENIUS_GENTITLE_13
 70
     0
  0
APPID
  2
GENIUS_GENZVEED_13
 70
     0
  0
APPID
  2
GENIUS_GENOBJ-N-LEADER_13
 70
     0
  0
APPID
  2
GENIUS_GENOBJ-N-FIL_13
 70
     0
  0
APPID
  2
GENIUS_GENOBJ-N-SEC_13
 70
     0
  0
APPID
  2
GENIUS_GENOBJ-N-CRS_13
 70
     0
  0
APPID
  2
GENIUS_GENOBJ-N-ZOO_13
 70
     0
  0
APPID
  2
GENIUS_GENZOO_13
 70
     0
  0
APPID
  2
GENIUS_GENOBJ-F-TOL_13
 70
     0
  0
APPID
  2
GENIUS_GENFIL_13
 70
     0
  0
APPID
  2
GENIUS_GENOBJ-N-CHA_13
 70
     0
  0
APPID
  2
_CALL_MAC$
 70
     0
  0
APPID
  2
ASM_BASE
 70
     0
  0
APPID
  2
ASM_EXPLO_VER_2_00
 70
     0
  0
APPID
  2
ASM_CADM_VER_12_00
 70
     0
  0
APPID
  2
ASM_BASEFORO
 70
     0
  0
APPID
  2
ASM_BASETRAVI
 70
     0
  0
APPID
  2
ASM_BASETRAVI1
 70
     0
  0
APPID
  2
ASM_GRUPPI
 70
     0
  0
APPID
  2
ASM_CADM_ALBERO
 70
     0
  0
APPID
  2
ASM_GOLE
 70
     0
  0
APPID
  2
ACAD_EXEMPT_FROM_CAD_STANDARDS
 70
     0
  0
APPID
  2
ACAD_DSTYLE_DIMJAG
 70
     0
  0
APPID
  2
ACAD_DSTYLE_DIMTALN
 70
     0
  0
APPID
  2
GRADIENTCOLOR1ACI
 70
     0
  0
APPID
  2
GRADIENTCOLOR2ACI
 70
     0
  0
APPID
  2
ACAD_MLEADERVER
 70
     0
  0
APPID
  2
ACAD_TC
 70
     0
  0
ENDTAB
  0
TABLE
  2
DIMSTYLE
 70
     2
  0
DIMSTYLE
  2
STANDARD
 70
     0
  3

  4

  5

  6

  7

 40
1.0
 41
0.18
 42
0.0625
 43
0.38
 44
0.18
 45
0.0
 46
0.0
 47
0.0
 48
0.0
140
0.18
141
0.09
142
0.0
143
25.3999999999999986
144
1.0
145
0.0
146
1.0
147
0.09
 71
     0
 72
     0
 73
     1
 74
     1
 75
     0
 76
     0
 77
     0
 78
     0
170
     0
171
     2
172
     0
173
     0
174
     0
175
     0
176
     0
177
     0
178
     0
  0
DIMSTYLE
  2
ITM
 70
     0
  3

  4

  5
ARROWANG
  6
ARROWANG
  7
ARROWANG
 40
1.0
 41
1.5
 42
1.0
 43
6.0
 44
1.0
 45
0.0
 46
0.0
 47
495.0
 48
0.0
140
3.0
141
0.0
142
0.0
143
25.3999999999999986
144
1.0
145
0.0
146
1.0
147
0.5
 71
     0
 72
     0
 73
     0
 74
     0
 75
     0
 76
     0
 77
     3
 78
     8
170
     0
171
     2
172
     1
173
     1
174
     1
175
     0
176
     0
177
     0
178
     0
  0
ENDTAB
  0
ENDSEC
  0
SECTION
  2
BLOCKS
  0
BLOCK
  8
0
  2
$MODEL_SPACE
 70
     0
 10
0.0
 20
0.0
 30
0.0
  3
$MODEL_SPACE
  1

  0
ENDBLK
  5
1C
  8
0
  0
BLOCK
 67
     1
  8
0
  2
$PAPER_SPACE
 70
     0
 10
0.0
 20
0.0
 30
0.0
  3
$PAPER_SPACE
  1

  0
ENDBLK
  5
19
 67
     1
  8
0
  0
BLOCK
  8
0
  2
ARROWANG
 70
     0
 10
0.0
 20
0.0
 30
0.0
  3
ARROWANG
  1

  0
LINE
  5
C9
  8
0
 10
0.0
 20
0.0
 30
0.0
 11
-1.4999999999999429
 21
0.4019237886467409
 31
0.0
  0
LINE
  5
CA
  8
0
 10
0.0
 20
0.0
 30
0.0
 11
-1.5
 21
-0.4019237886467124
 31
0.0
  0
ENDBLK
  5
CB
  8
0
  0
BLOCK
  8
0
  2
ARROW1
 70
     0
 10
0.0
 20
0.0
 30
0.0
  3
ARROW1
  1

  0
SOLID
  5
EE
  8
WAKU
  6
CONTINUOUS
 62
     4
 10
-1.0
 20
0.1666666666666714
 30
0.0
 11
-1.0
 21
-0.1666666666666714
 31
0.0
 12
0.0
 22
0.0
 32
0.0
 13
0.0
 23
0.0
 33
0.0
  0
ENDBLK
  5
F0
  8
0
  0
ENDSEC
  0
SECTION
  2
ENTITIES
  0
TEXT
  5
1BB9
  8
0
 62
     3
 10
0.0
 20
0.0
 30
0.0
 40
10.0
  1
VVA17-S-M5
  7
STANDARD1
  0
CIRCLE
  5
1DC8
  8
0
 10
50.0
 20
129.5
 30
0.0
 40
2.1934999999999989
  0
CIRCLE
  5
1DC9
  8
0
 10
50.0
 20
129.5
 30
0.0
 40
2.5
  0
CIRCLE
  5
1DCA
  8
0
 10
50.0
 20
129.5
 30
0.0
 40
1.3800000000000101
  0
ARC
  5
1DCB
  8
0
 10
50.0
 20
129.5
 30
0.0
 40
4.5000000000000044
 50
302.7637619515004985
 51
356.9251062736001927
  0
ARC
  5
1DCC
  8
0
 10
50.0
 20
129.5
 30
0.0
 40
4.4999999999999947
 50
243.0547536977994127
 51
296.9114882454989015
  0
ARC
  5
1DCD
  8
0
 10
50.0
 20
129.5
 30
0.0
 40
4.4999999999999991
 50
183.104524020299209
 51
237.1576728637012934
  0
ARC
  5
1DCE
  8
0
 10
50.0
 20
129.5
 30
0.0
 40
4.5000000000000258
 50
122.8096540762001041
 51
176.971528290899812
  0
ARC
  5
1DCF
  8
0
 10
50.0
 20
129.5
 30
0.0
 40
4.5000000000000151
 50
63.0101125527996686
 51
116.8894466873996976
  0
ARC
  5
1DD0
  8
0
 10
50.0
 20
129.5
 30
0.0
 40
4.4999999999999982
 50
3.0039556796989091
 51
57.0874550112989922
  0
CIRCLE
  5
1DD1
  8
0
 10
50.0
 20
129.5
 30
0.0
 40
8.5
  0
LINE
  5
1DD2
  8
0
 10
58.5
 20
80.0
 30
0.0
 11
54.5
 21
82.3094010767999862
 31
0.0
  0
LINE
  5
1DD3
  8
0
 10
45.4999999999999929
 20
82.3094010767999862
 30
0.0
 11
41.5
 21
80.0
 31
0.0
  0
LINE
  5
1DD4
  8
0
 10
54.5
 20
82.3094010767999862
 30
0.0
 11
54.5
 21
90.5
 31
0.0
  0
LINE
  5
1DD5
  8
0
 10
45.4999999999999929
 20
90.5
 30
0.0
 11
45.4999999999999929
 21
82.3094010767999862
 31
0.0
  0
ARC
  5
1DD6
  8
0
 10
54.0
 20
90.5
 30
0.0
 40
0.5
 50
0.0
 51
90.0
  0
ARC
  5
1DD7
  8
0
 10
46.0
 20
90.5
 30
0.0
 40
0.5
 50
90.0
 51
180.0
  0
LINE
  5
1DD8
  8
0
 10
47.5
 20
96.8064999999999856
 30
0.0
 11
47.8064999999999998
 21
96.5
 31
0.0
  0
LINE
  5
1DD9
  8
0
 10
52.1935000000000002
 20
96.5
 30
0.0
 11
52.5
 21
96.8064999999999856
 31
0.0
  0
LINE
  5
1DDA
  8
0
 10
52.5
 20
96.8064999999999856
 30
0.0
 11
52.5
 21
99.1935000000000144
 31
0.0
  0
LINE
  5
1DDB
  8
0
 10
47.5
 20
99.1935000000000144
 30
0.0
 11
47.5
 21
96.8064999999999856
 31
0.0
  0
LINE
  5
1DDC
  8
0
 10
52.5
 20
99.1935000000000144
 30
0.0
 11
52.1935000000000002
 21
99.5000000000000142
 31
0.0
  0
LINE
  5
1DDD
  8
0
 10
47.8064999999999998
 20
99.5000000000000142
 30
0.0
 11
47.5
 21
99.1935000000000144
 31
0.0
  0
LINE
  5
1DDE
  8
0
 10
52.0999999999999872
 20
95.5
 30
0.0
 11
52.0999999999999872
 21
96.5
 31
0.0
  0
LINE
  5
1DDF
  8
0
 10
47.8999999999999773
 20
96.5
 30
0.0
 11
47.8999999999999773
 21
95.5
 31
0.0
  0
LINE
  5
1DE0
  8
0
 10
45.3722280627000032
 20
91.2284902991000024
 30
0.0
 11
46.0
 21
91.0
 31
0.0
  0
LINE
  5
1DE1
  8
0
 10
54.0
 20
91.0
 30
0.0
 11
54.6277719372999968
 21
91.2284902991000024
 31
0.0
  0
LINE
  5
1DE2
  8
0
 10
54.6277719372999968
 20
95.2715097008999976
 30
0.0
 11
54.0
 21
95.5
 31
0.0
  0
LINE
  5
1DE3
  8
0
 10
46.0
 20
95.5
 30
0.0
 11
45.3722280627000032
 21
95.2715097008999976
 31
0.0
  0
LINE
  5
1DE4
  8
0
 10
54.5
 20
82.3094010767999862
 30
0.0
 11
45.4999999999999929
 21
82.3094010767999862
 31
0.0
  0
LINE
  5
1DE5
  8
0
 10
58.5
 20
80.0
 30
0.0
 11
41.5
 21
80.0
 31
0.0
  0
LINE
  5
1DE6
  8
0
 10
46.5358983849000083
 20
91.0
 30
0.0
 11
46.0
 21
91.0
 31
0.0
  0
LINE
  5
1DE7
  8
0
 10
50.0
 20
91.0
 30
0.0
 11
46.5358983849000083
 21
91.0
 31
0.0
  0
LINE
  5
1DE8
  8
0
 10
53.4641016150999917
 20
91.0
 30
0.0
 11
50.0
 21
91.0
 31
0.0
  0
LINE
  5
1DE9
  8
0
 10
54.0
 20
91.0
 30
0.0
 11
53.4641016150999917
 21
91.0
 31
0.0
  0
LINE
  5
1DEA
  8
0
 10
47.6905989231999783
 20
95.274774435199987
 30
0.0
 11
47.6905989231999783
 21
91.2252255647999846
 31
0.0
  0
LINE
  5
1DEB
  8
0
 10
52.3094010766999986
 20
95.274774435199987
 30
0.0
 11
52.3094010766999986
 21
91.2252255647999846
 31
0.0
  0
LINE
  5
1DEC
  8
0
 10
45.3811978464999868
 20
95.274774435199987
 30
0.0
 11
45.3811978464999868
 21
91.2252255647999846
 31
0.0
  0
LINE
  5
1DED
  8
0
 10
54.6188021534999919
 20
95.274774435199987
 30
0.0
 11
54.6188021534999919
 21
91.2252255647999846
 31
0.0
  0
LINE
  5
1DEE
  8
0
 10
53.4641016150999917
 20
95.5
 30
0.0
 11
50.0
 21
95.5
 31
0.0
  0
LINE
  5
1DEF
  8
0
 10
50.0
 20
95.5
 30
0.0
 11
46.5358983849000083
 21
95.5
 31
0.0
  0
LINE
  5
1DF0
  8
0
 10
52.5
 20
96.8064999999999856
 30
0.0
 11
47.5
 21
96.8064999999999856
 31
0.0
  0
LINE
  5
1DF1
  8
0
 10
52.1935000000000002
 20
96.5
 30
0.0
 11
47.8064999999999998
 21
96.5
 31
0.0
  0
LINE
  5
1DF2
  8
0
 10
52.5
 20
99.1935000000000144
 30
0.0
 11
47.5
 21
99.1935000000000144
 31
0.0
  0
LINE
  5
1DF3
  8
0
 10
52.1935000000000002
 20
99.5000000000000142
 30
0.0
 11
47.8064999999999998
 21
99.5000000000000142
 31
0.0
  0
LINE
  5
1DF4
  8
0
 10
54.0
 20
95.5
 30
0.0
 11
53.4641016150999917
 21
95.5
 31
0.0
  0
LINE
  5
1DF5
  8
0
 10
46.5358983849000083
 20
95.5
 30
0.0
 11
46.0
 21
95.5
 31
0.0
  0
LINE
  5
1DF6
  8
0
 10
54.5
 20
90.5
 30
0.0
 11
45.4999999999999929
 21
90.5
 31
0.0
  0
LINE
  5
1DF7
  8
0
 10
81.5
 20
80.0
 30
0.0
 11
85.5
 21
82.3094010768000004
 31
0.0
  0
LINE
  5
1DF8
  8
0
 10
94.5000000000000142
 20
82.3094010768000004
 30
0.0
 11
98.5000000000000142
 21
80.0
 31
0.0
  0
LINE
  5
1DF9
  8
0
 10
85.5
 20
82.3094010768000004
 30
0.0
 11
85.5
 21
90.5
 31
0.0
  0
LINE
  5
1DFA
  8
0
 10
94.5000000000000142
 20
90.5
 30
0.0
 11
94.5000000000000142
 21
82.3094010768000004
 31
0.0
  0
ARC
  5
1DFB
  8
0
 10
86.0
 20
90.5
 30
0.0
 40
0.5
 50
90.0
 51
180.0
  0
ARC
  5
1DFC
  8
0
 10
94.0
 20
90.5
 30
0.0
 40
0.5
 50
0.000000000000007
 51
90.0
  0
LINE
  5
1DFD
  8
0
 10
92.5
 20
96.8064999999999856
 30
0.0
 11
92.1935000000000002
 21
96.5
 31
0.0
  0
LINE
  5
1DFE
  8
0
 10
87.8064999999999856
 20
96.5
 30
0.0
 11
87.5
 21
96.8064999999999856
 31
0.0
  0
LINE
  5
1DFF
  8
0
 10
87.5
 20
96.8064999999999856
 30
0.0
 11
87.5
 21
99.1935000000000144
 31
0.0
  0
LINE
  5
1E00
  8
0
 10
92.5
 20
99.1935000000000144
 30
0.0
 11
92.5
 21
96.8064999999999856
 31
0.0
  0
LINE
  5
1E01
  8
0
 10
87.5
 20
99.1935000000000144
 30
0.0
 11
87.8064999999999856
 21
99.5000000000000142
 31
0.0
  0
LINE
  5
1E02
  8
0
 10
92.1935000000000002
 20
99.5000000000000142
 30
0.0
 11
92.5
 21
99.1935000000000144
 31
0.0
  0
LINE
  5
1E03
  8
0
 10
87.8999999999999631
 20
95.5
 30
0.0
 11
87.8999999999999631
 21
96.5
 31
0.0
  0
LINE
  5
1E04
  8
0
 10
92.0999999999999943
 20
96.5
 30
0.0
 11
92.0999999999999943
 21
95.5
 31
0.0
  0
LINE
  5
1E05
  8
0
 10
85.5
 20
82.3094010768000004
 30
0.0
 11
94.5000000000000142
 21
82.3094010768000004
 31
0.0
  0
LINE
  5
1E06
  8
0
 10
81.5000000000000284
 20
80.0
 30
0.0
 11
98.5000000000000142
 21
80.0
 31
0.0
  0
LINE
  5
1E07
  8
0
 10
88.0
 20
91.0
 30
0.0
 11
92.0
 21
91.0
 31
0.0
  0
LINE
  5
1E08
  8
0
 10
90.0
 20
95.2747744352999888
 30
0.0
 11
90.0
 21
91.2252255647999846
 31
0.0
  0
LINE
  5
1E09
  8
0
 10
86.0
 20
95.2747744352999888
 30
0.0
 11
86.0
 21
91.2252255647999846
 31
0.0
  0
LINE
  5
1E0A
  8
0
 10
94.0
 20
95.2747744352999888
 30
0.0
 11
94.0
 21
91.2252255647999846
 31
0.0
  0
LINE
  5
1E0B
  8
0
 10
88.0
 20
95.5
 30
0.0
 11
92.0
 21
95.5
 31
0.0
  0
LINE
  5
1E0C
  8
0
 10
86.0
 20
91.0
 30
0.0
 11
88.0
 21
91.0
 31
0.0
  0
LINE
  5
1E0D
  8
0
 10
92.0
 20
91.0
 30
0.0
 11
94.0
 21
91.0
 31
0.0
  0
LINE
  5
1E0E
  8
0
 10
92.0
 20
95.5
 30
0.0
 11
94.0
 21
95.5
 31
0.0
  0
LINE
  5
1E0F
  8
0
 10
86.0
 20
95.5
 30
0.0
 11
88.0
 21
95.5
 31
0.0
  0
LINE
  5
1E10
  8
0
 10
87.5
 20
96.8064999999999856
 30
0.0
 11
92.5
 21
96.8064999999999856
 31
0.0
  0
LINE
  5
1E11
  8
0
 10
87.8064999999999856
 20
96.5
 30
0.0
 11
92.1935000000000002
 21
96.5
 31
0.0
  0
LINE
  5
1E12
  8
0
 10
87.5
 20
99.193499999999986
 30
0.0
 11
92.5
 21
99.1935000000000144
 31
0.0
  0
LINE
  5
1E13
  8
0
 10
87.8064999999999856
 20
99.5000000000000142
 30
0.0
 11
92.1935000000000002
 21
99.5000000000000142
 31
0.0
  0
LINE
  5
1E14
  8
0
 10
85.5
 20
90.5
 30
0.0
 11
94.5000000000000142
 21
90.5
 31
0.0
  0
CIRCLE
  5
1E15
  8
0
 10
50.0
 20
50.0
 30
0.0
 40
8.5
  0
CIRCLE
  5
1E16
  8
0
 10
50.0
 20
50.0
 30
0.0
 40
8.25
  0
CIRCLE
  5
1E17
  8
0
 10
50.0
 20
50.0
 30
0.0
 40
1.3800000000000101
  0
LINE
  5
1E19
  8
1
 10
38.5
 20
50.0
 30
0.0
 11
61.5
 21
50.0
 31
0.0
  0
LINE
  5
1E1A
  8
1
 10
50.0
 20
61.5
 30
0.0
 11
50.0
 21
38.5
 31
0.0
  0
LINE
  5
1E1B
  8
1
 10
90.0
 20
77.0
 30
0.0
 11
90.0
 21
102.5
 31
0.0
  0
LINE
  5
1E1C
  8
1
 10
50.0
 20
77.0
 30
0.0
 11
50.0
 21
102.5
 31
0.0
  0
LINE
  5
1E1D
  8
1
 10
50.0
 20
118.0
 30
0.0
 11
50.0
 21
141.0
 31
0.0
  0
LINE
  5
1E1E
  8
1
 10
38.5
 20
129.5
 30
0.0
 11
61.5
 21
129.5
 31
0.0
  0
POLYLINE
  5
1E1F
  8
0
 66
     1
 10
0.0
 20
0.0
 30
0.0
  0
VERTEX
  5
1ED6
  8
0
 10
86.0000000000385683
 20
95.5000000000346887
 30
0.0
  0
VERTEX
  5
1ED7
  8
0
 10
86.0000000000385683
 20
95.4995584756492661
 30
0.0
  0
VERTEX
  5
1ED8
  8
0
 10
86.0000000000385683
 20
95.499071084141363
 30
0.0
  0
VERTEX
  5
1ED9
  8
0
 10
86.0000000000385683
 20
95.4984919583886267
 30
0.0
  0
VERTEX
  5
1EDA
  8
0
 10
86.0000000000385683
 20
95.4977752312685624
 30
0.0
  0
VERTEX
  5
1EDB
  8
0
 10
86.0000000000385683
 20
95.4968750356587464
 30
0.0
  0
VERTEX
  5
1EDC
  8
0
 10
86.0000000000385683
 20
95.4957455044367265
 30
0.0
  0
VERTEX
  5
1EDD
  8
0
 10
86.0000000000385683
 20
95.4943448067204912
 30
0.0
  0
VERTEX
  5
1EDE
  8
0
 10
86.0000000000385683
 20
95.4926679049789016
 30
0.0
  0
VERTEX
  5
1EDF
  8
0
 10
86.0000000000385683
 20
95.4907294352044147
 30
0.0
  0
VERTEX
  5
1EE0
  8
0
 10
86.0000000000385683
 20
95.4885442190376494
 30
0.0
  0
VERTEX
  5
1EE1
  8
0
 10
86.0000000000385683
 20
95.4861270781191251
 30
0.0
  0
VERTEX
  5
1EE2
  8
0
 10
86.0000000000385683
 20
95.4834928340894749
 30
0.0
  0
VERTEX
  5
1EE3
  8
0
 10
86.0000000000385683
 20
95.4806562141675954
 30
0.0
  0
VERTEX
  5
1EE4
  8
0
 10
86.0000000000385683
 20
95.4776261481781319
 30
0.0
  0
VERTEX
  5
1EE5
  8
0
 10
86.0000000000385683
 20
95.4744025031958472
 30
0.0
  0
VERTEX
  5
1EE6
  8
0
 10
86.0000000000385683
 20
95.4709843576596455
 30
0.0
  0
VERTEX
  5
1EE7
  8
0
 10
86.0000000000385683
 20
95.467370790008431
 30
0.0
  0
VERTEX
  5
1EE8
  8
0
 10
86.0000000000385683
 20
95.463560878681136
 30
0.0
  0
VERTEX
  5
1EE9
  8
0
 10
86.0000000000385683
 20
95.4595537021166365
 30
0.0
  0
VERTEX
  5
1EEA
  8
0
 10
86.0000000000385683
 20
95.4553485900263468
 30
0.0
  0
VERTEX
  5
1EEB
  8
0
 10
86.0000000000385683
 20
95.4509468744050622
 30
0.0
  0
VERTEX
  5
1EEC
  8
0
 10
86.0000000000385683
 20
95.4463508448301496
 30
0.0
  0
VERTEX
  5
1EED
  8
0
 10
86.0000000000385683
 20
95.4415627968456732
 30
0.0
  0
VERTEX
  5
1EEE
  8
0
 10
86.0000000000385683
 20
95.4365850259956687
 30
0.0
  0
VERTEX
  5
1EEF
  8
0
 10
86.0000000000385683
 20
95.4314198278242429
 30
0.0
  0
VERTEX
  5
1EF0
  8
0
 10
86.0000000000385683
 20
95.4260694979547139
 30
0.0
  0
VERTEX
  5
1EF1
  8
0
 10
86.0000000000385683
 20
95.420536600952147
 30
0.0
  0
VERTEX
  5
1EF2
  8
0
 10
86.0000000000385683
 20
95.4148245709725842
 30
0.0
  0
VERTEX
  5
1EF3
  8
0
 10
86.0000000000385683
 20
95.4089370176048419
 30
0.0
  0
VERTEX
  5
1EF4
  8
0
 10
86.0000000000385683
 20
95.4028775504376938
 30
0.0
  0
VERTEX
  5
1EF5
  8
0
 10
86.0000000000385683
 20
95.3966497790599135
 30
0.0
  0
VERTEX
  5
1EF6
  8
0
 10
86.0000000000385683
 20
95.3902573130603741
 30
0.0
  0
VERTEX
  5
1EF7
  8
0
 10
86.0000000000385683
 20
95.383703748239995
 30
0.0
  0
VERTEX
  5
1EF8
  8
0
 10
86.0000000000385683
 20
95.3769900781482676
 30
0.0
  0
VERTEX
  5
1EF9
  8
0
 10
86.0000000000385683
 20
95.3701116405035805
 30
0.0
  0
VERTEX
  5
1EFA
  8
0
 10
86.0000000000385683
 20
95.3630630304937057
 30
0.0
  0
VERTEX
  5
1EFB
  8
0
 10
86.0000000000385683
 20
95.3558388433063158
 30
0.0
  0
VERTEX
  5
1EFC
  8
0
 10
86.0000000000385683
 20
95.3484336741292253
 30
0.0
  0
VERTEX
  5
1EFD
  8
0
 10
86.0000000000385683
 20
95.340842118150178
 30
0.0
  0
VERTEX
  5
1EFE
  8
0
 10
86.0000000000385683
 20
95.3330588061308646
 30
0.0
  0
VERTEX
  5
1EFF
  8
0
 10
86.0000000000385683
 20
95.3250873393851776
 30
0.0
  0
VERTEX
  5
1F00
  8
0
 10
86.0000000000385683
 20
95.3169520855852141
 30
0.0
  0
VERTEX
  5
1F01
  8
0
 10
86.0000000000385683
 20
95.3086803425733819
 30
0.0
  0
VERTEX
  5
1F02
  8
0
 10
86.0000000000385683
 20
95.3002994081920178
 30
0.0
  0
VERTEX
  5
1F03
  8
0
 10
86.0000000000385683
 20
95.2918365802835439
 30
0.0
  0
VERTEX
  5
1F04
  8
0
 10
86.0000000000385683
 20
95.283319156690311
 30
0.0
  0
VERTEX
  5
1F05
  8
0
 10
86.0000000000385683
 20
95.2747744352546846
 30
0.0
  0
SEQEND
  5
1F06
  8
0
  0
POLYLINE
  5
1E20
  8
0
 66
     1
 10
0.0
 20
0.0
 30
0.0
  0
VERTEX
  5
1F07
  8
0
 10
94.000000000038554
 20
95.274774435254713
 30
0.0
  0
VERTEX
  5
1F08
  8
0
 10
94.000000000038554
 20
95.2845127319618399
 30
0.0
  0
VERTEX
  5
1F09
  8
0
 10
94.000000000038554
 20
95.2942152967583382
 30
0.0
  0
VERTEX
  5
1F0A
  8
0
 10
94.000000000038554
 20
95.3038463977335653
 30
0.0
  0
VERTEX
  5
1F0B
  8
0
 10
94.000000000038554
 20
95.3133703029769492
 30
0.0
  0
VERTEX
  5
1F0C
  8
0
 10
94.000000000038554
 20
95.3227512805778332
 30
0.0
  0
VERTEX
  5
1F0D
  8
0
 10
94.000000000038554
 20
95.3319535986255744
 30
0.0
  0
VERTEX
  5
1F0E
  8
0
 10
94.000000000038554
 20
95.3409415252095727
 30
0.0
  0
VERTEX
  5
1F0F
  8
0
 10
94.000000000038554
 20
95.3496817664589145
 30
0.0
  0
VERTEX
  5
1F10
  8
0
 10
94.000000000038554
 20
95.3581662239673307
 30
0.0
  0
VERTEX
  5
1F11
  8
0
 10
94.000000000038554
 20
95.3664016751770305
 30
0.0
  0
VERTEX
  5
1F12
  8
0
 10
94.000000000038554
 20
95.3743950902590143
 30
0.0
  0
VERTEX
  5
1F13
  8
0
 10
94.000000000038554
 20
95.3821534393842825
 30
0.0
  0
VERTEX
  5
1F14
  8
0
 10
94.000000000038554
 20
95.3896836927238638
 30
0.0
  0
VERTEX
  5
1F15
  8
0
 10
94.000000000038554
 20
95.3969928204487587
 30
0.0
  0
VERTEX
  5
1F16
  8
0
 10
94.000000000038554
 20
95.4040873213056244
 30
0.0
  0
VERTEX
  5
1F17
  8
0
 10
94.000000000038554
 20
95.4109664659368661
 30
0.0
  0
VERTEX
  5
1F18
  8
0
 10
94.000000000038554
 20
95.4176238703145856
 30
0.0
  0
VERTEX
  5
1F19
  8
0
 10
94.000000000038554
 20
95.4240529996304758
 30
0.0
  0
VERTEX
  5
1F1A
  8
0
 10
94.000000000038554
 20
95.4302473190762441
 30
0.0
  0
VERTEX
  5
1F1B
  8
0
 10
94.000000000038554
 20
95.4362002938435836
 30
0.0
  0
VERTEX
  5
1F1C
  8
0
 10
94.000000000038554
 20
95.4419053891241447
 30
0.0
  0
VERTEX
  5
1F1D
  8
0
 10
94.000000000038554
 20
95.4473564954801077
 30
0.0
  0
VERTEX
  5
1F1E
  8
0
 10
94.000000000038554
 20
95.4525522659700556
 30
0.0
  0
VERTEX
  5
1F1F
  8
0
 10
94.000000000038554
 20
95.4574943417653259
 30
0.0
  0
VERTEX
  5
1F20
  8
0
 10
94.000000000038554
 20
95.4621844101781676
 30
0.0
  0
VERTEX
  5
1F21
  8
0
 10
94.000000000038554
 20
95.4666241585208581
 30
0.0
  0
VERTEX
  5
1F22
  8
0
 10
94.000000000038554
 20
95.470815274105675
 30
0.0
  0
VERTEX
  5
1F23
  8
0
 10
94.000000000038554
 20
95.4747594442448246
 30
0.0
  0
VERTEX
  5
1F24
  8
0
 10
94.000000000038554
 20
95.4784553623869954
 30
0.0
  0
VERTEX
  5
1F25
  8
0
 10
94.000000000038554
 20
95.481887530261929
 30
0.0
  0
VERTEX
  5
1F26
  8
0
 10
94.000000000038554
 20
95.4850362487452884
 30
0.0
  0
VERTEX
  5
1F27
  8
0
 10
94.000000000038554
 20
95.4878818180699653
 30
0.0
  0
VERTEX
  5
1F28
  8
0
 10
94.000000000038554
 20
95.4904045384688516
 30
0.0
  0
VERTEX
  5
1F29
  8
0
 10
94.000000000038554
 20
95.4925847101748388
 30
0.0
  0
VERTEX
  5
1F2A
  8
0
 10
94.000000000038554
 20
95.4944033885408032
 30
0.0
  0
VERTEX
  5
1F2B
  8
0
 10
94.000000000038554
 20
95.4958734162223521
 30
0.0
  0
VERTEX
  5
1F2C
  8
0
 10
94.000000000038554
 20
95.4970503934861341
 30
0.0
  0
VERTEX
  5
1F2D
  8
0
 10
94.000000000038554
 20
95.4979929304157054
 30
0.0
  0
VERTEX
  5
1F2E
  8
0
 10
94.000000000038554
 20
95.4987596370946363
 30
0.0
  0
VERTEX
  5
1F2F
  8
0
 10
94.000000000038554
 20
95.4994091236064548
 30
0.0
  0
VERTEX
  5
1F30
  8
0
 10
94.000000000038554
 20
95.5000000000346887
 30
0.0
  0
SEQEND
  5
1F31
  8
0
  0
POLYLINE
  5
1E21
  8
0
 66
     1
 10
0.0
 20
0.0
 30
0.0
  0
VERTEX
  5
1F32
  8
0
 10
94.000000000038554
 20
91.0000000000347029
 30
0.0
  0
VERTEX
  5
1F33
  8
0
 10
94.000000000038554
 20
91.0004415244201539
 30
0.0
  0
VERTEX
  5
1F34
  8
0
 10
94.000000000038554
 20
91.0009289159280286
 30
0.0
  0
VERTEX
  5
1F35
  8
0
 10
94.000000000038554
 20
91.0015080416807791
 30
0.0
  0
VERTEX
  5
1F36
  8
0
 10
94.000000000038554
 20
91.0022247688008434
 30
0.0
  0
VERTEX
  5
1F37
  8
0
 10
94.000000000038554
 20
91.0031249644106595
 30
0.0
  0
VERTEX
  5
1F38
  8
0
 10
94.000000000038554
 20
91.0042544956326651
 30
0.0
  0
VERTEX
  5
1F39
  8
0
 10
94.000000000038554
 20
91.0056551933489146
 30
0.0
  0
VERTEX
  5
1F3A
  8
0
 10
94.000000000038554
 20
91.0073320950905043
 30
0.0
  0
VERTEX
  5
1F3B
  8
0
 10
94.000000000038554
 20
91.0092705648649485
 30
0.0
  0
VERTEX
  5
1F3C
  8
0
 10
94.000000000038554
 20
91.0114557810317422
 30
0.0
  0
VERTEX
  5
1F3D
  8
0
 10
94.000000000038554
 20
91.0138729219502665
 30
0.0
  0
VERTEX
  5
1F3E
  8
0
 10
94.000000000038554
 20
91.0165071659799167
 30
0.0
  0
VERTEX
  5
1F3F
  8
0
 10
94.000000000038554
 20
91.0193437859018104
 30
0.0
  0
VERTEX
  5
1F40
  8
0
 10
94.000000000038554
 20
91.0223738518912455
 30
0.0
  0
VERTEX
  5
1F41
  8
0
 10
94.000000000038554
 20
91.0255974968735444
 30
0.0
  0
VERTEX
  5
1F42
  8
0
 10
94.000000000038554
 20
91.0290156424097461
 30
0.0
  0
VERTEX
  5
1F43
  8
0
 10
94.000000000038554
 20
91.0326292100609749
 30
0.0
  0
VERTEX
  5
1F44
  8
0
 10
94.000000000038554
 20
91.0364391213882556
 30
0.0
  0
VERTEX
  5
1F45
  8
0
 10
94.000000000038554
 20
91.0404462979527551
 30
0.0
  0
VERTEX
  5
1F46
  8
0
 10
94.000000000038554
 20
91.0446514100430591
 30
0.0
  0
VERTEX
  5
1F47
  8
0
 10
94.000000000038554
 20
91.0490531256643436
 30
0.0
  0
VERTEX
  5
1F48
  8
0
 10
94.000000000038554
 20
91.0536491552392562
 30
0.0
  0
VERTEX
  5
1F49
  8
0
 10
94.000000000038554
 20
91.0584372032237468
 30
0.0
  0
VERTEX
  5
1F4A
  8
0
 10
94.000000000038554
 20
91.0634149740736945
 30
0.0
  0
VERTEX
  5
1F4B
  8
0
 10
94.000000000038554
 20
91.0685801722451487
 30
0.0
  0
VERTEX
  5
1F4C
  8
0
 10
94.000000000038554
 20
91.0739305021146777
 30
0.0
  0
VERTEX
  5
1F4D
  8
0
 10
94.000000000038554
 20
91.0794633991172446
 30
0.0
  0
VERTEX
  5
1F4E
  8
0
 10
94.000000000038554
 20
91.0851754290967932
 30
0.0
  0
VERTEX
  5
1F4F
  8
0
 10
94.000000000038554
 20
91.0910629824645639
 30
0.0
  0
VERTEX
  5
1F50
  8
0
 10
94.000000000038554
 20
91.097122449631712
 30
0.0
  0
VERTEX
  5
1F51
  8
0
 10
94.000000000038554
 20
91.1033502210094639
 30
0.0
  0
VERTEX
  5
1F52
  8
0
 10
94.000000000038554
 20
91.1097426870090317
 30
0.0
  0
VERTEX
  5
1F53
  8
0
 10
94.000000000038554
 20
91.1162962518293966
 30
0.0
  0
VERTEX
  5
1F54
  8
0
 10
94.000000000038554
 20
91.1230099219211667
 30
0.0
  0
VERTEX
  5
1F55
  8
0
 10
94.000000000038554
 20
91.1298883595658253
 30
0.0
  0
VERTEX
  5
1F56
  8
0
 10
94.000000000038554
 20
91.1369369695757285
 30
0.0
  0
VERTEX
  5
1F57
  8
0
 10
94.000000000038554
 20
91.14416115676309
 30
0.0
  0
VERTEX
  5
1F58
  8
0
 10
94.000000000038554
 20
91.1515663259401805
 30
0.0
  0
VERTEX
  5
1F59
  8
0
 10
94.000000000038554
 20
91.1591578819192563
 30
0.0
  0
VERTEX
  5
1F5A
  8
0
 10
94.000000000038554
 20
91.1669411939385554
 30
0.0
  0
VERTEX
  5
1F5B
  8
0
 10
94.000000000038554
 20
91.1749126606842566
 30
0.0
  0
VERTEX
  5
1F5C
  8
0
 10
94.000000000038554
 20
91.1830479144841917
 30
0.0
  0
VERTEX
  5
1F5D
  8
0
 10
94.000000000038554
 20
91.1913196574960239
 30
0.0
  0
VERTEX
  5
1F5E
  8
0
 10
94.000000000038554
 20
91.1997005918773738
 30
0.0
  0
VERTEX
  5
1F5F
  8
0
 10
94.000000000038554
 20
91.2081634197858762
 30
0.0
  0
VERTEX
  5
1F60
  8
0
 10
94.000000000038554
 20
91.2166808433790806
 30
0.0
  0
VERTEX
  5
1F61
  8
0
 10
94.000000000038554
 20
91.2252255648146786
 30
0.0
  0
SEQEND
  5
1F62
  8
0
  0
POLYLINE
  5
1E22
  8
0
 66
     1
 10
0.0
 20
0.0
 30
0.0
  0
VERTEX
  5
1F63
  8
0
 10
86.0000000000385683
 20
91.2252255648146786
 30
0.0
  0
VERTEX
  5
1F64
  8
0
 10
86.0000000000385683
 20
91.2154872681075659
 30
0.0
  0
VERTEX
  5
1F65
  8
0
 10
86.0000000000385683
 20
91.2057847033110676
 30
0.0
  0
VERTEX
  5
1F66
  8
0
 10
86.0000000000385683
 20
91.1961536023358263
 30
0.0
  0
VERTEX
  5
1F67
  8
0
 10
86.0000000000385683
 20
91.1866296970924424
 30
0.0
  0
VERTEX
  5
1F68
  8
0
 10
86.0000000000385683
 20
91.1772487194915726
 30
0.0
  0
VERTEX
  5
1F69
  8
0
 10
86.0000000000385683
 20
91.1680464014438172
 30
0.0
  0
VERTEX
  5
1F6A
  8
0
 10
86.0000000000385683
 20
91.1590584748598047
 30
0.0
  0
VERTEX
  5
1F6B
  8
0
 10
86.0000000000385683
 20
91.1503182336104771
 30
0.0
  0
VERTEX
  5
1F6C
  8
0
 10
86.0000000000385683
 20
91.1418337761020751
 30
0.0
  0
VERTEX
  5
1F6D
  8
0
 10
86.0000000000385683
 20
91.1335983248923753
 30
0.0
  0
VERTEX
  5
1F6E
  8
0
 10
86.0000000000385683
 20
91.1256049098103915
 30
0.0
  0
VERTEX
  5
1F6F
  8
0
 10
86.0000000000385683
 20
91.1178465606851233
 30
0.0
  0
VERTEX
  5
1F70
  8
0
 10
86.0000000000385683
 20
91.110316307345542
 30
0.0
  0
VERTEX
  5
1F71
  8
0
 10
86.0000000000385683
 20
91.1030071796206471
 30
0.0
  0
VERTEX
  5
1F72
  8
0
 10
86.0000000000385683
 20
91.0959126787637814
 30
0.0
  0
VERTEX
  5
1F73
  8
0
 10
86.0000000000385683
 20
91.0890335341325255
 30
0.0
  0
VERTEX
  5
1F74
  8
0
 10
86.0000000000385683
 20
91.0823761297548202
 30
0.0
  0
VERTEX
  5
1F75
  8
0
 10
86.0000000000385683
 20
91.07594700043893
 30
0.0
  0
VERTEX
  5
1F76
  8
0
 10
86.0000000000385683
 20
91.0697526809931759
 30
0.0
  0
VERTEX
  5
1F77
  8
0
 10
86.0000000000385683
 20
91.0637997062258364
 30
0.0
  0
VERTEX
  5
1F78
  8
0
 10
86.0000000000385683
 20
91.0580946109452469
 30
0.0
  0
VERTEX
  5
1F79
  8
0
 10
86.0000000000385683
 20
91.0526435045892839
 30
0.0
  0
VERTEX
  5
1F7A
  8
0
 10
86.0000000000385683
 20
91.0474477340993502
 30
0.0
  0
VERTEX
  5
1F7B
  8
0
 10
86.0000000000385683
 20
91.0425056583040799
 30
0.0
  0
VERTEX
  5
1F7C
  8
0
 10
86.0000000000385683
 20
91.0378155898912382
 30
0.0
  0
VERTEX
  5
1F7D
  8
0
 10
86.0000000000385683
 20
91.0333758415485477
 30
0.0
  0
VERTEX
  5
1F7E
  8
0
 10
86.0000000000385683
 20
91.0291847259637592
 30
0.0
  0
VERTEX
  5
1F7F
  8
0
 10
86.0000000000385683
 20
91.0252405558245954
 30
0.0
  0
VERTEX
  5
1F80
  8
0
 10
86.0000000000385683
 20
91.0215446376824246
 30
0.0
  0
VERTEX
  5
1F81
  8
0
 10
86.0000000000385683
 20
91.0181124698074626
 30
0.0
  0
VERTEX
  5
1F82
  8
0
 10
86.0000000000385683
 20
91.0149637513241032
 30
0.0
  0
VERTEX
  5
1F83
  8
0
 10
86.0000000000385683
 20
91.0121181819994405
 30
0.0
  0
VERTEX
  5
1F84
  8
0
 10
86.0000000000385683
 20
91.0095954616005542
 30
0.0
  0
VERTEX
  5
1F85
  8
0
 10
86.0000000000385683
 20
91.0074152898945528
 30
0.0
  0
VERTEX
  5
1F86
  8
0
 10
86.0000000000385683
 20
91.0055966115286026
 30
0.0
  0
VERTEX
  5
1F87
  8
0
 10
86.0000000000385683
 20
91.0041265838470537
 30
0.0
  0
VERTEX
  5
1F88
  8
0
 10
86.0000000000385683
 20
91.0029496065832717
 30
0.0
  0
VERTEX
  5
1F89
  8
0
 10
86.0000000000385683
 20
91.0020070696537005
 30
0.0
  0
VERTEX
  5
1F8A
  8
0
 10
86.0000000000385683
 20
91.0012403629747837
 30
0.0
  0
VERTEX
  5
1F8B
  8
0
 10
86.0000000000385683
 20
91.0005908764629652
 30
0.0
  0
VERTEX
  5
1F8C
  8
0
 10
86.0000000000385683
 20
91.0000000000347171
 30
0.0
  0
SEQEND
  5
1F8D
  8
0
  0
POLYLINE
  5
1E23
  8
0
 66
     1
 10
0.0
 20
0.0
 30
0.0
  0
VERTEX
  5
1F8E
  8
0
 10
94.000000000038554
 20
91.2252255648146786
 30
0.0
  0
VERTEX
  5
1F8F
  8
0
 10
93.9516512708726168
 20
91.2154872681075659
 30
0.0
  0
VERTEX
  5
1F90
  8
0
 10
93.9032975620232548
 20
91.2057847033110676
 30
0.0
  0
VERTEX
  5
1F91
  8
0
 10
93.8549338938070292
 20
91.1961536023358121
 30
0.0
  0
VERTEX
  5
1F92
  8
0
 10
93.8065552865406289
 20
91.1866296970924282
 30
0.0
  0
VERTEX
  5
1F93
  8
0
 10
93.7581567605405866
 20
91.1772487194915442
 30
0.0
  0
VERTEX
  5
1F94
  8
0
 10
93.7097333361234348
 20
91.1680464014437746
 30
0.0
  0
VERTEX
  5
1F95
  8
0
 10
93.6612800336058058
 20
91.1590584748597905
 30
0.0
  0
VERTEX
  5
1F96
  8
0
 10
93.6127922659632077
 20
91.1503182336104345
 30
0.0
  0
VERTEX
  5
1F97
  8
0
 10
93.5642695040310741
 20
91.1418337761020041
 30
0.0
  0
VERTEX
  5
1F98
  8
0
 10
93.5157136144772352
 20
91.1335983248923185
 30
0.0
  0
VERTEX
  5
1F99
  8
0
 10
93.467126495009424
 20
91.1256049098103347
 30
0.0
  0
VERTEX
  5
1F9A
  8
0
 10
93.418510043335516
 20
91.1178465606850665
 30
0.0
  0
VERTEX
  5
1F9B
  8
0
 10
93.3698661571632158
 20
91.1103163073454851
 30
0.0
  0
VERTEX
  5
1F9C
  8
0
 10
93.3211967342003845
 20
91.1030071796206045
 30
0.0
  0
VERTEX
  5
1F9D
  8
0
 10
93.2725036122093769
 20
91.095912678763753
 30
0.0
  0
VERTEX
  5
1F9E
  8
0
 10
93.2237877098416732
 20
91.0890335341325255
 30
0.0
  0
VERTEX
  5
1F9F
  8
0
 10
93.1750492267122183
 20
91.0823761297547918
 30
0.0
  0
VERTEX
  5
1FA0
  8
0
 10
93.1262883432631838
 20
91.0759470004389016
 30
0.0
  0
VERTEX
  5
1FA1
  8
0
 10
93.0775052399366416
 20
91.0697526809931333
 30
0.0
  0
VERTEX
  5
1FA2
  8
0
 10
93.028700097174692
 20
91.063799706225808
 30
0.0
  0
VERTEX
  5
1FA3
  8
0
 10
92.9798730954194355
 20
91.0580946109452327
 30
0.0
  0
VERTEX
  5
1FA4
  8
0
 10
92.9310244530198588
 20
91.0526435045892697
 30
0.0
  0
VERTEX
  5
1FA5
  8
0
 10
92.8821548127340577
 20
91.0474477340993076
 30
0.0
  0
VERTEX
  5
1FA6
  8
0
 10
92.8332650836055393
 20
91.0425056583040515
 30
0.0
  0
VERTEX
  5
1FA7
  8
0
 10
92.784356178789551
 20
91.0378155898912098
 30
0.0
  0
VERTEX
  5
1FA8
  8
0
 10
92.7354290114414255
 20
91.0333758415485335
 30
0.0
  0
VERTEX
  5
1FA9
  8
0
 10
92.6864844947164386
 20
91.0291847259637308
 30
0.0
  0
VERTEX
  5
1FAA
  8
0
 10
92.6375235417698946
 20
91.0252405558245812
 30
0.0
  0
VERTEX
  5
1FAB
  8
0
 10
92.5885470781617244
 20
91.0215446376824246
 30
0.0
  0
VERTEX
  5
1FAC
  8
0
 10
92.5395560882534056
 20
91.0181124698074768
 30
0.0
  0
VERTEX
  5
1FAD
  8
0
 10
92.4905515738120556
 20
91.0149637513241032
 30
0.0
  0
VERTEX
  5
1FAE
  8
0
 10
92.4415345366074774
 20
91.0121181819994405
 30
0.0
  0
VERTEX
  5
1FAF
  8
0
 10
92.3925059784094032
 20
91.0095954616005542
 30
0.0
  0
VERTEX
  5
1FB0
  8
0
 10
92.3434669009876643
 20
91.007415289894567
 30
0.0
  0
VERTEX
  5
1FB1
  8
0
 10
92.2944183098941267
 20
91.0055966115286026
 30
0.0
  0
VERTEX
  5
1FB2
  8
0
 10
92.2453613698925636
 20
91.0041265838470537
 30
0.0
  0
VERTEX
  5
1FB3
  8
0
 10
92.1962974599049687
 20
91.0029496065832717
 30
0.0
  0
VERTEX
  5
1FB4
  8
0
 10
92.1472279739285653
 20
91.0020070696537005
 30
0.0
  0
VERTEX
  5
1FB5
  8
0
 10
92.0981543059605769
 20
91.0012403629747837
 30
0.0
  0
VERTEX
  5
1FB6
  8
0
 10
92.0490778499981559
 20
91.0005908764629936
 30
0.0
  0
VERTEX
  5
1FB7
  8
0
 10
92.0000000000385683
 20
91.0000000000347171
 30
0.0
  0
SEQEND
  5
1FB8
  8
0
  0
POLYLINE
  5
1E24
  8
0
 66
     1
 10
0.0
 20
0.0
 30
0.0
  0
VERTEX
  5
1FB9
  8
0
 10
90.000000000038554
 20
95.2747744352546846
 30
0.0
  0
VERTEX
  5
1FBA
  8
0
 10
90.0483487292045339
 20
95.2845127319618257
 30
0.0
  0
VERTEX
  5
1FBB
  8
0
 10
90.0967024380538533
 20
95.2942152967583382
 30
0.0
  0
VERTEX
  5
1FBC
  8
0
 10
90.1450661062700647
 20
95.3038463977335937
 30
0.0
  0
VERTEX
  5
1FBD
  8
0
 10
90.193444713536465
 20
95.3133703029769634
 30
0.0
  0
VERTEX
  5
1FBE
  8
0
 10
90.2418432395365642
 20
95.3227512805778474
 30
0.0
  0
VERTEX
  5
1FBF
  8
0
 10
90.2902666639537017
 20
95.3319535986256028
 30
0.0
  0
VERTEX
  5
1FC0
  8
0
 10
90.3387199664713449
 20
95.3409415252096011
 30
0.0
  0
VERTEX
  5
1FC1
  8
0
 10
90.3872077341139573
 20
95.3496817664589571
 30
0.0
  0
VERTEX
  5
1FC2
  8
0
 10
90.4357304960460766
 20
95.3581662239673449
 30
0.0
  0
VERTEX
  5
1FC3
  8
0
 10
90.4842863855999724
 20
95.3664016751770589
 30
0.0
  0
VERTEX
  5
1FC4
  8
0
 10
90.5328735050677551
 20
95.3743950902590427
 30
0.0
  0
VERTEX
  5
1FC5
  8
0
 10
90.5814899567416774
 20
95.3821534393843251
 30
0.0
  0
VERTEX
  5
1FC6
  8
0
 10
90.6301338429139776
 20
95.3896836927239065
 30
0.0
  0
VERTEX
  5
1FC7
  8
0
 10
90.6788032658768088
 20
95.3969928204488014
 30
0.0
  0
VERTEX
  5
1FC8
  8
0
 10
90.7274963878678307
 20
95.4040873213056528
 30
0.0
  0
VERTEX
  5
1FC9
  8
0
 10
90.7762122902355344
 20
95.4109664659368946
 30
0.0
  0
VERTEX
  5
1FCA
  8
0
 10
90.8249507733650034
 20
95.417623870314614
 30
0.0
  0
VERTEX
  5
1FCB
  8
0
 10
90.8737116568140237
 20
95.4240529996305185
 30
0.0
  0
VERTEX
  5
1FCC
  8
0
 10
90.9224947601405944
 20
95.4302473190762868
 30
0.0
  0
VERTEX
  5
1FCD
  8
0
 10
90.971299902902544
 20
95.4362002938436262
 30
0.0
  0
VERTEX
  5
1FCE
  8
0
 10
91.0201269046577863
 20
95.4419053891242015
 30
0.0
  0
VERTEX
  5
1FCF
  8
0
 10
91.068975547057363
 20
95.4473564954801645
 30
0.0
  0
VERTEX
  5
1FD0
  8
0
 10
91.1178451873431641
 20
95.4525522659701267
 30
0.0
  0
VERTEX
  5
1FD1
  8
0
 10
91.1667349164716683
 20
95.4574943417653827
 30
0.0
  0
VERTEX
  5
1FD2
  8
0
 10
91.2156438212876708
 20
95.4621844101782244
 30
0.0
  0
VERTEX
  5
1FD3
  8
0
 10
91.2645709886357963
 20
95.466624158520915
 30
0.0
  0
VERTEX
  5
1FD4
  8
0
 10
91.3135155053607548
 20
95.4708152741057035
 30
0.0
  0
VERTEX
  5
1FD5
  8
0
 10
91.3624764583073272
 20
95.4747594442448531
 30
0.0
  0
VERTEX
  5
1FD6
  8
0
 10
91.411452921915469
 20
95.4784553623870238
 30
0.0
  0
VERTEX
  5
1FD7
  8
0
 10
91.4604439118237593
 20
95.481887530261929
 30
0.0
  0
VERTEX
  5
1FD8
  8
0
 10
91.5094484262650951
 20
95.4850362487453026
 30
0.0
  0
VERTEX
  5
1FD9
  8
0
 10
91.5584654634696875
 20
95.4878818180699653
 30
0.0
  0
VERTEX
  5
1FDA
  8
0
 10
91.6074940216677476
 20
95.4904045384688516
 30
0.0
  0
VERTEX
  5
1FDB
  8
0
 10
91.6565330990895148
 20
95.4925847101748388
 30
0.0
  0
VERTEX
  5
1FDC
  8
0
 10
91.7055816901830383
 20
95.4944033885408032
 30
0.0
  0
VERTEX
  5
1FDD
  8
0
 10
91.7546386301846155
 20
95.4958734162223521
 30
0.0
  0
VERTEX
  5
1FDE
  8
0
 10
91.8037025401722246
 20
95.4970503934861341
 30
0.0
  0
VERTEX
  5
1FDF
  8
0
 10
91.8527720261486138
 20
95.4979929304157054
 30
0.0
  0
VERTEX
  5
1FE0
  8
0
 10
91.901845694116588
 20
95.4987596370946221
 30
0.0
  0
VERTEX
  5
1FE1
  8
0
 10
91.9509221500789806
 20
95.4994091236064548
 30
0.0
  0
VERTEX
  5
1FE2
  8
0
 10
92.0000000000385683
 20
95.5000000000346887
 30
0.0
  0
SEQEND
  5
1FE3
  8
0
  0
POLYLINE
  5
1E25
  8
0
 66
     1
 10
0.0
 20
0.0
 30
0.0
  0
VERTEX
  5
1FE4
  8
0
 10
92.0000000000385683
 20
95.5000000000346887
 30
0.0
  0
VERTEX
  5
1FE5
  8
0
 10
92.0428125695931953
 20
95.4995584756492661
 30
0.0
  0
VERTEX
  5
1FE6
  8
0
 10
92.0856242076297349
 20
95.499071084141363
 30
0.0
  0
VERTEX
  5
1FE7
  8
0
 10
92.1284339826300851
 20
95.4984919583886267
 30
0.0
  0
VERTEX
  5
1FE8
  8
0
 10
92.1712409630762295
 20
95.4977752312685624
 30
0.0
  0
VERTEX
  5
1FE9
  8
0
 10
92.2140442174500379
 20
95.4968750356587464
 30
0.0
  0
VERTEX
  5
1FEA
  8
0
 10
92.2568428142334653
 20
95.4957455044367407
 30
0.0
  0
VERTEX
  5
1FEB
  8
0
 10
92.299635835083734
 20
95.4943448067204912
 30
0.0
  0
VERTEX
  5
1FEC
  8
0
 10
92.342422481761389
 20
95.4926679049789016
 30
0.0
  0
VERTEX
  5
1FED
  8
0
 10
92.3852020202464956
 20
95.4907294352044147
 30
0.0
  0
VERTEX
  5
1FEE
  8
0
 10
92.4279737171251554
 20
95.4885442190376494
 30
0.0
  0
VERTEX
  5
1FEF
  8
0
 10
92.4707368389834841
 20
95.4861270781191394
 30
0.0
  0
VERTEX
  5
1FF0
  8
0
 10
92.5134906524074978
 20
95.4834928340894749
 30
0.0
  0
VERTEX
  5
1FF1
  8
0
 10
92.556234425012633
 20
95.4806562141675954
 30
0.0
  0
VERTEX
  5
1FF2
  8
0
 10
92.5989674876081779
 20
95.4776261481781603
 30
0.0
  0
VERTEX
  5
1FF3
  8
0
 10
92.6416892697913852
 20
95.4744025031958756
 30
0.0
  0
VERTEX
  5
1FF4
  8
0
 10
92.68439920975581
 20
95.4709843576596882
 30
0.0
  0
VERTEX
  5
1FF5
  8
0
 10
92.7270967456951638
 20
95.4673707900084736
 30
0.0
  0
VERTEX
  5
1FF6
  8
0
 10
92.7697813158031011
 20
95.4635608786811645
 30
0.0
  0
VERTEX
  5
1FF7
  8
0
 10
92.8124523582732479
 20
95.4595537021166933
 30
0.0
  0
VERTEX
  5
1FF8
  8
0
 10
92.8551093126960438
 20
95.4553485900263752
 30
0.0
  0
VERTEX
  5
1FF9
  8
0
 10
92.8977516297928219
 20
95.4509468744050764
 30
0.0
  0
VERTEX
  5
1FFA
  8
0
 10
92.9403787656081164
 20
95.4463508448301639
 30
0.0
  0
VERTEX
  5
1FFB
  8
0
 10
92.9829901762196869
 20
95.4415627968457159
 30
0.0
  0
VERTEX
  5
1FFC
  8
0
 10
93.025585317705179
 20
95.4365850259957256
 30
0.0
  0
VERTEX
  5
1FFD
  8
0
 10
93.0681636461423238
 20
95.4314198278242856
 30
0.0
  0
VERTEX
  5
1FFE
  8
0
 10
93.1107246176394057
 20
95.4260694979547708
 30
0.0
  0
VERTEX
  5
1FFF
  8
0
 10
93.1532677918641951
 20
95.4205366009522038
 30
0.0
  0
VERTEX
  5
2000
  8
0
 10
93.1957930633317631
 20
95.4148245709726552
 30
0.0
  0
VERTEX
  5
2001
  8
0
 10
93.2383003941100554
 20
95.4089370176048988
 30
0.0
  0
VERTEX
  5
2002
  8
0
 10
93.2807897462668052
 20
95.4028775504377649
 30
0.0
  0
VERTEX
  5
2003
  8
0
 10
93.3232610818699442
 20
95.3966497790599846
 30
0.0
  0
VERTEX
  5
2004
  8
0
 10
93.3657143629872621
 20
95.390257313060431
 30
0.0
  0
VERTEX
  5
2005
  8
0
 10
93.408149549615203
 20
95.3837037482400234
 30
0.0
  0
VERTEX
  5
2006
  8
0
 10
93.4505662108075228
 20
95.376990078148296
 30
0.0
  0
VERTEX
  5
2007
  8
0
 10
93.4929630659282367
 20
95.3701116405035947
 30
0.0
  0
VERTEX
  5
2008
  8
0
 10
93.5353387227891631
 20
95.3630630304937057
 30
0.0
  0
VERTEX
  5
2009
  8
0
 10
93.5776917892021345
 20
95.3558388433063584
 30
0.0
  0
VERTEX
  5
200A
  8
0
 10
93.6200208729789267
 20
95.348433674129268
 30
0.0
  0
VERTEX
  5
200B
  8
0
 10
93.6623245819313865
 20
95.3408421181502064
 30
0.0
  0
VERTEX
  5
200C
  8
0
 10
93.7046015296085386
 20
95.333058806130893
 30
0.0
  0
VERTEX
  5
200D
  8
0
 10
93.7468517762865758
 20
95.3250873393852203
 30
0.0
  0
VERTEX
  5
200E
  8
0
 10
93.7890787313393446
 20
95.3169520855852568
 30
0.0
  0
VERTEX
  5
200F
  8
0
 10
93.8312862767044464
 20
95.3086803425734104
 30
0.0
  0
VERTEX
  5
2010
  8
0
 10
93.8734782943193551
 20
95.3002994081920605
 30
0.0
  0
VERTEX
  5
2011
  8
0
 10
93.9156586661216863
 20
95.2918365802835581
 30
0.0
  0
VERTEX
  5
2012
  8
0
 10
93.9578312740489139
 20
95.2833191566903253
 30
0.0
  0
VERTEX
  5
2013
  8
0
 10
94.000000000038554
 20
95.274774435254713
 30
0.0
  0
SEQEND
  5
2014
  8
0
  0
POLYLINE
  5
1E26
  8
0
 66
     1
 10
0.0
 20
0.0
 30
0.0
  0
VERTEX
  5
2015
  8
0
 10
88.0000000000385683
 20
91.0000000000347029
 30
0.0
  0
VERTEX
  5
2016
  8
0
 10
87.9571874304839554
 20
91.0004415244201539
 30
0.0
  0
VERTEX
  5
2017
  8
0
 10
87.9143757924474301
 20
91.0009289159280286
 30
0.0
  0
VERTEX
  5
2018
  8
0
 10
87.8715660174470656
 20
91.0015080416807791
 30
0.0
  0
VERTEX
  5
2019
  8
0
 10
87.8287590370009355
 20
91.0022247688008434
 30
0.0
  0
VERTEX
  5
201A
  8
0
 10
87.7859557826271271
 20
91.0031249644106595
 30
0.0
  0
VERTEX
  5
201B
  8
0
 10
87.743157185843728
 20
91.0042544956326651
 30
0.0
  0
VERTEX
  5
201C
  8
0
 10
87.7003641649934593
 20
91.0056551933489146
 30
0.0
  0
VERTEX
  5
201D
  8
0
 10
87.6575775183158044
 20
91.0073320950904758
 30
0.0
  0
VERTEX
  5
201E
  8
0
 10
87.6147979798306835
 20
91.0092705648649485
 30
0.0
  0
VERTEX
  5
201F
  8
0
 10
87.5720262829520237
 20
91.0114557810317422
 30
0.0
  0
VERTEX
  5
2020
  8
0
 10
87.5292631610936951
 20
91.0138729219502665
 30
0.0
  0
VERTEX
  5
2021
  8
0
 10
87.4865093476696529
 20
91.0165071659799167
 30
0.0
  0
VERTEX
  5
2022
  8
0
 10
87.4437655750645035
 20
91.0193437859017678
 30
0.0
  0
VERTEX
  5
2023
  8
0
 10
87.4010325124689587
 20
91.0223738518912313
 30
0.0
  0
VERTEX
  5
2024
  8
0
 10
87.3583107302857655
 20
91.025597496873516
 30
0.0
  0
VERTEX
  5
2025
  8
0
 10
87.3156007903213265
 20
91.0290156424097034
 30
0.0
  0
VERTEX
  5
2026
  8
0
 10
87.2729032543819869
 20
91.0326292100609038
 30
0.0
  0
VERTEX
  5
2027
  8
0
 10
87.2302186842740639
 20
91.0364391213882271
 30
0.0
  0
VERTEX
  5
2028
  8
0
 10
87.1875476418039455
 20
91.0404462979527125
 30
0.0
  0
VERTEX
  5
2029
  8
0
 10
87.1448906873811637
 20
91.0446514100430164
 30
0.0
  0
VERTEX
  5
202A
  8
0
 10
87.1022483702843715
 20
91.049053125664301
 30
0.0
  0
VERTEX
  5
202B
  8
0
 10
87.059621234469077
 20
91.0536491552392135
 30
0.0
  0
VERTEX
  5
202C
  8
0
 10
87.0170098238575065
 20
91.0584372032236757
 30
0.0
  0
VERTEX
  5
202D
  8
0
 10
86.9744146823720143
 20
91.063414974073666
 30
0.0
  0
VERTEX
  5
202E
  8
0
 10
86.9318363539348411
 20
91.068580172245106
 30
0.0
  0
VERTEX
  5
202F
  8
0
 10
86.8892753824377877
 20
91.073930502114635
 30
0.0
  0
VERTEX
  5
2030
  8
0
 10
86.8467322082130408
 20
91.079463399117202
 30
0.0
  0
VERTEX
  5
2031
  8
0
 10
86.8042069367454587
 20
91.0851754290967506
 30
0.0
  0
VERTEX
  5
2032
  8
0
 10
86.7616996059671806
 20
91.0910629824645071
 30
0.0
  0
VERTEX
  5
2033
  8
0
 10
86.719210253810374
 20
91.0971224496316552
 30
0.0
  0
VERTEX
  5
2034
  8
0
 10
86.676738918207235
 20
91.1033502210094071
 30
0.0
  0
VERTEX
  5
2035
  8
0
 10
86.6342856370899312
 20
91.1097426870089748
 30
0.0
  0
VERTEX
  5
2036
  8
0
 10
86.5918504504619477
 20
91.1162962518293682
 30
0.0
  0
VERTEX
  5
2037
  8
0
 10
86.5494337892696279
 20
91.1230099219210956
 30
0.0
  0
VERTEX
  5
2038
  8
0
 10
86.507036934148914
 20
91.1298883595657969
 30
0.0
  0
VERTEX
  5
2039
  8
0
 10
86.4646612772880019
 20
91.1369369695756859
 30
0.0
  0
VERTEX
  5
203A
  8
0
 10
86.4223082108750305
 20
91.1441611567630616
 30
0.0
  0
VERTEX
  5
203B
  8
0
 10
86.3799791270982382
 20
91.1515663259401236
 30
0.0
  0
VERTEX
  5
203C
  8
0
 10
86.3376754181457642
 20
91.1591578819192137
 30
0.0
  0
VERTEX
  5
203D
  8
0
 10
86.2953984704685979
 20
91.166941193938527
 30
0.0
  0
VERTEX
  5
203E
  8
0
 10
86.2531482237905607
 20
91.174912660684214
 30
0.0
  0
VERTEX
  5
203F
  8
0
 10
86.2109212687377919
 20
91.1830479144841775
 30
0.0
  0
VERTEX
  5
2040
  8
0
 10
86.1687137233727043
 20
91.1913196574959954
 30
0.0
  0
VERTEX
  5
2041
  8
0
 10
86.126521705757753
 20
91.1997005918773453
 30
0.0
  0
VERTEX
  5
2042
  8
0
 10
86.0843413339554644
 20
91.2081634197858477
 30
0.0
  0
VERTEX
  5
2043
  8
0
 10
86.0421687260282368
 20
91.2166808433790806
 30
0.0
  0
VERTEX
  5
2044
  8
0
 10
86.0000000000385398
 20
91.2252255648146786
 30
0.0
  0
SEQEND
  5
2045
  8
0
  0
POLYLINE
  5
1E27
  8
0
 66
     1
 10
0.0
 20
0.0
 30
0.0
  0
VERTEX
  5
2046
  8
0
 10
86.0000000000385683
 20
95.2747744352546846
 30
0.0
  0
VERTEX
  5
2047
  8
0
 10
86.0483487292045197
 20
95.2845127319618257
 30
0.0
  0
VERTEX
  5
2048
  8
0
 10
86.0967024380538533
 20
95.294215296758324
 30
0.0
  0
VERTEX
  5
2049
  8
0
 10
86.1450661062700647
 20
95.3038463977335653
 30
0.0
  0
VERTEX
  5
204A
  8
0
 10
86.193444713536465
 20
95.3133703029769634
 30
0.0
  0
VERTEX
  5
204B
  8
0
 10
86.2418432395365642
 20
95.3227512805778332
 30
0.0
  0
VERTEX
  5
204C
  8
0
 10
86.2902666639537017
 20
95.3319535986255744
 30
0.0
  0
VERTEX
  5
204D
  8
0
 10
86.3387199664713307
 20
95.3409415252096011
 30
0.0
  0
VERTEX
  5
204E
  8
0
 10
86.3872077341139573
 20
95.3496817664589571
 30
0.0
  0
VERTEX
  5
204F
  8
0
 10
86.435730496046105
 20
95.3581662239673449
 30
0.0
  0
VERTEX
  5
2050
  8
0
 10
86.4842863855999582
 20
95.3664016751770589
 30
0.0
  0
VERTEX
  5
2051
  8
0
 10
86.5328735050677551
 20
95.3743950902590427
 30
0.0
  0
VERTEX
  5
2052
  8
0
 10
86.5814899567416631
 20
95.3821534393843251
 30
0.0
  0
VERTEX
  5
2053
  8
0
 10
86.6301338429139776
 20
95.3896836927239065
 30
0.0
  0
VERTEX
  5
2054
  8
0
 10
86.6788032658768088
 20
95.3969928204488156
 30
0.0
  0
VERTEX
  5
2055
  8
0
 10
86.7274963878678165
 20
95.4040873213056528
 30
0.0
  0
VERTEX
  5
2056
  8
0
 10
86.7762122902355202
 20
95.4109664659368946
 30
0.0
  0
VERTEX
  5
2057
  8
0
 10
86.824950773364975
 20
95.417623870314614
 30
0.0
  0
VERTEX
  5
2058
  8
0
 10
86.8737116568140095
 20
95.4240529996305185
 30
0.0
  0
VERTEX
  5
2059
  8
0
 10
86.9224947601405518
 20
95.4302473190762868
 30
0.0
  0
VERTEX
  5
205A
  8
0
 10
86.9712999029025013
 20
95.4362002938436262
 30
0.0
  0
VERTEX
  5
205B
  8
0
 10
87.0201269046577579
 20
95.4419053891242015
 30
0.0
  0
VERTEX
  5
205C
  8
0
 10
87.068975547057363
 20
95.4473564954801645
 30
0.0
  0
VERTEX
  5
205D
  8
0
 10
87.1178451873431641
 20
95.4525522659701267
 30
0.0
  0
VERTEX
  5
205E
  8
0
 10
87.1667349164716967
 20
95.4574943417653827
 30
0.0
  0
VERTEX
  5
205F
  8
0
 10
87.2156438212876566
 20
95.4621844101782244
 30
0.0
  0
VERTEX
  5
2060
  8
0
 10
87.2645709886357963
 20
95.4666241585209008
 30
0.0
  0
VERTEX
  5
2061
  8
0
 10
87.3135155053607548
 20
95.470815274105675
 30
0.0
  0
VERTEX
  5
2062
  8
0
 10
87.3624764583073272
 20
95.4747594442448531
 30
0.0
  0
VERTEX
  5
2063
  8
0
 10
87.4114529219154548
 20
95.4784553623870238
 30
0.0
  0
VERTEX
  5
2064
  8
0
 10
87.4604439118237451
 20
95.481887530261929
 30
0.0
  0
VERTEX
  5
2065
  8
0
 10
87.5094484262650667
 20
95.4850362487453026
 30
0.0
  0
VERTEX
  5
2066
  8
0
 10
87.5584654634696733
 20
95.4878818180699653
 30
0.0
  0
VERTEX
  5
2067
  8
0
 10
87.6074940216677049
 20
95.4904045384688516
 30
0.0
  0
VERTEX
  5
2068
  8
0
 10
87.6565330990895006
 20
95.4925847101748388
 30
0.0
  0
VERTEX
  5
2069
  8
0
 10
87.7055816901830383
 20
95.4944033885408032
 30
0.0
  0
VERTEX
  5
206A
  8
0
 10
87.7546386301846155
 20
95.4958734162223521
 30
0.0
  0
VERTEX
  5
206B
  8
0
 10
87.8037025401722246
 20
95.4970503934861341
 30
0.0
  0
VERTEX
  5
206C
  8
0
 10
87.8527720261486138
 20
95.4979929304157054
 30
0.0
  0
VERTEX
  5
206D
  8
0
 10
87.901845694116588
 20
95.4987596370946221
 30
0.0
  0
VERTEX
  5
206E
  8
0
 10
87.9509221500789806
 20
95.4994091236064548
 30
0.0
  0
VERTEX
  5
206F
  8
0
 10
88.0000000000385683
 20
95.5000000000346887
 30
0.0
  0
SEQEND
  5
2070
  8
0
  0
POLYLINE
  5
1E28
  8
0
 66
     1
 10
0.0
 20
0.0
 30
0.0
  0
VERTEX
  5
2071
  8
0
 10
88.0000000000385683
 20
95.5000000000346887
 30
0.0
  0
VERTEX
  5
2072
  8
0
 10
88.0428125695931953
 20
95.4995584756492661
 30
0.0
  0
VERTEX
  5
2073
  8
0
 10
88.0856242076297349
 20
95.499071084141363
 30
0.0
  0
VERTEX
  5
2074
  8
0
 10
88.1284339826300993
 20
95.4984919583886267
 30
0.0
  0
VERTEX
  5
2075
  8
0
 10
88.1712409630762153
 20
95.4977752312685624
 30
0.0
  0
VERTEX
  5
2076
  8
0
 10
88.2140442174500379
 20
95.4968750356587464
 30
0.0
  0
VERTEX
  5
2077
  8
0
 10
88.2568428142334653
 20
95.4957455044367407
 30
0.0
  0
VERTEX
  5
2078
  8
0
 10
88.299635835083734
 20
95.4943448067204912
 30
0.0
  0
VERTEX
  5
2079
  8
0
 10
88.3424224817613748
 20
95.4926679049789158
 30
0.0
  0
VERTEX
  5
207A
  8
0
 10
88.3852020202465241
 20
95.4907294352044147
 30
0.0
  0
VERTEX
  5
207B
  8
0
 10
88.4279737171251554
 20
95.4885442190376494
 30
0.0
  0
VERTEX
  5
207C
  8
0
 10
88.4707368389834699
 20
95.4861270781191394
 30
0.0
  0
VERTEX
  5
207D
  8
0
 10
88.5134906524075262
 20
95.4834928340894749
 30
0.0
  0
VERTEX
  5
207E
  8
0
 10
88.556234425012633
 20
95.4806562141676238
 30
0.0
  0
VERTEX
  5
207F
  8
0
 10
88.5989674876081637
 20
95.4776261481781745
 30
0.0
  0
VERTEX
  5
2080
  8
0
 10
88.6416892697913852
 20
95.4744025031958756
 30
0.0
  0
VERTEX
  5
2081
  8
0
 10
88.6843992097557958
 20
95.4709843576597024
 30
0.0
  0
VERTEX
  5
2082
  8
0
 10
88.727096745695178
 20
95.4673707900084736
 30
0.0
  0
VERTEX
  5
2083
  8
0
 10
88.7697813158031011
 20
95.4635608786811645
 30
0.0
  0
VERTEX
  5
2084
  8
0
 10
88.8124523582732479
 20
95.4595537021166933
 30
0.0
  0
VERTEX
  5
2085
  8
0
 10
88.8551093126960723
 20
95.4553485900263894
 30
0.0
  0
VERTEX
  5
2086
  8
0
 10
88.8977516297928503
 20
95.4509468744051048
 30
0.0
  0
VERTEX
  5
2087
  8
0
 10
88.9403787656081448
 20
95.4463508448301923
 30
0.0
  0
VERTEX
  5
2088
  8
0
 10
88.9829901762197153
 20
95.4415627968457301
 30
0.0
  0
VERTEX
  5
2089
  8
0
 10
89.0255853177052074
 20
95.436585025995754
 30
0.0
  0
VERTEX
  5
208A
  8
0
 10
89.0681636461423381
 20
95.4314198278242856
 30
0.0
  0
VERTEX
  5
208B
  8
0
 10
89.1107246176394057
 20
95.4260694979547708
 30
0.0
  0
VERTEX
  5
208C
  8
0
 10
89.1532677918641809
 20
95.4205366009522038
 30
0.0
  0
VERTEX
  5
208D
  8
0
 10
89.1957930633317631
 20
95.4148245709726552
 30
0.0
  0
VERTEX
  5
208E
  8
0
 10
89.2383003941100412
 20
95.4089370176048988
 30
0.0
  0
VERTEX
  5
208F
  8
0
 10
89.2807897462668052
 20
95.4028775504377649
 30
0.0
  0
VERTEX
  5
2090
  8
0
 10
89.3232610818699584
 20
95.3966497790599846
 30
0.0
  0
VERTEX
  5
2091
  8
0
 10
89.3657143629872479
 20
95.390257313060431
 30
0.0
  0
VERTEX
  5
2092
  8
0
 10
89.4081495496152172
 20
95.3837037482400234
 30
0.0
  0
VERTEX
  5
2093
  8
0
 10
89.4505662108075228
 20
95.376990078148296
 30
0.0
  0
VERTEX
  5
2094
  8
0
 10
89.4929630659282651
 20
95.3701116405035947
 30
0.0
  0
VERTEX
  5
2095
  8
0
 10
89.5353387227891488
 20
95.3630630304937057
 30
0.0
  0
VERTEX
  5
2096
  8
0
 10
89.5776917892021345
 20
95.3558388433063584
 30
0.0
  0
VERTEX
  5
2097
  8
0
 10
89.6200208729789267
 20
95.348433674129268
 30
0.0
  0
VERTEX
  5
2098
  8
0
 10
89.6623245819313865
 20
95.3408421181502064
 30
0.0
  0
VERTEX
  5
2099
  8
0
 10
89.7046015296085244
 20
95.333058806130893
 30
0.0
  0
VERTEX
  5
209A
  8
0
 10
89.7468517762865758
 20
95.3250873393852203
 30
0.0
  0
VERTEX
  5
209B
  8
0
 10
89.7890787313393446
 20
95.3169520855852568
 30
0.0
  0
VERTEX
  5
209C
  8
0
 10
89.8312862767044464
 20
95.3086803425734104
 30
0.0
  0
VERTEX
  5
209D
  8
0
 10
89.8734782943193693
 20
95.3002994081920605
 30
0.0
  0
VERTEX
  5
209E
  8
0
 10
89.9156586661216863
 20
95.2918365802835581
 30
0.0
  0
VERTEX
  5
209F
  8
0
 10
89.9578312740489139
 20
95.2833191566903253
 30
0.0
  0
VERTEX
  5
20A0
  8
0
 10
90.000000000038554
 20
95.274774435254713
 30
0.0
  0
SEQEND
  5
20A1
  8
0
  0
POLYLINE
  5
1E29
  8
0
 66
     1
 10
0.0
 20
0.0
 30
0.0
  0
VERTEX
  5
20A2
  8
0
 10
92.0000000000385683
 20
91.0000000000347029
 30
0.0
  0
VERTEX
  5
20A3
  8
0
 10
91.9571874304839696
 20
91.0004415244201539
 30
0.0
  0
VERTEX
  5
20A4
  8
0
 10
91.9143757924474301
 20
91.0009289159280144
 30
0.0
  0
VERTEX
  5
20A5
  8
0
 10
91.8715660174470656
 20
91.0015080416807791
 30
0.0
  0
VERTEX
  5
20A6
  8
0
 10
91.8287590370009355
 20
91.0022247688008434
 30
0.0
  0
VERTEX
  5
20A7
  8
0
 10
91.7859557826271271
 20
91.0031249644106595
 30
0.0
  0
VERTEX
  5
20A8
  8
0
 10
91.7431571858437138
 20
91.0042544956326651
 30
0.0
  0
VERTEX
  5
20A9
  8
0
 10
91.7003641649934593
 20
91.0056551933489146
 30
0.0
  0
VERTEX
  5
20AA
  8
0
 10
91.6575775183158044
 20
91.0073320950904758
 30
0.0
  0
VERTEX
  5
20AB
  8
0
 10
91.6147979798306693
 20
91.0092705648649485
 30
0.0
  0
VERTEX
  5
20AC
  8
0
 10
91.5720262829519953
 20
91.0114557810317422
 30
0.0
  0
VERTEX
  5
20AD
  8
0
 10
91.5292631610936951
 20
91.0138729219502665
 30
0.0
  0
VERTEX
  5
20AE
  8
0
 10
91.4865093476696529
 20
91.0165071659799167
 30
0.0
  0
VERTEX
  5
20AF
  8
0
 10
91.4437655750645035
 20
91.0193437859017678
 30
0.0
  0
VERTEX
  5
20B0
  8
0
 10
91.4010325124689587
 20
91.0223738518912313
 30
0.0
  0
VERTEX
  5
20B1
  8
0
 10
91.3583107302857798
 20
91.025597496873516
 30
0.0
  0
VERTEX
  5
20B2
  8
0
 10
91.3156007903213265
 20
91.0290156424097034
 30
0.0
  0
VERTEX
  5
20B3
  8
0
 10
91.2729032543819869
 20
91.0326292100609038
 30
0.0
  0
VERTEX
  5
20B4
  8
0
 10
91.2302186842740639
 20
91.0364391213882271
 30
0.0
  0
VERTEX
  5
20B5
  8
0
 10
91.1875476418039455
 20
91.0404462979527125
 30
0.0
  0
VERTEX
  5
20B6
  8
0
 10
91.1448906873811353
 20
91.0446514100430164
 30
0.0
  0
VERTEX
  5
20B7
  8
0
 10
91.1022483702843857
 20
91.049053125664301
 30
0.0
  0
VERTEX
  5
20B8
  8
0
 10
91.0596212344690485
 20
91.0536491552392135
 30
0.0
  0
VERTEX
  5
20B9
  8
0
 10
91.0170098238575065
 20
91.0584372032236757
 30
0.0
  0
VERTEX
  5
20BA
  8
0
 10
90.9744146823720143
 20
91.063414974073666
 30
0.0
  0
VERTEX
  5
20BB
  8
0
 10
90.9318363539348553
 20
91.068580172245106
 30
0.0
  0
VERTEX
  5
20BC
  8
0
 10
90.8892753824378019
 20
91.073930502114635
 30
0.0
  0
VERTEX
  5
20BD
  8
0
 10
90.8467322082130408
 20
91.079463399117202
 30
0.0
  0
VERTEX
  5
20BE
  8
0
 10
90.8042069367454445
 20
91.0851754290967506
 30
0.0
  0
VERTEX
  5
20BF
  8
0
 10
90.7616996059671806
 20
91.0910629824645071
 30
0.0
  0
VERTEX
  5
20C0
  8
0
 10
90.7192102538103882
 20
91.0971224496316552
 30
0.0
  0
VERTEX
  5
20C1
  8
0
 10
90.676738918207235
 20
91.1033502210094213
 30
0.0
  0
VERTEX
  5
20C2
  8
0
 10
90.6342856370899455
 20
91.1097426870089748
 30
0.0
  0
VERTEX
  5
20C3
  8
0
 10
90.5918504504619477
 20
91.1162962518293682
 30
0.0
  0
VERTEX
  5
20C4
  8
0
 10
90.5494337892696421
 20
91.1230099219210956
 30
0.0
  0
VERTEX
  5
20C5
  8
0
 10
90.507036934148914
 20
91.1298883595657969
 30
0.0
  0
VERTEX
  5
20C6
  8
0
 10
90.4646612772880019
 20
91.1369369695757001
 30
0.0
  0
VERTEX
  5
20C7
  8
0
 10
90.4223082108750305
 20
91.1441611567630616
 30
0.0
  0
VERTEX
  5
20C8
  8
0
 10
90.3799791270982382
 20
91.1515663259401236
 30
0.0
  0
VERTEX
  5
20C9
  8
0
 10
90.3376754181457784
 20
91.1591578819192137
 30
0.0
  0
VERTEX
  5
20CA
  8
0
 10
90.2953984704685979
 20
91.166941193938527
 30
0.0
  0
VERTEX
  5
20CB
  8
0
 10
90.2531482237905749
 20
91.174912660684214
 30
0.0
  0
VERTEX
  5
20CC
  8
0
 10
90.2109212687378061
 20
91.1830479144841775
 30
0.0
  0
VERTEX
  5
20CD
  8
0
 10
90.1687137233727185
 20
91.1913196574959954
 30
0.0
  0
VERTEX
  5
20CE
  8
0
 10
90.126521705757753
 20
91.1997005918773453
 30
0.0
  0
VERTEX
  5
20CF
  8
0
 10
90.0843413339554786
 20
91.2081634197858477
 30
0.0
  0
VERTEX
  5
20D0
  8
0
 10
90.0421687260282511
 20
91.2166808433790806
 30
0.0
  0
VERTEX
  5
20D1
  8
0
 10
90.0000000000385398
 20
91.2252255648146786
 30
0.0
  0
SEQEND
  5
20D2
  8
0
  0
POLYLINE
  5
1E2A
  8
0
 66
     1
 10
0.0
 20
0.0
 30
0.0
  0
VERTEX
  5
20D3
  8
0
 10
90.000000000038554
 20
91.2252255648146786
 30
0.0
  0
VERTEX
  5
20D4
  8
0
 10
89.9516512708726452
 20
91.2154872681075659
 30
0.0
  0
VERTEX
  5
20D5
  8
0
 10
89.9032975620232833
 20
91.2057847033110676
 30
0.0
  0
VERTEX
  5
20D6
  8
0
 10
89.8549338938071003
 20
91.1961536023358121
 30
0.0
  0
VERTEX
  5
20D7
  8
0
 10
89.8065552865406858
 20
91.1866296970924282
 30
0.0
  0
VERTEX
  5
20D8
  8
0
 10
89.7581567605405866
 20
91.1772487194915442
 30
0.0
  0
VERTEX
  5
20D9
  8
0
 10
89.7097333361234632
 20
91.1680464014437746
 30
0.0
  0
VERTEX
  5
20DA
  8
0
 10
89.6612800336058342
 20
91.1590584748597905
 30
0.0
  0
VERTEX
  5
20DB
  8
0
 10
89.6127922659632361
 20
91.1503182336104345
 30
0.0
  0
VERTEX
  5
20DC
  8
0
 10
89.5642695040311168
 20
91.1418337761020041
 30
0.0
  0
VERTEX
  5
20DD
  8
0
 10
89.5157136144772352
 20
91.1335983248923185
 30
0.0
  0
VERTEX
  5
20DE
  8
0
 10
89.4671264950094667
 20
91.1256049098103347
 30
0.0
  0
VERTEX
  5
20DF
  8
0
 10
89.418510043335516
 20
91.1178465606850665
 30
0.0
  0
VERTEX
  5
20E0
  8
0
 10
89.3698661571632442
 20
91.1103163073454851
 30
0.0
  0
VERTEX
  5
20E1
  8
0
 10
89.3211967342003845
 20
91.1030071796206045
 30
0.0
  0
VERTEX
  5
20E2
  8
0
 10
89.2725036122094053
 20
91.095912678763753
 30
0.0
  0
VERTEX
  5
20E3
  8
0
 10
89.2237877098416732
 20
91.0890335341325255
 30
0.0
  0
VERTEX
  5
20E4
  8
0
 10
89.1750492267122183
 20
91.0823761297547918
 30
0.0
  0
VERTEX
  5
20E5
  8
0
 10
89.1262883432631838
 20
91.0759470004389016
 30
0.0
  0
VERTEX
  5
20E6
  8
0
 10
89.0775052399366416
 20
91.0697526809931333
 30
0.0
  0
VERTEX
  5
20E7
  8
0
 10
89.028700097174692
 20
91.063799706225808
 30
0.0
  0
VERTEX
  5
20E8
  8
0
 10
88.9798730954194355
 20
91.0580946109452327
 30
0.0
  0
VERTEX
  5
20E9
  8
0
 10
88.9310244530198162
 20
91.0526435045892697
 30
0.0
  0
VERTEX
  5
20EA
  8
0
 10
88.8821548127340293
 20
91.0474477340993076
 30
0.0
  0
VERTEX
  5
20EB
  8
0
 10
88.8332650836055251
 20
91.0425056583040515
 30
0.0
  0
VERTEX
  5
20EC
  8
0
 10
88.7843561787895226
 20
91.0378155898912098
 30
0.0
  0
VERTEX
  5
20ED
  8
0
 10
88.7354290114413971
 20
91.0333758415485335
 30
0.0
  0
VERTEX
  5
20EE
  8
0
 10
88.6864844947163959
 20
91.0291847259637308
 30
0.0
  0
VERTEX
  5
20EF
  8
0
 10
88.6375235417698661
 20
91.0252405558245812
 30
0.0
  0
VERTEX
  5
20F0
  8
0
 10
88.5885470781617244
 20
91.0215446376824246
 30
0.0
  0
VERTEX
  5
20F1
  8
0
 10
88.539556088253434
 20
91.0181124698074768
 30
0.0
  0
VERTEX
  5
20F2
  8
0
 10
88.4905515738120556
 20
91.0149637513241032
 30
0.0
  0
VERTEX
  5
20F3
  8
0
 10
88.4415345366075059
 20
91.0121181819994405
 30
0.0
  0
VERTEX
  5
20F4
  8
0
 10
88.3925059784094174
 20
91.0095954616005542
 30
0.0
  0
VERTEX
  5
20F5
  8
0
 10
88.3434669009876643
 20
91.007415289894567
 30
0.0
  0
VERTEX
  5
20F6
  8
0
 10
88.2944183098941267
 20
91.0055966115286026
 30
0.0
  0
VERTEX
  5
20F7
  8
0
 10
88.2453613698925494
 20
91.0041265838470537
 30
0.0
  0
VERTEX
  5
20F8
  8
0
 10
88.1962974599049545
 20
91.0029496065832717
 30
0.0
  0
VERTEX
  5
20F9
  8
0
 10
88.1472279739285938
 20
91.0020070696537005
 30
0.0
  0
VERTEX
  5
20FA
  8
0
 10
88.0981543059605769
 20
91.0012403629747837
 30
0.0
  0
VERTEX
  5
20FB
  8
0
 10
88.0490778499981843
 20
91.0005908764629936
 30
0.0
  0
VERTEX
  5
20FC
  8
0
 10
88.0000000000385683
 20
91.0000000000347171
 30
0.0
  0
SEQEND
  5
20FD
  8
0
  0
POLYLINE
  5
1E2B
  8
0
 66
     1
 10
0.0
 20
0.0
 30
0.0
  0
VERTEX
  5
20FE
  8
0
 10
53.4641016151257134
 20
90.9999999999946851
 30
0.0
  0
VERTEX
  5
20FF
  8
0
 10
53.4888194636827379
 20
91.0004415243801361
 30
0.0
  0
VERTEX
  5
2100
  8
0
 10
53.513536774427557
 20
91.0009289158880534
 30
0.0
  0
VERTEX
  5
2101
  8
0
 10
53.5382530095479865
 20
91.001508041640804
 30
0.0
  0
VERTEX
  5
2102
  8
0
 10
53.5629676312317429
 20
91.0022247687608683
 30
0.0
  0
VERTEX
  5
2103
  8
0
 10
53.5876801016666704
 20
91.0031249643706843
 30
0.0
  0
VERTEX
  5
2104
  8
0
 10
53.612389883040521
 20
91.0042544955926758
 30
0.0
  0
VERTEX
  5
2105
  8
0
 10
53.6370964451478827
 20
91.0056551933088969
 30
0.0
  0
VERTEX
  5
2106
  8
0
 10
53.6617993271249532
 20
91.0073320950504865
 30
0.0
  0
VERTEX
  5
2107
  8
0
 10
53.6864981051851373
 20
91.0092705648249733
 30
0.0
  0
VERTEX
  5
2108
  8
0
 10
53.7111923558917397
 20
91.011455780991767
 30
0.0
  0
VERTEX
  5
2109
  8
0
 10
53.7358816558080221
 20
91.0138729219102629
 30
0.0
  0
VERTEX
  5
210A
  8
0
 10
53.7605655814972678
 20
91.0165071659399416
 30
0.0
  0
VERTEX
  5
210B
  8
0
 10
53.7852437101169869
 20
91.0193437858618211
 30
0.0
  0
VERTEX
  5
210C
  8
0
 10
53.8099156553098226
 20
91.0223738518512846
 30
0.0
  0
VERTEX
  5
210D
  8
0
 10
53.83458108775352
 20
91.0255974968335551
 30
0.0
  0
VERTEX
  5
210E
  8
0
 10
53.8592396830890721
 20
91.0290156423697852
 30
0.0
  0
VERTEX
  5
210F
  8
0
 10
53.8838911169573791
 20
91.0326292100209855
 30
0.0
  0
VERTEX
  5
2110
  8
0
 10
53.9085350649994268
 20
91.0364391213483088
 30
0.0
  0
VERTEX
  5
2111
  8
0
 10
53.9331712028561512
 20
91.0404462979127942
 30
0.0
  0
VERTEX
  5
2112
  8
0
 10
53.957799206975011
 20
91.0446514100030839
 30
0.0
  0
VERTEX
  5
2113
  8
0
 10
53.982418760229713
 20
91.0490531256243827
 30
0.0
  0
VERTEX
  5
2114
  8
0
 10
54.0070295485674592
 20
91.0536491551992953
 30
0.0
  0
VERTEX
  5
2115
  8
0
 10
54.0316312579545794
 20
91.0584372031837432
 30
0.0
  0
VERTEX
  5
2116
  8
0
 10
54.056223574357432
 20
91.0634149740337477
 30
0.0
  0
VERTEX
  5
2117
  8
0
 10
54.0808061837422471
 20
91.0685801722051878
 30
0.0
  0
VERTEX
  5
2118
  8
0
 10
54.1053787720930401
 20
91.0739305020747167
 30
0.0
  0
VERTEX
  5
2119
  8
0
 10
54.1299410851839014
 20
91.0794633990772553
 30
0.0
  0
VERTEX
  5
211A
  8
0
 10
54.1544930621130618
 20
91.0851754290568181
 30
0.0
  0
VERTEX
  5
211B
  8
0
 10
54.1790346809804291
 20
91.0910629824245746
 30
0.0
  0
VERTEX
  5
211C
  8
0
 10
54.2035659198858468
 20
91.0971224495917085
 30
0.0
  0
VERTEX
  5
211D
  8
0
 10
54.2280867569291374
 20
91.1033502209694461
 30
0.0
  0
VERTEX
  5
211E
  8
0
 10
54.2525971702102012
 20
91.1097426869690139
 30
0.0
  0
VERTEX
  5
211F
  8
0
 10
54.2770971366329888
 20
91.1162962517893931
 30
0.0
  0
VERTEX
  5
2120
  8
0
 10
54.3015864073904808
 20
91.1230099218811347
 30
0.0
  0
VERTEX
  5
2121
  8
0
 10
54.3260642431072327
 20
91.129888359525836
 30
0.0
  0
VERTEX
  5
2122
  8
0
 10
54.3505298400029702
 20
91.136936969535725
 30
0.0
  0
VERTEX
  5
2123
  8
0
 10
54.3749823942974615
 20
91.1441611567230865
 30
0.0
  0
VERTEX
  5
2124
  8
0
 10
54.3994211022105674
 20
91.1515663259002054
 30
0.0
  0
VERTEX
  5
2125
  8
0
 10
54.4238451599619921
 20
91.1591578818792385
 30
0.0
  0
VERTEX
  5
2126
  8
0
 10
54.4482537670838624
 20
91.1669411938985661
 30
0.0
  0
VERTEX
  5
2127
  8
0
 10
54.4726469583767425
 20
91.1749126606442388
 30
0.0
  0
VERTEX
  5
2128
  8
0
 10
54.497026702243538
 20
91.1830479144442165
 30
0.0
  0
VERTEX
  5
2129
  8
0
 10
54.5213952399219011
 20
91.1913196574560345
 30
0.0
  0
VERTEX
  5
212A
  8
0
 10
54.5457548126495269
 20
91.1997005918373844
 30
0.0
  0
VERTEX
  5
212B
  8
0
 10
54.5701076616641387
 20
91.2081634197458584
 30
0.0
  0
VERTEX
  5
212C
  8
0
 10
54.5944560282033535
 20
91.216680843339077
 30
0.0
  0
VERTEX
  5
212D
  8
0
 10
54.6188021535048733
 20
91.225225564774675
 30
0.0
  0
SEQEND
  5
212E
  8
0
  0
POLYLINE
  5
1E2C
  8
0
 66
     1
 10
0.0
 20
0.0
 30
0.0
  0
VERTEX
  5
212F
  8
0
 10
54.6188021535049018
 20
95.2747744352148089
 30
0.0
  0
VERTEX
  5
2130
  8
0
 10
54.590888001705963
 20
95.2845127319219216
 30
0.0
  0
VERTEX
  5
2131
  8
0
 10
54.5629709748854808
 20
95.2942152967184057
 30
0.0
  0
VERTEX
  5
2132
  8
0
 10
54.5350481980218476
 20
95.303846397693647
 30
0.0
  0
VERTEX
  5
2133
  8
0
 10
54.5071167960935483
 20
95.3133703029370452
 30
0.0
  0
VERTEX
  5
2134
  8
0
 10
54.4791738940790182
 20
95.3227512805379149
 30
0.0
  0
VERTEX
  5
2135
  8
0
 10
54.4512166169566925
 20
95.3319535985856703
 30
0.0
  0
VERTEX
  5
2136
  8
0
 10
54.4232420897050133
 20
95.340941525169697
 30
0.0
  0
VERTEX
  5
2137
  8
0
 10
54.3952476640041596
 20
95.3496817664190246
 30
0.0
  0
VERTEX
  5
2138
  8
0
 10
54.3672330343408206
 20
95.3581662239274408
 30
0.0
  0
VERTEX
  5
2139
  8
0
 10
54.3391992784361477
 20
95.3664016751371548
 30
0.0
  0
VERTEX
  5
213A
  8
0
 10
54.3111474919322674
 20
95.3743950902191102
 30
0.0
  0
VERTEX
  5
213B
  8
0
 10
54.2830787704712918
 20
95.3821534393443926
 30
0.0
  0
VERTEX
  5
213C
  8
0
 10
54.2549942096952904
 20
95.3896836926839455
 30
0.0
  0
VERTEX
  5
213D
  8
0
 10
54.2268949052464109
 20
95.3969928204088546
 30
0.0
  0
VERTEX
  5
213E
  8
0
 10
54.1987819181572092
 20
95.4040873212657061
 30
0.0
  0
VERTEX
  5
213F
  8
0
 10
54.1706557788113798
 20
95.4109664658969336
 30
0.0
  0
VERTEX
  5
2140
  8
0
 10
54.1425166024567091
 20
95.4176238702746531
 30
0.0
  0
VERTEX
  5
2141
  8
0
 10
54.1143644932714665
 20
95.4240529995905433
 30
0.0
  0
VERTEX
  5
2142
  8
0
 10
54.0861995554339785
 20
95.4302473190363116
 30
0.0
  0
VERTEX
  5
2143
  8
0
 10
54.0580218931225431
 20
95.4362002938036369
 30
0.0
  0
VERTEX
  5
2144
  8
0
 10
54.0298316105154299
 20
95.4419053890842264
 30
0.0
  0
VERTEX
  5
2145
  8
0
 10
54.0016288336764987
 20
95.4473564954401752
 30
0.0
  0
VERTEX
  5
2146
  8
0
 10
53.973413933702318
 20
95.4525522659301089
 30
0.0
  0
VERTEX
  5
2147
  8
0
 10
53.9451874354293466
 20
95.4574943417253934
 30
0.0
  0
VERTEX
  5
2148
  8
0
 10
53.9169498660680802
 20
95.4621844101382351
 30
0.0
  0
VERTEX
  5
2149
  8
0
 10
53.8887017528289505
 20
95.4666241584809256
 30
0.0
  0
VERTEX
  5
214A
  8
0
 10
53.8604436229224532
 20
95.4708152740657283
 30
0.0
  0
VERTEX
  5
214B
  8
0
 10
53.8321760035589705
 20
95.4747594442048779
 30
0.0
  0
VERTEX
  5
214C
  8
0
 10
53.8038994291108281
 20
95.4784553623470487
 30
0.0
  0
VERTEX
  5
214D
  8
0
 10
53.7756144678994019
 20
95.4818875302219823
 30
0.0
  0
VERTEX
  5
214E
  8
0
 10
53.7473216982952025
 20
95.4850362487053417
 30
0.0
  0
VERTEX
  5
214F
  8
0
 10
53.7190216986702183
 20
95.4878818180300186
 30
0.0
  0
VERTEX
  5
2150
  8
0
 10
53.6907150473965871
 20
95.4904045384289049
 30
0.0
  0
VERTEX
  5
2151
  8
0
 10
53.6624023228463329
 20
95.4925847101348921
 30
0.0
  0
VERTEX
  5
2152
  8
0
 10
53.6340841055751127
 20
95.4944033885008565
 30
0.0
  0
VERTEX
  5
2153
  8
0
 10
53.6057610680595928
 20
95.4958734161824054
 30
0.0
  0
VERTEX
  5
2154
  8
0
 10
53.5774340064207593
 20
95.4970503934461874
 30
0.0
  0
VERTEX
  5
2155
  8
0
 10
53.5491037254833202
 20
95.4979929303757871
 30
0.0
  0
VERTEX
  5
2156
  8
0
 10
53.5207710300718702
 20
95.4987596370546896
 30
0.0
  0
VERTEX
  5
2157
  8
0
 10
53.4924367250111175
 20
95.4994091235665081
 30
0.0
  0
VERTEX
  5
2158
  8
0
 10
53.4641016151257134
 20
95.4999999999947988
 30
0.0
  0
SEQEND
  5
2159
  8
0
  0
POLYLINE
  5
1E2D
  8
0
 66
     1
 10
0.0
 20
0.0
 30
0.0
  0
VERTEX
  5
215A
  8
0
 10
53.4641016151257134
 20
95.4999999999947988
 30
0.0
  0
VERTEX
  5
215B
  8
0
 10
53.4393837665686178
 20
95.4995584756093336
 30
0.0
  0
VERTEX
  5
215C
  8
0
 10
53.4146664558237774
 20
95.4990710841014447
 30
0.0
  0
VERTEX
  5
215D
  8
0
 10
53.3899502207033194
 20
95.4984919583486942
 30
0.0
  0
VERTEX
  5
215E
  8
0
 10
53.3652355990195417
 20
95.4977752312286157
 30
0.0
  0
VERTEX
  5
215F
  8
0
 10
53.3405231285846426
 20
95.4968750356188139
 30
0.0
  0
VERTEX
  5
2160
  8
0
 10
53.315813347210792
 20
95.4957455043968224
 30
0.0
  0
VERTEX
  5
2161
  8
0
 10
53.2911067851034304
 20
95.4943448066805871
 30
0.0
  0
VERTEX
  5
2162
  8
0
 10
53.2664039031263599
 20
95.4926679049390259
 30
0.0
  0
VERTEX
  5
2163
  8
0
 10
53.2417051250661828
 20
95.490729435164539
 30
0.0
  0
VERTEX
  5
2164
  8
0
 10
53.2170108743595804
 20
95.4885442189977738
 30
0.0
  0
VERTEX
  5
2165
  8
0
 10
53.1923215744432909
 20
95.4861270780792637
 30
0.0
  0
VERTEX
  5
2166
  8
0
 10
53.167637648754031
 20
95.483492834049585
 30
0.0
  0
VERTEX
  5
2167
  8
0
 10
53.1429595201342977
 20
95.4806562141277055
 30
0.0
  0
VERTEX
  5
2168
  8
0
 10
53.118287574941462
 20
95.4776261481382562
 30
0.0
  0
VERTEX
  5
2169
  8
0
 10
53.0936221424977717
 20
95.4744025031559431
 30
0.0
  0
VERTEX
  5
216A
  8
0
 10
53.0689635471622125
 20
95.4709843576197557
 30
0.0
  0
VERTEX
  5
216B
  8
0
 10
53.0443121132938984
 20
95.4673707899685269
 30
0.0
  0
VERTEX
  5
216C
  8
0
 10
53.0196681652518578
 20
95.4635608786412178
 30
0.0
  0
VERTEX
  5
216D
  8
0
 10
52.9950320273951476
 20
95.459553702076704
 30
0.0
  0
VERTEX
  5
216E
  8
0
 10
52.9704040232763305
 20
95.4553485899864143
 30
0.0
  0
VERTEX
  5
216F
  8
0
 10
52.9457844700216285
 20
95.4509468743651439
 30
0.0
  0
VERTEX
  5
2170
  8
0
 10
52.9211736816838467
 20
95.4463508447902456
 30
0.0
  0
VERTEX
  5
2171
  8
0
 10
52.8965719722967194
 20
95.4415627968057549
 30
0.0
  0
VERTEX
  5
2172
  8
0
 10
52.8719796558939095
 20
95.4365850259557931
 30
0.0
  0
VERTEX
  5
2173
  8
0
 10
52.8473970465090588
 20
95.4314198277843388
 30
0.0
  0
VERTEX
  5
2174
  8
0
 10
52.8228244581582729
 20
95.4260694979148241
 30
0.0
  0
VERTEX
  5
2175
  8
0
 10
52.7982621450674117
 20
95.4205366009122571
 30
0.0
  0
VERTEX
  5
2176
  8
0
 10
52.7737101681382512
 20
95.4148245709326943
 30
0.0
  0
VERTEX
  5
2177
  8
0
 10
52.7491685492708768
 20
95.408937017564952
 30
0.0
  0
VERTEX
  5
2178
  8
0
 10
52.7246373103654591
 20
95.4028775503978039
 30
0.0
  0
VERTEX
  5
2179
  8
0
 10
52.7001164733221401
 20
95.3966497790200378
 30
0.0
  0
VERTEX
  5
217A
  8
0
 10
52.6756060600410692
 20
95.3902573130204843
 30
0.0
  0
VERTEX
  5
217B
  8
0
 10
52.6511060936183029
 20
95.3837037482001051
 30
0.0
  0
VERTEX
  5
217C
  8
0
 10
52.6266168228607896
 20
95.3769900781083351
 30
0.0
  0
VERTEX
  5
217D
  8
0
 10
52.602138987144059
 20
95.370111640463648
 30
0.0
  0
VERTEX
  5
217E
  8
0
 10
52.5776733902483215
 20
95.3630630304537448
 30
0.0
  0
VERTEX
  5
217F
  8
0
 10
52.5532208359538018
 20
95.3558388432663833
 30
0.0
  0
VERTEX
  5
2180
  8
0
 10
52.5287821280407172
 20
95.348433674089307
 30
0.0
  0
VERTEX
  5
2181
  8
0
 10
52.5043580702892996
 20
95.340842118110217
 30
0.0
  0
VERTEX
  5
2182
  8
0
 10
52.4799494631674008
 20
95.3330588060909037
 30
0.0
  0
VERTEX
  5
2183
  8
0
 10
52.4555562718745065
 20
95.3250873393452309
 30
0.0
  0
VERTEX
  5
2184
  8
0
 10
52.4311765280077395
 20
95.3169520855452959
 30
0.0
  0
VERTEX
  5
2185
  8
0
 10
52.4068079903293622
 20
95.3086803425334352
 30
0.0
  0
VERTEX
  5
2186
  8
0
 10
52.3824484176017222
 20
95.3002994081521138
 30
0.0
  0
VERTEX
  5
2187
  8
0
 10
52.358095568587153
 20
95.2918365802436256
 30
0.0
  0
VERTEX
  5
2188
  8
0
 10
52.3337472020479311
 20
95.2833191566504212
 30
0.0
  0
VERTEX
  5
2189
  8
0
 10
52.3094010767463828
 20
95.2747744352148089
 30
0.0
  0
SEQEND
  5
218A
  8
0
  0
POLYLINE
  5
1E2E
  8
0
 66
     1
 10
0.0
 20
0.0
 30
0.0
  0
VERTEX
  5
218B
  8
0
 10
45.3811978464709114
 20
91.225225564774675
 30
0.0
  0
VERTEX
  5
218C
  8
0
 10
45.4091119982698501
 20
91.2154872680675766
 30
0.0
  0
VERTEX
  5
218D
  8
0
 10
45.4370290250903395
 20
91.2057847032710782
 30
0.0
  0
VERTEX
  5
218E
  8
0
 10
45.46495180195393
 20
91.196153602295837
 30
0.0
  0
VERTEX
  5
218F
  8
0
 10
45.4928832038822293
 20
91.186629697052453
 30
0.0
  0
VERTEX
  5
2190
  8
0
 10
45.5208261058967594
 20
91.1772487194515833
 30
0.0
  0
VERTEX
  5
2191
  8
0
 10
45.5487833830190993
 20
91.1680464014038279
 30
0.0
  0
VERTEX
  5
2192
  8
0
 10
45.5767579102707714
 20
91.1590584748198154
 30
0.0
  0
VERTEX
  5
2193
  8
0
 10
45.604752335971618
 20
91.1503182335704736
 30
0.0
  0
VERTEX
  5
2194
  8
0
 10
45.6327669656349713
 20
91.1418337760620574
 30
0.0
  0
VERTEX
  5
2195
  8
0
 10
45.6608007215396299
 20
91.1335983248523434
 30
0.0
  0
VERTEX
  5
2196
  8
0
 10
45.6888525080435102
 20
91.1256049097703738
 30
0.0
  0
VERTEX
  5
2197
  8
0
 10
45.7169212295044929
 20
91.1178465606451056
 30
0.0
  0
VERTEX
  5
2198
  8
0
 10
45.7450057902804872
 20
91.1103163073055242
 30
0.0
  0
VERTEX
  5
2199
  8
0
 10
45.7731050947293667
 20
91.1030071795806293
 30
0.0
  0
VERTEX
  5
219A
  8
0
 10
45.8012180818185684
 20
91.0959126787238063
 30
0.0
  0
VERTEX
  5
219B
  8
0
 10
45.8293442211643978
 20
91.0890335340925645
 30
0.0
  0
VERTEX
  5
219C
  8
0
 10
45.8574833975190828
 20
91.0823761297148451
 30
0.0
  0
VERTEX
  5
219D
  8
0
 10
45.8856355067043111
 20
91.0759470003989549
 30
0.0
  0
VERTEX
  5
219E
  8
0
 10
45.9138004445417991
 20
91.0697526809531581
 30
0.0
  0
VERTEX
  5
219F
  8
0
 10
45.9419781068532416
 20
91.0637997061858471
 30
0.0
  0
VERTEX
  5
21A0
  8
0
 10
45.9701683894603477
 20
91.058094610905286
 30
0.0
  0
VERTEX
  5
21A1
  8
0
 10
45.9983711662992718
 20
91.0526435045492946
 30
0.0
  0
VERTEX
  5
21A2
  8
0
 10
46.0265860662734596
 20
91.0474477340593609
 30
0.0
  0
VERTEX
  5
21A3
  8
0
 10
46.0548125645464381
 20
91.0425056582641048
 30
0.0
  0
VERTEX
  5
21A4
  8
0
 10
46.0830501339076974
 20
91.0378155898512347
 30
0.0
  0
VERTEX
  5
21A5
  8
0
 10
46.1112982471468271
 20
91.0333758415085441
 30
0.0
  0
VERTEX
  5
21A6
  8
0
 10
46.139556377053367
 20
91.0291847259237557
 30
0.0
  0
VERTEX
  5
21A7
  8
0
 10
46.1678239964168071
 20
91.025240555784606
 30
0.0
  0
VERTEX
  5
21A8
  8
0
 10
46.1961005708649566
 20
91.0215446376424495
 30
0.0
  0
VERTEX
  5
21A9
  8
0
 10
46.2243855320763828
 20
91.0181124697675159
 30
0.0
  0
VERTEX
  5
21AA
  8
0
 10
46.2526783016805823
 20
91.0149637512841565
 30
0.0
  0
VERTEX
  5
21AB
  8
0
 10
46.2809783013055593
 20
91.0121181819594938
 30
0.0
  0
VERTEX
  5
21AC
  8
0
 10
46.3092849525791905
 20
91.0095954615605933
 30
0.0
  0
VERTEX
  5
21AD
  8
0
 10
46.3375976771294518
 20
91.0074152898546203
 30
0.0
  0
VERTEX
  5
21AE
  8
0
 10
46.365915894400672
 20
91.0055966114886559
 30
0.0
  0
VERTEX
  5
21AF
  8
0
 10
46.3942389319161919
 20
91.004126583807107
 30
0.0
  0
VERTEX
  5
21B0
  8
0
 10
46.4225659935550183
 20
91.002949606543325
 30
0.0
  0
VERTEX
  5
21B1
  8
0
 10
46.4508962744924929
 20
91.0020070696137253
 30
0.0
  0
VERTEX
  5
21B2
  8
0
 10
46.4792289699039074
 20
91.0012403629348086
 30
0.0
  0
VERTEX
  5
21B3
  8
0
 10
46.5075632749646601
 20
91.0005908764229758
 30
0.0
  0
VERTEX
  5
21B4
  8
0
 10
46.5358983848500998
 20
90.9999999999946994
 30
0.0
  0
SEQEND
  5
21B5
  8
0
  0
POLYLINE
  5
1E2F
  8
0
 66
     1
 10
0.0
 20
0.0
 30
0.0
  0
VERTEX
  5
21B6
  8
0
 10
47.6905989232294019
 20
95.2747744352148089
 30
0.0
  0
VERTEX
  5
21B7
  8
0
 10
47.6626847714304631
 20
95.2845127319219216
 30
0.0
  0
VERTEX
  5
21B8
  8
0
 10
47.6347677446099667
 20
95.2942152967184057
 30
0.0
  0
VERTEX
  5
21B9
  8
0
 10
47.6068449677463619
 20
95.303846397693647
 30
0.0
  0
VERTEX
  5
21BA
  8
0
 10
47.5789135658180484
 20
95.3133703029370452
 30
0.0
  0
VERTEX
  5
21BB
  8
0
 10
47.5509706638035183
 20
95.3227512805379149
 30
0.0
  0
VERTEX
  5
21BC
  8
0
 10
47.5230133866811784
 20
95.3319535985856703
 30
0.0
  0
VERTEX
  5
21BD
  8
0
 10
47.4950388594295134
 20
95.340941525169697
 30
0.0
  0
VERTEX
  5
21BE
  8
0
 10
47.4670444337286526
 20
95.3496817664190246
 30
0.0
  0
VERTEX
  5
21BF
  8
0
 10
47.4390298040653065
 20
95.3581662239274408
 30
0.0
  0
VERTEX
  5
21C0
  8
0
 10
47.4109960481606478
 20
95.3664016751371548
 30
0.0
  0
VERTEX
  5
21C1
  8
0
 10
47.3829442616568031
 20
95.3743950902191102
 30
0.0
  0
VERTEX
  5
21C2
  8
0
 10
47.3548755401958203
 20
95.3821534393443926
 30
0.0
  0
VERTEX
  5
21C3
  8
0
 10
47.3267909794198189
 20
95.3896836926839455
 30
0.0
  0
VERTEX
  5
21C4
  8
0
 10
47.2986916749709394
 20
95.3969928204088546
 30
0.0
  0
VERTEX
  5
21C5
  8
0
 10
47.2705786878817378
 20
95.4040873212657061
 30
0.0
  0
VERTEX
  5
21C6
  8
0
 10
47.2424525485359084
 20
95.4109664658969336
 30
0.0
  0
VERTEX
  5
21C7
  8
0
 10
47.2143133721812305
 20
95.4176238702746531
 30
0.0
  0
VERTEX
  5
21C8
  8
0
 10
47.1861612629960021
 20
95.4240529995905433
 30
0.0
  0
VERTEX
  5
21C9
  8
0
 10
47.1579963251584999
 20
95.4302473190363116
 30
0.0
  0
VERTEX
  5
21CA
  8
0
 10
47.1298186628470717
 20
95.4362002938036369
 30
0.0
  0
VERTEX
  5
21CB
  8
0
 10
47.1016283802399585
 20
95.4419053890842264
 30
0.0
  0
VERTEX
  5
21CC
  8
0
 10
47.073425603401013
 20
95.4473564954401752
 30
0.0
  0
VERTEX
  5
21CD
  8
0
 10
47.0452107034267826
 20
95.4525522659301089
 30
0.0
  0
VERTEX
  5
21CE
  8
0
 10
47.0169842051538396
 20
95.4574943417253934
 30
0.0
  0
VERTEX
  5
21CF
  8
0
 10
46.9887466357925518
 20
95.4621844101382351
 30
0.0
  0
VERTEX
  5
21D0
  8
0
 10
46.9604985225534222
 20
95.4666241584809256
 30
0.0
  0
VERTEX
  5
21D1
  8
0
 10
46.9322403926469107
 20
95.4708152740657283
 30
0.0
  0
VERTEX
  5
21D2
  8
0
 10
46.9039727732834422
 20
95.4747594442048779
 30
0.0
  0
VERTEX
  5
21D3
  8
0
 10
46.8756961988352714
 20
95.4784553623470487
 30
0.0
  0
VERTEX
  5
21D4
  8
0
 10
46.8474112376238523
 20
95.4818875302219823
 30
0.0
  0
VERTEX
  5
21D5
  8
0
 10
46.8191184680196386
 20
95.4850362487053417
 30
0.0
  0
VERTEX
  5
21D6
  8
0
 10
46.7908184683946615
 20
95.4878818180300186
 30
0.0
  0
VERTEX
  5
21D7
  8
0
 10
46.7625118171210303
 20
95.4904045384289049
 30
0.0
  0
VERTEX
  5
21D8
  8
0
 10
46.7341990925707691
 20
95.4925847101348921
 30
0.0
  0
VERTEX
  5
21D9
  8
0
 10
46.7058808752996129
 20
95.4944033885008565
 30
0.0
  0
VERTEX
  5
21DA
  8
0
 10
46.677557837784093
 20
95.4958734161824054
 30
0.0
  0
VERTEX
  5
21DB
  8
0
 10
46.6492307761452594
 20
95.4970503934461874
 30
0.0
  0
VERTEX
  5
21DC
  8
0
 10
46.6209004952077919
 20
95.4979929303757871
 30
0.0
  0
VERTEX
  5
21DD
  8
0
 10
46.5925677997963419
 20
95.4987596370546896
 30
0.0
  0
VERTEX
  5
21DE
  8
0
 10
46.5642334947355607
 20
95.4994091235665081
 30
0.0
  0
VERTEX
  5
21DF
  8
0
 10
46.5358983848501282
 20
95.4999999999947988
 30
0.0
  0
SEQEND
  5
21E0
  8
0
  0
POLYLINE
  5
1E30
  8
0
 66
     1
 10
0.0
 20
0.0
 30
0.0
  0
VERTEX
  5
21E1
  8
0
 10
46.5358983848500998
 20
95.4999999999947988
 30
0.0
  0
VERTEX
  5
21E2
  8
0
 10
46.511180536293061
 20
95.4995584756093336
 30
0.0
  0
VERTEX
  5
21E3
  8
0
 10
46.4864632255482206
 20
95.4990710841014447
 30
0.0
  0
VERTEX
  5
21E4
  8
0
 10
46.4617469904278266
 20
95.4984919583486942
 30
0.0
  0
VERTEX
  5
21E5
  8
0
 10
46.4370323687440418
 20
95.4977752312286157
 30
0.0
  0
VERTEX
  5
21E6
  8
0
 10
46.4123198983091001
 20
95.4968750356188139
 30
0.0
  0
VERTEX
  5
21E7
  8
0
 10
46.3876101169352566
 20
95.4957455043968224
 30
0.0
  0
VERTEX
  5
21E8
  8
0
 10
46.3629035548279091
 20
95.4943448066805871
 30
0.0
  0
VERTEX
  5
21E9
  8
0
 10
46.3382006728508316
 20
95.4926679049390259
 30
0.0
  0
VERTEX
  5
21EA
  8
0
 10
46.3135018947906403
 20
95.490729435164539
 30
0.0
  0
VERTEX
  5
21EB
  8
0
 10
46.2888076440840734
 20
95.4885442189977738
 30
0.0
  0
VERTEX
  5
21EC
  8
0
 10
46.2641183441677981
 20
95.4861270780792637
 30
0.0
  0
VERTEX
  5
21ED
  8
0
 10
46.2394344184785311
 20
95.483492834049585
 30
0.0
  0
VERTEX
  5
21EE
  8
0
 10
46.2147562898587907
 20
95.4806562141277055
 30
0.0
  0
VERTEX
  5
21EF
  8
0
 10
46.1900843446659621
 20
95.4776261481382562
 30
0.0
  0
VERTEX
  5
21F0
  8
0
 10
46.1654189122222576
 20
95.4744025031559431
 30
0.0
  0
VERTEX
  5
21F1
  8
0
 10
46.1407603168867126
 20
95.4709843576197557
 30
0.0
  0
VERTEX
  5
21F2
  8
0
 10
46.1161088830183914
 20
95.4673707899685269
 30
0.0
  0
VERTEX
  5
21F3
  8
0
 10
46.0914649349763508
 20
95.4635608786412178
 30
0.0
  0
VERTEX
  5
21F4
  8
0
 10
46.0668287971196193
 20
95.459553702076704
 30
0.0
  0
VERTEX
  5
21F5
  8
0
 10
46.0422007930008022
 20
95.4553485899864143
 30
0.0
  0
VERTEX
  5
21F6
  8
0
 10
46.0175812397461073
 20
95.4509468743651439
 30
0.0
  0
VERTEX
  5
21F7
  8
0
 10
45.9929704514083184
 20
95.4463508447902456
 30
0.0
  0
VERTEX
  5
21F8
  8
0
 10
45.9683687420211982
 20
95.4415627968057549
 30
0.0
  0
VERTEX
  5
21F9
  8
0
 10
45.9437764256183812
 20
95.4365850259557931
 30
0.0
  0
VERTEX
  5
21FA
  8
0
 10
45.9191938162335305
 20
95.4314198277843388
 30
0.0
  0
VERTEX
  5
21FB
  8
0
 10
45.8946212278827304
 20
95.4260694979148241
 30
0.0
  0
VERTEX
  5
21FC
  8
0
 10
45.8700589147918834
 20
95.4205366009122571
 30
0.0
  0
VERTEX
  5
21FD
  8
0
 10
45.8455069378627229
 20
95.4148245709326943
 30
0.0
  0
VERTEX
  5
21FE
  8
0
 10
45.8209653189953485
 20
95.408937017564952
 30
0.0
  0
VERTEX
  5
21FF
  8
0
 10
45.7964340800899308
 20
95.4028775503978039
 30
0.0
  0
VERTEX
  5
2200
  8
0
 10
45.7719132430466118
 20
95.3966497790200378
 30
0.0
  0
VERTEX
  5
2201
  8
0
 10
45.7474028297655479
 20
95.3902573130204843
 30
0.0
  0
VERTEX
  5
2202
  8
0
 10
45.7229028633427887
 20
95.3837037482001051
 30
0.0
  0
VERTEX
  5
2203
  8
0
 10
45.6984135925852897
 20
95.3769900781083351
 30
0.0
  0
VERTEX
  5
2204
  8
0
 10
45.6739357568685591
 20
95.370111640463648
 30
0.0
  0
VERTEX
  5
2205
  8
0
 10
45.6494701599728216
 20
95.363063030453759
 30
0.0
  0
VERTEX
  5
2206
  8
0
 10
45.6250176056783232
 20
95.3558388432663833
 30
0.0
  0
VERTEX
  5
2207
  8
0
 10
45.6005788977652173
 20
95.348433674089307
 30
0.0
  0
VERTEX
  5
2208
  8
0
 10
45.5761548400137997
 20
95.340842118110217
 30
0.0
  0
VERTEX
  5
2209
  8
0
 10
45.5517462328919223
 20
95.3330588060909037
 30
0.0
  0
VERTEX
  5
220A
  8
0
 10
45.5273530415990422
 20
95.3250873393452309
 30
0.0
  0
VERTEX
  5
220B
  8
0
 10
45.502973297732261
 20
95.3169520855452959
 30
0.0
  0
VERTEX
  5
220C
  8
0
 10
45.4786047600538765
 20
95.3086803425334352
 30
0.0
  0
VERTEX
  5
220D
  8
0
 10
45.4542451873262507
 20
95.3002994081521138
 30
0.0
  0
VERTEX
  5
220E
  8
0
 10
45.4298923383116673
 20
95.2918365802436256
 30
0.0
  0
VERTEX
  5
220F
  8
0
 10
45.4055439717724525
 20
95.2833191566504212
 30
0.0
  0
VERTEX
  5
2210
  8
0
 10
45.3811978464709327
 20
95.2747744352148089
 30
0.0
  0
SEQEND
  5
2211
  8
0
  0
POLYLINE
  5
1E31
  8
0
 66
     1
 10
0.0
 20
0.0
 30
0.0
  0
VERTEX
  5
2212
  8
0
 10
52.3094010767463828
 20
91.225225564774675
 30
0.0
  0
VERTEX
  5
2213
  8
0
 10
52.3373152285453216
 20
91.2154872680675766
 30
0.0
  0
VERTEX
  5
2214
  8
0
 10
52.3652322553658109
 20
91.2057847032710782
 30
0.0
  0
VERTEX
  5
2215
  8
0
 10
52.3931550322294299
 20
91.196153602295837
 30
0.0
  0
VERTEX
  5
2216
  8
0
 10
52.4210864341577292
 20
91.186629697052453
 30
0.0
  0
VERTEX
  5
2217
  8
0
 10
52.4490293361722522
 20
91.1772487194515833
 30
0.0
  0
VERTEX
  5
2218
  8
0
 10
52.4769866132945992
 20
91.1680464014038279
 30
0.0
  0
VERTEX
  5
2219
  8
0
 10
52.5049611405462713
 20
91.1590584748198154
 30
0.0
  0
VERTEX
  5
221A
  8
0
 10
52.5329555662471321
 20
91.1503182335704736
 30
0.0
  0
VERTEX
  5
221B
  8
0
 10
52.5609701959104711
 20
91.1418337760620574
 30
0.0
  0
VERTEX
  5
221C
  8
0
 10
52.5890039518151227
 20
91.1335983248523434
 30
0.0
  0
VERTEX
  5
221D
  8
0
 10
52.6170557383189816
 20
91.1256049097703738
 30
0.0
  0
VERTEX
  5
221E
  8
0
 10
52.6451244597799572
 20
91.1178465606451056
 30
0.0
  0
VERTEX
  5
221F
  8
0
 10
52.6732090205559587
 20
91.1103163073055242
 30
0.0
  0
VERTEX
  5
2220
  8
0
 10
52.7013083250048382
 20
91.1030071795806293
 30
0.0
  0
VERTEX
  5
2221
  8
0
 10
52.7294213120940398
 20
91.0959126787238063
 30
0.0
  0
VERTEX
  5
2222
  8
0
 10
52.7575474514398834
 20
91.0890335340925645
 30
0.0
  0
VERTEX
  5
2223
  8
0
 10
52.7856866277945471
 20
91.0823761297148451
 30
0.0
  0
VERTEX
  5
2224
  8
0
 10
52.8138387369797897
 20
91.0759470003989549
 30
0.0
  0
VERTEX
  5
2225
  8
0
 10
52.8420036748172706
 20
91.0697526809531581
 30
0.0
  0
VERTEX
  5
2226
  8
0
 10
52.870181337128713
 20
91.0637997061858471
 30
0.0
  0
VERTEX
  5
2227
  8
0
 10
52.8983716197358333
 20
91.058094610905286
 30
0.0
  0
VERTEX
  5
2228
  8
0
 10
52.9265743965747788
 20
91.0526435045492946
 30
0.0
  0
VERTEX
  5
2229
  8
0
 10
52.9547892965489879
 20
91.0474477340593609
 30
0.0
  0
VERTEX
  5
222A
  8
0
 10
52.983015794821938
 20
91.0425056582641048
 30
0.0
  0
VERTEX
  5
222B
  8
0
 10
53.0112533641832329
 20
91.0378155898512347
 30
0.0
  0
VERTEX
  5
222C
  8
0
 10
53.0395014774223625
 20
91.0333758415085441
 30
0.0
  0
VERTEX
  5
222D
  8
0
 10
53.0677596073288669
 20
91.0291847259237557
 30
0.0
  0
VERTEX
  5
222E
  8
0
 10
53.0960272266923425
 20
91.025240555784606
 30
0.0
  0
VERTEX
  5
222F
  8
0
 10
53.1243038011405133
 20
91.0215446376424495
 30
0.0
  0
VERTEX
  5
2230
  8
0
 10
53.1525887623519395
 20
91.0181124697675159
 30
0.0
  0
VERTEX
  5
2231
  8
0
 10
53.180881531956139
 20
91.0149637512841565
 30
0.0
  0
VERTEX
  5
2232
  8
0
 10
53.2091815315811232
 20
91.0121181819594938
 30
0.0
  0
VERTEX
  5
2233
  8
0
 10
53.2374881828547473
 20
91.0095954615605933
 30
0.0
  0
VERTEX
  5
2234
  8
0
 10
53.2658009074050085
 20
91.0074152898546203
 30
0.0
  0
VERTEX
  5
2235
  8
0
 10
53.2941191246761719
 20
91.0055966114886559
 30
0.0
  0
VERTEX
  5
2236
  8
0
 10
53.3224421621916918
 20
91.004126583807107
 30
0.0
  0
VERTEX
  5
2237
  8
0
 10
53.3507692238305182
 20
91.002949606543325
 30
0.0
  0
VERTEX
  5
2238
  8
0
 10
53.3790995047679928
 20
91.0020070696137253
 30
0.0
  0
VERTEX
  5
2239
  8
0
 10
53.4074322001794428
 20
91.0012403629348086
 30
0.0
  0
VERTEX
  5
223A
  8
0
 10
53.4357665052402169
 20
91.0005908764229758
 30
0.0
  0
VERTEX
  5
223B
  8
0
 10
53.464101615125692
 20
90.9999999999946994
 30
0.0
  0
SEQEND
  5
223C
  8
0
  0
POLYLINE
  5
1E32
  8
0
 66
     1
 10
0.0
 20
0.0
 30
0.0
  0
VERTEX
  5
223D
  8
0
 10
46.5358983848500998
 20
90.9999999999946851
 30
0.0
  0
VERTEX
  5
223E
  8
0
 10
46.5606162334071598
 20
91.0004415243801361
 30
0.0
  0
VERTEX
  5
223F
  8
0
 10
46.5853335441520429
 20
91.0009289158880534
 30
0.0
  0
VERTEX
  5
2240
  8
0
 10
46.6100497792724511
 20
91.001508041640804
 30
0.0
  0
VERTEX
  5
2241
  8
0
 10
46.634764400956243
 20
91.0022247687608683
 30
0.0
  0
VERTEX
  5
2242
  8
0
 10
46.6594768713911492
 20
91.0031249643706843
 30
0.0
  0
VERTEX
  5
2243
  8
0
 10
46.6841866527649927
 20
91.0042544955926758
 30
0.0
  0
VERTEX
  5
2244
  8
0
 10
46.7088932148723401
 20
91.0056551933088969
 30
0.0
  0
VERTEX
  5
2245
  8
0
 10
46.7335960968494319
 20
91.0073320950504865
 30
0.0
  0
VERTEX
  5
2246
  8
0
 10
46.7582948749096019
 20
91.0092705648249733
 30
0.0
  0
VERTEX
  5
2247
  8
0
 10
46.7829891256162114
 20
91.011455780991767
 30
0.0
  0
VERTEX
  5
2248
  8
0
 10
46.8076784255324796
 20
91.0138729219102629
 30
0.0
  0
VERTEX
  5
2249
  8
0
 10
46.8323623512217466
 20
91.0165071659399416
 30
0.0
  0
VERTEX
  5
224A
  8
0
 10
46.8570404798414799
 20
91.0193437858618211
 30
0.0
  0
VERTEX
  5
224B
  8
0
 10
46.8817124250343227
 20
91.0223738518512846
 30
0.0
  0
VERTEX
  5
224C
  8
0
 10
46.9063778574780486
 20
91.0255974968335551
 30
0.0
  0
VERTEX
  5
224D
  8
0
 10
46.9310364528135722
 20
91.0290156423697852
 30
0.0
  0
VERTEX
  5
224E
  8
0
 10
46.9556878866818934
 20
91.0326292100209855
 30
0.0
  0
VERTEX
  5
224F
  8
0
 10
46.9803318347239198
 20
91.0364391213483088
 30
0.0
  0
VERTEX
  5
2250
  8
0
 10
47.0049679725806584
 20
91.0404462979127942
 30
0.0
  0
VERTEX
  5
2251
  8
0
 10
47.0295959766994827
 20
91.0446514100030839
 30
0.0
  0
VERTEX
  5
2252
  8
0
 10
47.0542155299541704
 20
91.0490531256243827
 30
0.0
  0
VERTEX
  5
2253
  8
0
 10
47.0788263182919309
 20
91.0536491551992953
 30
0.0
  0
VERTEX
  5
2254
  8
0
 10
47.1034280276790582
 20
91.0584372031837432
 30
0.0
  0
VERTEX
  5
2255
  8
0
 10
47.1280203440818397
 20
91.0634149740337477
 30
0.0
  0
VERTEX
  5
2256
  8
0
 10
47.1526029534666904
 20
91.0685801722051878
 30
0.0
  0
VERTEX
  5
2257
  8
0
 10
47.1771755418174834
 20
91.0739305020747167
 30
0.0
  0
VERTEX
  5
2258
  8
0
 10
47.2017378549083375
 20
91.0794633990772553
 30
0.0
  0
VERTEX
  5
2259
  8
0
 10
47.226289831837498
 20
91.0851754290568181
 30
0.0
  0
VERTEX
  5
225A
  8
0
 10
47.2508314507048723
 20
91.0910629824245746
 30
0.0
  0
VERTEX
  5
225B
  8
0
 10
47.2753626896103114
 20
91.0971224495917085
 30
0.0
  0
VERTEX
  5
225C
  8
0
 10
47.2998835266536375
 20
91.1033502209694461
 30
0.0
  0
VERTEX
  5
225D
  8
0
 10
47.3243939399347084
 20
91.1097426869690139
 30
0.0
  0
VERTEX
  5
225E
  8
0
 10
47.348893906357489
 20
91.1162962517893931
 30
0.0
  0
VERTEX
  5
225F
  8
0
 10
47.373383177114988
 20
91.1230099218811347
 30
0.0
  0
VERTEX
  5
2260
  8
0
 10
47.3978610128317186
 20
91.129888359525836
 30
0.0
  0
VERTEX
  5
2261
  8
0
 10
47.4223266097274632
 20
91.136936969535725
 30
0.0
  0
VERTEX
  5
2262
  8
0
 10
47.4467791640219829
 20
91.1441611567230865
 30
0.0
  0
VERTEX
  5
2263
  8
0
 10
47.4712178719350604
 20
91.1515663259002054
 30
0.0
  0
VERTEX
  5
2264
  8
0
 10
47.4956419296865135
 20
91.1591578818792385
 30
0.0
  0
VERTEX
  5
2265
  8
0
 10
47.5200505368083768
 20
91.1669411938985661
 30
0.0
  0
VERTEX
  5
2266
  8
0
 10
47.5444437281012711
 20
91.1749126606442388
 30
0.0
  0
VERTEX
  5
2267
  8
0
 10
47.5688234719680381
 20
91.1830479144442165
 30
0.0
  0
VERTEX
  5
2268
  8
0
 10
47.5931920096464225
 20
91.1913196574560345
 30
0.0
  0
VERTEX
  5
2269
  8
0
 10
47.6175515823740625
 20
91.1997005918373844
 30
0.0
  0
VERTEX
  5
226A
  8
0
 10
47.6419044313886388
 20
91.2081634197458584
 30
0.0
  0
VERTEX
  5
226B
  8
0
 10
47.6662527979278465
 20
91.216680843339077
 30
0.0
  0
VERTEX
  5
226C
  8
0
 10
47.6905989232293734
 20
91.225225564774675
 30
0.0
  0
SEQEND
  5
226D
  8
0
  0
POLYLINE
  5
1E33
  8
0
 66
     1
 10
0.0
 20
0.0
 30
0.0
  0
VERTEX
  5
226E
  8
0
 10
47.6905989232294019
 20
91.225225564774675
 30
0.0
  0
VERTEX
  5
226F
  8
0
 10
47.7464272268272722
 20
91.2154872680675908
 30
0.0
  0
VERTEX
  5
2270
  8
0
 10
47.8022612804682581
 20
91.2057847032710782
 30
0.0
  0
VERTEX
  5
2271
  8
0
 10
47.8581068341954889
 20
91.1961536022958654
 30
0.0
  0
VERTEX
  5
2272
  8
0
 10
47.913969638052059
 20
91.1866296970524814
 30
0.0
  0
VERTEX
  5
2273
  8
0
 10
47.9698554420811192
 20
91.1772487194515975
 30
0.0
  0
VERTEX
  5
2274
  8
0
 10
48.0257699963257707
 20
91.1680464014038563
 30
0.0
  0
VERTEX
  5
2275
  8
0
 10
48.0817190508291219
 20
91.1590584748198438
 30
0.0
  0
VERTEX
  5
2276
  8
0
 10
48.1377079022308294
 20
91.150318233570502
 30
0.0
  0
VERTEX
  5
2277
  8
0
 10
48.1937371615575216
 20
91.1418337760620858
 30
0.0
  0
VERTEX
  5
2278
  8
0
 10
48.2498046733668389
 20
91.133598324852386
 30
0.0
  0
VERTEX
  5
2279
  8
0
 10
48.305908246374571
 20
91.1256049097704164
 30
0.0
  0
VERTEX
  5
227A
  8
0
 10
48.3620456892965365
 20
91.117846560645134
 30
0.0
  0
VERTEX
  5
227B
  8
0
 10
48.4182148108485322
 20
91.1103163073055669
 30
0.0
  0
VERTEX
  5
227C
  8
0
 10
48.4744134197463623
 20
91.1030071795806577
 30
0.0
  0
VERTEX
  5
227D
  8
0
 10
48.53063939392473
 20
91.0959126787238347
 30
0.0
  0
VERTEX
  5
227E
  8
0
 10
48.5868916726163889
 20
91.089033534092593
 30
0.0
  0
VERTEX
  5
227F
  8
0
 10
48.6431700253257304
 20
91.0823761297148877
 30
0.0
  0
VERTEX
  5
2280
  8
0
 10
48.6994742436961872
 20
91.0759470003989833
 30
0.0
  0
VERTEX
  5
2281
  8
0
 10
48.7558041193711631
 20
91.069752680953215
 30
0.0
  0
VERTEX
  5
2282
  8
0
 10
48.8121594439940623
 20
91.0637997061858755
 30
0.0
  0
VERTEX
  5
2283
  8
0
 10
48.8685400092082887
 20
91.0580946109053144
 30
0.0
  0
VERTEX
  5
2284
  8
0
 10
48.9249455628861867
 20
91.0526435045493656
 30
0.0
  0
VERTEX
  5
2285
  8
0
 10
48.9813753628345978
 20
91.0474477340594035
 30
0.0
  0
VERTEX
  5
2286
  8
0
 10
49.0378283593805406
 20
91.0425056582641332
 30
0.0
  0
VERTEX
  5
2287
  8
0
 10
49.0943034981030735
 20
91.0378155898512773
 30
0.0
  0
VERTEX
  5
2288
  8
0
 10
49.1507997245813328
 20
91.0333758415085867
 30
0.0
  0
VERTEX
  5
2289
  8
0
 10
49.2073159843943984
 20
91.0291847259237983
 30
0.0
  0
VERTEX
  5
228A
  8
0
 10
49.2638512231213213
 20
91.0252405557846345
 30
0.0
  0
VERTEX
  5
228B
  8
0
 10
49.3204043720175775
 20
91.0215446376424637
 30
0.0
  0
VERTEX
  5
228C
  8
0
 10
49.3769742944404229
 20
91.0181124697675301
 30
0.0
  0
VERTEX
  5
228D
  8
0
 10
49.4335598336488715
 20
91.0149637512841849
 30
0.0
  0
VERTEX
  5
228E
  8
0
 10
49.4901598328987902
 20
91.0121181819594938
 30
0.0
  0
VERTEX
  5
228F
  8
0
 10
49.5467731354460383
 20
91.0095954615606217
 30
0.0
  0
VERTEX
  5
2290
  8
0
 10
49.6033985845465892
 20
91.0074152898546203
 30
0.0
  0
VERTEX
  5
2291
  8
0
 10
49.6600350190890367
 20
91.0055966114886559
 30
0.0
  0
VERTEX
  5
2292
  8
0
 10
49.716681094120112
 20
91.004126583807107
 30
0.0
  0
VERTEX
  5
2293
  8
0
 10
49.7733352173977366
 20
91.002949606543325
 30
0.0
  0
VERTEX
  5
2294
  8
0
 10
49.8299957792726502
 20
91.0020070696137253
 30
0.0
  0
VERTEX
  5
2295
  8
0
 10
49.8866611700955502
 20
91.0012403629348086
 30
0.0
  0
VERTEX
  5
2296
  8
0
 10
49.9433297802170628
 20
91.0005908764229758
 30
0.0
  0
VERTEX
  5
2297
  8
0
 10
49.9999999999878924
 20
90.9999999999946851
 30
0.0
  0
SEQEND
  5
2298
  8
0
  0
POLYLINE
  5
1E34
  8
0
 66
     1
 10
0.0
 20
0.0
 30
0.0
  0
VERTEX
  5
2299
  8
0
 10
49.9999999999878924
 20
90.9999999999946851
 30
0.0
  0
VERTEX
  5
229A
  8
0
 10
50.0494356971020409
 20
91.0004415243801361
 30
0.0
  0
VERTEX
  5
229B
  8
0
 10
50.0988703185917288
 20
91.0009289158880534
 30
0.0
  0
VERTEX
  5
229C
  8
0
 10
50.1483027888325807
 20
91.0015080416408182
 30
0.0
  0
VERTEX
  5
229D
  8
0
 10
50.1977320322001219
 20
91.0022247687608967
 30
0.0
  0
VERTEX
  5
229E
  8
0
 10
50.2471569730699272
 20
91.0031249643706843
 30
0.0
  0
VERTEX
  5
229F
  8
0
 10
50.2965765358175929
 20
91.00425449559269
 30
0.0
  0
VERTEX
  5
22A0
  8
0
 10
50.3459896600322665
 20
91.0056551933088969
 30
0.0
  0
VERTEX
  5
22A1
  8
0
 10
50.3953954239864004
 20
91.0073320950504865
 30
0.0
  0
VERTEX
  5
22A2
  8
0
 10
50.4447929801067687
 20
91.0092705648249733
 30
0.0
  0
VERTEX
  5
22A3
  8
0
 10
50.4941814815199379
 20
91.011455780991767
 30
0.0
  0
VERTEX
  5
22A4
  8
0
 10
50.543560081352517
 20
91.0138729219102629
 30
0.0
  0
VERTEX
  5
22A5
  8
0
 10
50.5929279327310084
 20
91.0165071659399416
 30
0.0
  0
VERTEX
  5
22A6
  8
0
 10
50.6422841899705318
 20
91.0193437858618353
 30
0.0
  0
VERTEX
  5
22A7
  8
0
 10
50.6916280803562032
 20
91.022373851851313
 30
0.0
  0
VERTEX
  5
22A8
  8
0
 10
50.7409589452436478
 20
91.0255974968335977
 30
0.0
  0
VERTEX
  5
22A9
  8
0
 10
50.7902761359147235
 20
91.0290156423698136
 30
0.0
  0
VERTEX
  5
22AA
  8
0
 10
50.8395790036513802
 20
91.0326292100210281
 30
0.0
  0
VERTEX
  5
22AB
  8
0
 10
50.8888668997354827
 20
91.0364391213483231
 30
0.0
  0
VERTEX
  5
22AC
  8
0
 10
50.9381391754489528
 20
91.0404462979128368
 30
0.0
  0
VERTEX
  5
22AD
  8
0
 10
50.9873951836865729
 20
91.0446514100031266
 30
0.0
  0
VERTEX
  5
22AE
  8
0
 10
51.0366342901959626
 20
91.0490531256244253
 30
0.0
  0
VERTEX
  5
22AF
  8
0
 10
51.0858558668714693
 20
91.0536491551993237
 30
0.0
  0
VERTEX
  5
22B0
  8
0
 10
51.1350592856457169
 20
91.0584372031838143
 30
0.0
  0
VERTEX
  5
22B1
  8
0
 10
51.1842439184513509
 20
91.0634149740337762
 30
0.0
  0
VERTEX
  5
22B2
  8
0
 10
51.2334091372210025
 20
91.0685801722052162
 30
0.0
  0
VERTEX
  5
22B3
  8
0
 10
51.2825543139226099
 20
91.0739305020747452
 30
0.0
  0
VERTEX
  5
22B4
  8
0
 10
51.3316789401042968
 20
91.0794633990772979
 30
0.0
  0
VERTEX
  5
22B5
  8
0
 10
51.3807828939626532
 20
91.0851754290568465
 30
0.0
  0
VERTEX
  5
22B6
  8
0
 10
51.4298661316973877
 20
91.0910629824245746
 30
0.0
  0
VERTEX
  5
22B7
  8
0
 10
51.4789286095082232
 20
91.0971224495917369
 30
0.0
  0
VERTEX
  5
22B8
  8
0
 10
51.5279702835948399
 20
91.1033502209694888
 30
0.0
  0
VERTEX
  5
22B9
  8
0
 10
51.5769911101569676
 20
91.1097426869690565
 30
0.0
  0
VERTEX
  5
22BA
  8
0
 10
51.6259910430025002
 20
91.1162962517894357
 30
0.0
  0
VERTEX
  5
22BB
  8
0
 10
51.6749695845174912
 20
91.1230099218811631
 30
0.0
  0
VERTEX
  5
22BC
  8
0
 10
51.7239252559509666
 20
91.1298883595258644
 30
0.0
  0
VERTEX
  5
22BD
  8
0
 10
51.7728564497424699
 20
91.1369369695357676
 30
0.0
  0
VERTEX
  5
22BE
  8
0
 10
51.8217615583315308
 20
91.1441611567231149
 30
0.0
  0
VERTEX
  5
22BF
  8
0
 10
51.8706389741576785
 20
91.1515663259002054
 30
0.0
  0
VERTEX
  5
22C0
  8
0
 10
51.9194870896605494
 20
91.1591578818792811
 30
0.0
  0
VERTEX
  5
22C1
  8
0
 10
51.9683043039043397
 20
91.1669411938985945
 30
0.0
  0
VERTEX
  5
22C2
  8
0
 10
52.0170906864901212
 20
91.1749126606442957
 30
0.0
  0
VERTEX
  5
22C3
  8
0
 10
52.0658501742236908
 20
91.183047914444245
 30
0.0
  0
VERTEX
  5
22C4
  8
0
 10
52.1145872495804383
 20
91.1913196574560629
 30
0.0
  0
VERTEX
  5
22C5
  8
0
 10
52.1633063950357112
 20
91.1997005918373986
 30
0.0
  0
VERTEX
  5
22C6
  8
0
 10
52.2120120930648923
 20
91.2081634197458868
 30
0.0
  0
VERTEX
  5
22C7
  8
0
 10
52.2607088261433077
 20
91.2166808433391054
 30
0.0
  0
VERTEX
  5
22C8
  8
0
 10
52.3094010767463473
 20
91.2252255647747035
 30
0.0
  0
SEQEND
  5
22C9
  8
0
  0
POLYLINE
  5
1E35
  8
0
 66
     1
 10
0.0
 20
0.0
 30
0.0
  0
VERTEX
  5
22CA
  8
0
 10
52.3094010767463828
 20
95.2747744352148089
 30
0.0
  0
VERTEX
  5
22CB
  8
0
 10
52.2535727731484982
 20
95.2845127319219216
 30
0.0
  0
VERTEX
  5
22CC
  8
0
 10
52.1977387195075266
 20
95.2942152967184057
 30
0.0
  0
VERTEX
  5
22CD
  8
0
 10
52.1418931657802815
 20
95.303846397693647
 30
0.0
  0
VERTEX
  5
22CE
  8
0
 10
52.0860303619237115
 20
95.3133703029370167
 30
0.0
  0
VERTEX
  5
22CF
  8
0
 10
52.0301445578946584
 20
95.3227512805378865
 30
0.0
  0
VERTEX
  5
22D0
  8
0
 10
51.9742300036500282
 20
95.3319535985856561
 30
0.0
  0
VERTEX
  5
22D1
  8
0
 10
51.9182809491466912
 20
95.3409415251696544
 30
0.0
  0
VERTEX
  5
22D2
  8
0
 10
51.8622920977449482
 20
95.3496817664189962
 30
0.0
  0
VERTEX
  5
22D3
  8
0
 10
51.8062628384182631
 20
95.3581662239274266
 30
0.0
  0
VERTEX
  5
22D4
  8
0
 10
51.7501953266089387
 20
95.3664016751371122
 30
0.0
  0
VERTEX
  5
22D5
  8
0
 10
51.6940917536012066
 20
95.3743950902190818
 30
0.0
  0
VERTEX
  5
22D6
  8
0
 10
51.6379543106792198
 20
95.38215343934435
 30
0.0
  0
VERTEX
  5
22D7
  8
0
 10
51.5817851891272312
 20
95.3896836926839455
 30
0.0
  0
VERTEX
  5
22D8
  8
0
 10
51.5255865802294295
 20
95.3969928204088262
 30
0.0
  0
VERTEX
  5
22D9
  8
0
 10
51.4693606060510831
 20
95.4040873212656635
 30
0.0
  0
VERTEX
  5
22DA
  8
0
 10
51.4131083273594314
 20
95.410966465896891
 30
0.0
  0
VERTEX
  5
22DB
  8
0
 10
51.3568299746500827
 20
95.4176238702746105
 30
0.0
  0
VERTEX
  5
22DC
  8
0
 10
51.3005257562796331
 20
95.4240529995905149
 30
0.0
  0
VERTEX
  5
22DD
  8
0
 10
51.24419588060465
 20
95.4302473190362548
 30
0.0
  0
VERTEX
  5
22DE
  8
0
 10
51.1878405559817509
 20
95.4362002938036085
 30
0.0
  0
VERTEX
  5
22DF
  8
0
 10
51.1314599907675316
 20
95.4419053890841838
 30
0.0
  0
VERTEX
  5
22E0
  8
0
 10
51.0750544370895909
 20
95.4473564954401468
 30
0.0
  0
VERTEX
  5
22E1
  8
0
 10
51.0186246371411869
 20
95.4525522659300805
 30
0.0
  0
VERTEX
  5
22E2
  8
0
 10
50.962171640595237
 20
95.4574943417253508
 30
0.0
  0
VERTEX
  5
22E3
  8
0
 10
50.9056965018727112
 20
95.4621844101382067
 30
0.0
  0
VERTEX
  5
22E4
  8
0
 10
50.8492002753944519
 20
95.466624158480883
 30
0.0
  0
VERTEX
  5
22E5
  8
0
 10
50.7926840155814219
 20
95.4708152740656857
 30
0.0
  0
VERTEX
  5
22E6
  8
0
 10
50.7361487768544706
 20
95.4747594442048495
 30
0.0
  0
VERTEX
  5
22E7
  8
0
 10
50.6795956279582427
 20
95.4784553623470345
 30
0.0
  0
VERTEX
  5
22E8
  8
0
 10
50.6230257055353832
 20
95.4818875302219823
 30
0.0
  0
VERTEX
  5
22E9
  8
0
 10
50.56644016632697
 20
95.4850362487053417
 30
0.0
  0
VERTEX
  5
22EA
  8
0
 10
50.5098401670770727
 20
95.4878818180300044
 30
0.0
  0
VERTEX
  5
22EB
  8
0
 10
50.4532268645298032
 20
95.4904045384289049
 30
0.0
  0
VERTEX
  5
22EC
  8
0
 10
50.3966014154292807
 20
95.4925847101348921
 30
0.0
  0
VERTEX
  5
22ED
  8
0
 10
50.3399649808867977
 20
95.4944033885008565
 30
0.0
  0
VERTEX
  5
22EE
  8
0
 10
50.2833189058557295
 20
95.4958734161824054
 30
0.0
  0
VERTEX
  5
22EF
  8
0
 10
50.2266647825780694
 20
95.4970503934462158
 30
0.0
  0
VERTEX
  5
22F0
  8
0
 10
50.1700042207031416
 20
95.4979929303757871
 30
0.0
  0
VERTEX
  5
22F1
  8
0
 10
50.1133388298802629
 20
95.4987596370547038
 30
0.0
  0
VERTEX
  5
22F2
  8
0
 10
50.056670219758729
 20
95.4994091235665081
 30
0.0
  0
VERTEX
  5
22F3
  8
0
 10
49.9999999999878568
 20
95.4999999999947988
 30
0.0
  0
SEQEND
  5
22F4
  8
0
  0
POLYLINE
  5
1E36
  8
0
 66
     1
 10
0.0
 20
0.0
 30
0.0
  0
VERTEX
  5
22F5
  8
0
 10
49.9999999999878924
 20
95.4999999999947988
 30
0.0
  0
VERTEX
  5
22F6
  8
0
 10
49.9505643028737367
 20
95.4995584756093336
 30
0.0
  0
VERTEX
  5
22F7
  8
0
 10
49.9011296813840417
 20
95.4990710841014447
 30
0.0
  0
VERTEX
  5
22F8
  8
0
 10
49.8516972111432111
 20
95.4984919583486658
 30
0.0
  0
VERTEX
  5
22F9
  8
0
 10
49.8022679677756628
 20
95.4977752312285872
 30
0.0
  0
VERTEX
  5
22FA
  8
0
 10
49.7528430269058504
 20
95.4968750356187712
 30
0.0
  0
VERTEX
  5
22FB
  8
0
 10
49.7034234641581918
 20
95.4957455043967656
 30
0.0
  0
VERTEX
  5
22FC
  8
0
 10
49.6540103399435111
 20
95.4943448066805161
 30
0.0
  0
VERTEX
  5
22FD
  8
0
 10
49.6046045759893772
 20
95.4926679049389548
 30
0.0
  0
VERTEX
  5
22FE
  8
0
 10
49.5552070198690231
 20
95.490729435164468
 30
0.0
  0
VERTEX
  5
22FF
  8
0
 10
49.5058185184558326
 20
95.4885442189977027
 30
0.0
  0
VERTEX
  5
2300
  8
0
 10
49.456439918623289
 20
95.4861270780792069
 30
0.0
  0
VERTEX
  5
2301
  8
0
 10
49.4070720672447692
 20
95.4834928340495424
 30
0.0
  0
VERTEX
  5
2302
  8
0
 10
49.35771581000526
 20
95.4806562141276487
 30
0.0
  0
VERTEX
  5
2303
  8
0
 10
49.3083719196195887
 20
95.4776261481382136
 30
0.0
  0
VERTEX
  5
2304
  8
0
 10
49.2590410547321369
 20
95.4744025031559147
 30
0.0
  0
VERTEX
  5
2305
  8
0
 10
49.2097238640610612
 20
95.470984357619713
 30
0.0
  0
VERTEX
  5
2306
  8
0
 10
49.1604209963243974
 20
95.4673707899684985
 30
0.0
  0
VERTEX
  5
2307
  8
0
 10
49.1111331002402878
 20
95.4635608786411751
 30
0.0
  0
VERTEX
  5
2308
  8
0
 10
49.0618608245268319
 20
95.4595537020766756
 30
0.0
  0
VERTEX
  5
2309
  8
0
 10
49.0126048162892403
 20
95.4553485899863858
 30
0.0
  0
VERTEX
  5
230A
  8
0
 10
48.9633657097798505
 20
95.4509468743651013
 30
0.0
  0
VERTEX
  5
230B
  8
0
 10
48.9141441331043367
 20
95.4463508447901745
 30
0.0
  0
VERTEX
  5
230C
  8
0
 10
48.8649407143300891
 20
95.4415627968057265
 30
0.0
  0
VERTEX
  5
230D
  8
0
 10
48.815756081524448
 20
95.4365850259557362
 30
0.0
  0
VERTEX
  5
230E
  8
0
 10
48.7665908627548106
 20
95.4314198277842962
 30
0.0
  0
VERTEX
  5
230F
  8
0
 10
48.7174456860531677
 20
95.426069497914753
 30
0.0
  0
VERTEX
  5
2310
  8
0
 10
48.6683210598714879
 20
95.4205366009122145
 30
0.0
  0
VERTEX
  5
2311
  8
0
 10
48.6192171060131386
 20
95.4148245709326375
 30
0.0
  0
VERTEX
  5
2312
  8
0
 10
48.5701338682784183
 20
95.4089370175649094
 30
0.0
  0
VERTEX
  5
2313
  8
0
 10
48.521071390467597
 20
95.4028775503977471
 30
0.0
  0
VERTEX
  5
2314
  8
0
 10
48.4720297163809732
 20
95.3966497790200094
 30
0.0
  0
VERTEX
  5
2315
  8
0
 10
48.42300888981881
 20
95.3902573130204559
 30
0.0
  0
VERTEX
  5
2316
  8
0
 10
48.37400895697332
 20
95.3837037482000625
 30
0.0
  0
VERTEX
  5
2317
  8
0
 10
48.3250304154583077
 20
95.3769900781083209
 30
0.0
  0
VERTEX
  5
2318
  8
0
 10
48.2760747440248323
 20
95.3701116404636338
 30
0.0
  0
VERTEX
  5
2319
  8
0
 10
48.227143550233329
 20
95.3630630304537306
 30
0.0
  0
VERTEX
  5
231A
  8
0
 10
48.1782384416442824
 20
95.3558388432663548
 30
0.0
  0
VERTEX
  5
231B
  8
0
 10
48.1293610258180991
 20
95.3484336740892786
 30
0.0
  0
VERTEX
  5
231C
  8
0
 10
48.0805129103152566
 20
95.3408421181102028
 30
0.0
  0
VERTEX
  5
231D
  8
0
 10
48.0316956960714379
 20
95.3330588060908752
 30
0.0
  0
VERTEX
  5
231E
  8
0
 10
47.9829093134856635
 20
95.3250873393451741
 30
0.0
  0
VERTEX
  5
231F
  8
0
 10
47.9341498257520868
 20
95.3169520855452532
 30
0.0
  0
VERTEX
  5
2320
  8
0
 10
47.8854127503953393
 20
95.3086803425334352
 30
0.0
  0
VERTEX
  5
2321
  8
0
 10
47.8366936049400806
 20
95.3002994081520853
 30
0.0
  0
VERTEX
  5
2322
  8
0
 10
47.7879879069108995
 20
95.2918365802436256
 30
0.0
  0
VERTEX
  5
2323
  8
0
 10
47.7392911738324628
 20
95.283319156650407
 30
0.0
  0
VERTEX
  5
2324
  8
0
 10
47.6905989232294019
 20
95.2747744352148089
 30
0.0
  0
SEQEND
  5
2325
  8
0
  0
POLYLINE
  5
1E37
  8
0
 66
     1
 10
0.0
 20
0.0
 30
0.0
  0
VERTEX
  5
2326
  8
0
 10
53.4641016151499002
 20
131.4999999999614033
 30
0.0
  0
VERTEX
  5
2327
  8
0
 10
53.4888194637069319
 20
131.4571874304068047
 30
0.0
  0
VERTEX
  5
2328
  8
0
 10
53.5135367744517509
 20
131.4143757923702083
 30
0.0
  0
VERTEX
  5
2329
  8
0
 10
53.5382530095721734
 20
131.3715660173699007
 30
0.0
  0
VERTEX
  5
232A
  8
0
 10
53.5629676312559297
 20
131.3287590369237989
 30
0.0
  0
VERTEX
  5
232B
  8
0
 10
53.5876801016908573
 20
131.2859557825499053
 30
0.0
  0
VERTEX
  5
232C
  8
0
 10
53.6123898830647079
 20
131.2431571857665062
 30
0.0
  0
VERTEX
  5
232D
  8
0
 10
53.6370964451720624
 20
131.2003641649162091
 30
0.0
  0
VERTEX
  5
232E
  8
0
 10
53.6617993271491116
 20
131.157577518238611
 30
0.0
  0
VERTEX
  5
232F
  8
0
 10
53.6864981052093171
 20
131.1147979797534902
 30
0.0
  0
VERTEX
  5
2330
  8
0
 10
53.7111923559159194
 20
131.0720262828747877
 30
0.0
  0
VERTEX
  5
2331
  8
0
 10
53.7358816558322019
 20
131.0292631610165017
 30
0.0
  0
VERTEX
  5
2332
  8
0
 10
53.7605655815214618
 20
130.986509347592488
 30
0.0
  0
VERTEX
  5
2333
  8
0
 10
53.7852437101412022
 20
130.9437655749873102
 30
0.0
  0
VERTEX
  5
2334
  8
0
 10
53.8099156553340308
 20
130.9010325123917937
 30
0.0
  0
VERTEX
  5
2335
  8
0
 10
53.8345810877777708
 20
130.8583107302085864
 30
0.0
  0
VERTEX
  5
2336
  8
0
 10
53.8592396831132803
 20
130.81560079024419
 30
0.0
  0
VERTEX
  5
2337
  8
0
 10
53.8838911169816015
 20
130.7729032543047936
 30
0.0
  0
VERTEX
  5
2338
  8
0
 10
53.9085350650236421
 20
130.7302186841968989
 30
0.0
  0
VERTEX
  5
2339
  8
0
 10
53.9331712028803665
 20
130.6875476417266952
 30
0.0
  0
VERTEX
  5
233A
  8
0
 10
53.9577992069991694
 20
130.6448906873038993
 30
0.0
  0
VERTEX
  5
233B
  8
0
 10
53.9824187602538927
 20
130.6022483702070929
 30
0.0
  0
VERTEX
  5
233C
  8
0
 10
54.007029548591639
 20
130.5596212343918125
 30
0.0
  0
VERTEX
  5
233D
  8
0
 10
54.0316312579787805
 20
130.5170098237803131
 30
0.0
  0
VERTEX
  5
233E
  8
0
 10
54.0562235743816117
 20
130.4744146822947926
 30
0.0
  0
VERTEX
  5
233F
  8
0
 10
54.0808061837664411
 20
130.4318363538575909
 30
0.0
  0
VERTEX
  5
2340
  8
0
 10
54.105378772117227
 20
130.3892753823606085
 30
0.0
  0
VERTEX
  5
2341
  8
0
 10
54.1299410852080527
 20
130.3467322081357906
 30
0.0
  0
VERTEX
  5
2342
  8
0
 10
54.1544930621372487
 20
130.3042069366682085
 30
0.0
  0
VERTEX
  5
2343
  8
0
 10
54.1790346810046231
 20
130.2616996058899019
 30
0.0
  0
VERTEX
  5
2344
  8
0
 10
54.2035659199100266
 20
130.2192102537331948
 30
0.0
  0
VERTEX
  5
2345
  8
0
 10
54.2280867569533314
 20
130.1767389181300132
 30
0.0
  0
VERTEX
  5
2346
  8
0
 10
54.2525971702344023
 20
130.1342856370127095
 30
0.0
  0
VERTEX
  5
2347
  8
0
 10
54.2770971366571686
 20
130.0918504503848112
 30
0.0
  0
VERTEX
  5
2348
  8
0
 10
54.3015864074146677
 20
130.0494337891923919
 30
0.0
  0
VERTEX
  5
2349
  8
0
 10
54.3260642431314125
 20
130.0070369340716923
 30
0.0
  0
VERTEX
  5
234A
  8
0
 10
54.3505298400271499
 20
129.9646612772108085
 30
0.0
  0
VERTEX
  5
234B
  8
0
 10
54.3749823943216768
 20
129.9223082107978087
 30
0.0
  0
VERTEX
  5
234C
  8
0
 10
54.3994211022347471
 20
129.879979127020988
 30
0.0
  0
VERTEX
  5
234D
  8
0
 10
54.4238451599862003
 20
129.8376754180686135
 30
0.0
  0
VERTEX
  5
234E
  8
0
 10
54.4482537671080919
 20
129.7953984703914045
 30
0.0
  0
VERTEX
  5
234F
  8
0
 10
54.4726469584009791
 20
129.7531482237133957
 30
0.0
  0
VERTEX
  5
2350
  8
0
 10
54.4970267022677888
 20
129.7109212686605986
 30
0.0
  0
VERTEX
  5
2351
  8
0
 10
54.5213952399461377
 20
129.6687137232954967
 30
0.0
  0
VERTEX
  5
2352
  8
0
 10
54.5457548126737777
 20
129.6265217056806023
 30
0.0
  0
VERTEX
  5
2353
  8
0
 10
54.5701076616883469
 20
129.5843413338783137
 30
0.0
  0
VERTEX
  5
2354
  8
0
 10
54.5944560282275972
 20
129.5421687259510861
 30
0.0
  0
VERTEX
  5
2355
  8
0
 10
54.618802153529117
 20
129.4999999999614033
 30
0.0
  0
SEQEND
  5
2356
  8
0
  0
POLYLINE
  5
1E38
  8
0
 66
     1
 10
0.0
 20
0.0
 30
0.0
  0
VERTEX
  5
2357
  8
0
 10
54.618802153529117
 20
129.4999999999614033
 30
0.0
  0
VERTEX
  5
2358
  8
0
 10
54.5908880017301783
 20
129.451651270795395
 30
0.0
  0
VERTEX
  5
2359
  8
0
 10
54.5629709749096889
 20
129.4032975619460899
 30
0.0
  0
VERTEX
  5
235A
  8
0
 10
54.5350481980460415
 20
129.3549338937299069
 30
0.0
  0
VERTEX
  5
235B
  8
0
 10
54.5071167961177423
 20
129.3065552864634924
 30
0.0
  0
VERTEX
  5
235C
  8
0
 10
54.4791738941032406
 20
129.2581567604634074
 30
0.0
  0
VERTEX
  5
235D
  8
0
 10
54.4512166169809007
 20
129.2097333360462983
 30
0.0
  0
VERTEX
  5
235E
  8
0
 10
54.4232420897292286
 20
129.1612800335286124
 30
0.0
  0
VERTEX
  5
235F
  8
0
 10
54.3952476640283393
 20
129.1127922658859859
 30
0.0
  0
VERTEX
  5
2360
  8
0
 10
54.3672330343650003
 20
129.0642695039539092
 30
0.0
  0
VERTEX
  5
2361
  8
0
 10
54.3391992784603701
 20
129.0157136143999992
 30
0.0
  0
VERTEX
  5
2362
  8
0
 10
54.3111474919565183
 20
128.9671264949321881
 30
0.0
  0
VERTEX
  5
2363
  8
0
 10
54.2830787704955071
 20
128.9185100432582942
 30
0.0
  0
VERTEX
  5
2364
  8
0
 10
54.2549942097195128
 20
128.869866157085994
 30
0.0
  0
VERTEX
  5
2365
  8
0
 10
54.2268949052706191
 20
128.8211967341231912
 30
0.0
  0
VERTEX
  5
2366
  8
0
 10
54.1987819181814174
 20
128.7725036121321125
 30
0.0
  0
VERTEX
  5
2367
  8
0
 10
54.170655778835588
 20
128.7237877097643945
 30
0.0
  0
VERTEX
  5
2368
  8
0
 10
54.1425166024809172
 20
128.6750492266349966
 30
0.0
  0
VERTEX
  5
2369
  8
0
 10
54.1143644932957102
 20
128.6262883431859052
 30
0.0
  0
VERTEX
  5
236A
  8
0
 10
54.0861995554582009
 20
128.5775052398593914
 30
0.0
  0
VERTEX
  5
236B
  8
0
 10
54.0580218931467584
 20
128.5287000970974134
 30
0.0
  0
VERTEX
  5
236C
  8
0
 10
54.0298316105396381
 20
128.4798730953422137
 30
0.0
  0
VERTEX
  5
236D
  8
0
 10
54.0016288337006927
 20
128.4310244529426086
 30
0.0
  0
VERTEX
  5
236E
  8
0
 10
53.9734139337264978
 20
128.3821548126568075
 30
0.0
  0
VERTEX
  5
236F
  8
0
 10
53.9451874354535121
 20
128.3332650835282891
 30
0.0
  0
VERTEX
  5
2370
  8
0
 10
53.916949866092267
 20
128.2843561787123008
 30
0.0
  0
VERTEX
  5
2371
  8
0
 10
53.8887017528531089
 20
128.2354290113642037
 30
0.0
  0
VERTEX
  5
2372
  8
0
 10
53.8604436229465975
 20
128.1864844946391884
 30
0.0
  0
VERTEX
  5
2373
  8
0
 10
53.8321760035831289
 20
128.1375235416925875
 30
0.0
  0
VERTEX
  5
2374
  8
0
 10
53.8038994291350221
 20
128.0885470780845026
 30
0.0
  0
VERTEX
  5
2375
  8
0
 10
53.7756144679235888
 20
128.039556088176198
 30
0.0
  0
VERTEX
  5
2376
  8
0
 10
53.7473216983193822
 20
127.9905515737349049
 30
0.0
  0
VERTEX
  5
2377
  8
0
 10
53.7190216986944264
 20
127.9415345365302983
 30
0.0
  0
VERTEX
  5
2378
  8
0
 10
53.690715047420781
 20
127.8925059783321956
 30
0.0
  0
VERTEX
  5
2379
  8
0
 10
53.6624023228705198
 20
127.8434669009103999
 30
0.0
  0
VERTEX
  5
237A
  8
0
 10
53.6340841055992996
 20
127.7944183098169049
 30
0.0
  0
VERTEX
  5
237B
  8
0
 10
53.6057610680837513
 20
127.7453613698153987
 30
0.0
  0
VERTEX
  5
237C
  8
0
 10
53.577434006444939
 20
127.6962974598278038
 30
0.0
  0
VERTEX
  5
237D
  8
0
 10
53.5491037255074716
 20
127.6472279738514004
 30
0.0
  0
VERTEX
  5
237E
  8
0
 10
53.52077103009605
 20
127.5981543058833978
 30
0.0
  0
VERTEX
  5
237F
  8
0
 10
53.4924367250352972
 20
127.5490778499210052
 30
0.0
  0
VERTEX
  5
2380
  8
0
 10
53.4641016151499002
 20
127.4999999999614033
 30
0.0
  0
SEQEND
  5
2381
  8
0
  0
POLYLINE
  5
1E39
  8
0
 66
     1
 10
0.0
 20
0.0
 30
0.0
  0
VERTEX
  5
2382
  8
0
 10
45.3811978464950911
 20
129.4999999999614033
 30
0.0
  0
VERTEX
  5
2383
  8
0
 10
45.409111998294037
 20
129.5483487291272979
 30
0.0
  0
VERTEX
  5
2384
  8
0
 10
45.4370290251145192
 20
129.5967024379766883
 30
0.0
  0
VERTEX
  5
2385
  8
0
 10
45.4649518019781524
 20
129.6450661061928997
 30
0.0
  0
VERTEX
  5
2386
  8
0
 10
45.4928832039064375
 20
129.6934447134592858
 30
0.0
  0
VERTEX
  5
2387
  8
0
 10
45.5208261059209676
 20
129.7418432394593992
 30
0.0
  0
VERTEX
  5
2388
  8
0
 10
45.5487833830433075
 20
129.7902666638765083
 30
0.0
  0
VERTEX
  5
2389
  8
0
 10
45.5767579102949796
 20
129.8387199663941942
 30
0.0
  0
VERTEX
  5
238A
  8
0
 10
45.6047523359958404
 20
129.8872077340367071
 30
0.0
  0
VERTEX
  5
238B
  8
0
 10
45.6327669656591794
 20
129.9357304959688975
 30
0.0
  0
VERTEX
  5
238C
  8
0
 10
45.6608007215638381
 20
129.9842863855226938
 30
0.0
  0
VERTEX
  5
238D
  8
0
 10
45.6888525080676899
 20
130.0328735049905049
 30
0.0
  0
VERTEX
  5
238E
  8
0
 10
45.7169212295286727
 20
130.0814899566645124
 30
0.0
  0
VERTEX
  5
238F
  8
0
 10
45.745005790304667
 20
130.1301338428366989
 30
0.0
  0
VERTEX
  5
2390
  8
0
 10
45.7731050947535465
 20
130.1788032657995871
 30
0.0
  0
VERTEX
  5
2391
  8
0
 10
45.8012180818427623
 20
130.2274963877906089
 30
0.0
  0
VERTEX
  5
2392
  8
0
 10
45.8293442211885917
 20
130.2762122901582984
 30
0.0
  0
VERTEX
  5
2393
  8
0
 10
45.8574833975432625
 20
130.3249507732878101
 30
0.0
  0
VERTEX
  5
2394
  8
0
 10
45.8856355067285122
 20
130.3737116567367877
 30
0.0
  0
VERTEX
  5
2395
  8
0
 10
45.9138004445659931
 20
130.4224947600633016
 30
0.0
  0
VERTEX
  5
2396
  8
0
 10
45.9419781068774284
 20
130.471299902825308
 30
0.0
  0
VERTEX
  5
2397
  8
0
 10
45.9701683894845701
 20
130.5201269045805077
 30
0.0
  0
VERTEX
  5
2398
  8
0
 10
45.9983711663234871
 20
130.5689755469801128
 30
0.0
  0
VERTEX
  5
2399
  8
0
 10
46.0265860662977104
 20
130.6178451872659991
 30
0.0
  0
VERTEX
  5
239A
  8
0
 10
46.0548125645706534
 20
130.6667349163944891
 30
0.0
  0
VERTEX
  5
239B
  8
0
 10
46.0830501339319127
 20
130.7156438212105058
 30
0.0
  0
VERTEX
  5
239C
  8
0
 10
46.1112982471710495
 20
130.7645709885586029
 30
0.0
  0
VERTEX
  5
239D
  8
0
 10
46.1395563770775823
 20
130.8135155052835898
 30
0.0
  0
VERTEX
  5
239E
  8
0
 10
46.1678239964410508
 20
130.8624764582301054
 30
0.0
  0
VERTEX
  5
239F
  8
0
 10
46.1961005708892003
 20
130.9114529218383041
 30
0.0
  0
VERTEX
  5
23A0
  8
0
 10
46.2243855321006194
 20
130.9604439117466086
 30
0.0
  0
VERTEX
  5
23A1
  8
0
 10
46.2526783017048331
 20
131.0094484261879018
 30
0.0
  0
VERTEX
  5
23A2
  8
0
 10
46.2809783013297817
 20
131.0584654633925084
 30
0.0
  0
VERTEX
  5
23A3
  8
0
 10
46.3092849526034271
 20
131.1074940215906111
 30
0.0
  0
VERTEX
  5
23A4
  8
0
 10
46.3375976771536884
 20
131.1565330990123073
 30
0.0
  0
VERTEX
  5
23A5
  8
0
 10
46.3659158944248802
 20
131.2055816901059018
 30
0.0
  0
VERTEX
  5
23A6
  8
0
 10
46.3942389319404072
 20
131.2546386301075074
 30
0.0
  0
VERTEX
  5
23A7
  8
0
 10
46.4225659935792265
 20
131.3037025400950029
 30
0.0
  0
VERTEX
  5
23A8
  8
0
 10
46.4508962745167011
 20
131.352772026071392
 30
0.0
  0
VERTEX
  5
23A9
  8
0
 10
46.4792289699281227
 20
131.4018456940393946
 30
0.0
  0
VERTEX
  5
23AA
  8
0
 10
46.5075632749888825
 20
131.4509221500017873
 30
0.0
  0
VERTEX
  5
23AB
  8
0
 10
46.5358983848742866
 20
131.4999999999614033
 30
0.0
  0
SEQEND
  5
23AC
  8
0
  0
POLYLINE
  5
1E3A
  8
0
 66
     1
 10
0.0
 20
0.0
 30
0.0
  0
VERTEX
  5
23AD
  8
0
 10
46.5358983848742866
 20
127.4999999999614033
 30
0.0
  0
VERTEX
  5
23AE
  8
0
 10
46.5111805363172621
 20
127.542812569516002
 30
0.0
  0
VERTEX
  5
23AF
  8
0
 10
46.4864632255724288
 20
127.5856242075525984
 30
0.0
  0
VERTEX
  5
23B0
  8
0
 10
46.4617469904520419
 20
127.6284339825529059
 30
0.0
  0
VERTEX
  5
23B1
  8
0
 10
46.4370323687682571
 20
127.671240962999093
 30
0.0
  0
VERTEX
  5
23B2
  8
0
 10
46.4123198983333509
 20
127.7140442173729014
 30
0.0
  0
VERTEX
  5
23B3
  8
0
 10
46.3876101169595003
 20
127.7568428141563004
 30
0.0
  0
VERTEX
  5
23B4
  8
0
 10
46.3629035548521529
 20
127.799635835006498
 30
0.0
  0
VERTEX
  5
23B5
  8
0
 10
46.3382006728750824
 20
127.8424224816841956
 30
0.0
  0
VERTEX
  5
23B6
  8
0
 10
46.3135018948148911
 20
127.8852020201693023
 30
0.0
  0
VERTEX
  5
23B7
  8
0
 10
46.2888076441082887
 20
127.9279737170480047
 30
0.0
  0
VERTEX
  5
23B8
  8
0
 10
46.2641183441920134
 20
127.9707368389063049
 30
0.0
  0
VERTEX
  5
23B9
  8
0
 10
46.2394344185027535
 20
128.0134906523302902
 30
0.0
  0
VERTEX
  5
23BA
  8
0
 10
46.2147562898830131
 20
128.0562344249354965
 30
0.0
  0
VERTEX
  5
23BB
  8
0
 10
46.1900843446901774
 20
128.0989674875310129
 30
0.0
  0
VERTEX
  5
23BC
  8
0
 10
46.1654189122464373
 20
128.1416892697141918
 30
0.0
  0
VERTEX
  5
23BD
  8
0
 10
46.1407603169109279
 20
128.1843992096787019
 30
0.0
  0
VERTEX
  5
23BE
  8
0
 10
46.1161088830426067
 20
128.2270967456180131
 30
0.0
  0
VERTEX
  5
23BF
  8
0
 10
46.0914649350005519
 20
128.2697813157259077
 30
0.0
  0
VERTEX
  5
23C0
  8
0
 10
46.0668287971438417
 20
128.3124523581959977
 30
0.0
  0
VERTEX
  5
23C1
  8
0
 10
46.042200793024989
 20
128.3551093126187936
 30
0.0
  0
VERTEX
  5
23C2
  8
0
 10
46.017581239770287
 20
128.3977516297156001
 30
0.0
  0
VERTEX
  5
23C3
  8
0
 10
45.9929704514325408
 20
128.4403787655309088
 30
0.0
  0
VERTEX
  5
23C4
  8
0
 10
45.9683687420454135
 20
128.4829901761424935
 30
0.0
  0
VERTEX
  5
23C5
  8
0
 10
45.9437764256425609
 20
128.5255853176280141
 30
0.0
  0
VERTEX
  5
23C6
  8
0
 10
45.9191938162577387
 20
128.5681636460651021
 30
0.0
  0
VERTEX
  5
23C7
  8
0
 10
45.8946212279069528
 20
128.6107246175621981
 30
0.0
  0
VERTEX
  5
23C8
  8
0
 10
45.8700589148160915
 20
128.6532677917869023
 30
0.0
  0
VERTEX
  5
23C9
  8
0
 10
45.8455069378869382
 20
128.6957930632545128
 30
0.0
  0
VERTEX
  5
23CA
  8
0
 10
45.8209653190195567
 20
128.738300394032791
 30
0.0
  0
VERTEX
  5
23CB
  8
0
 10
45.7964340801141532
 20
128.7807897461896118
 30
0.0
  0
VERTEX
  5
23CC
  8
0
 10
45.77191324307082
 20
128.8232610817927082
 30
0.0
  0
VERTEX
  5
23CD
  8
0
 10
45.7474028297897632
 20
128.8657143629100972
 30
0.0
  0
VERTEX
  5
23CE
  8
0
 10
45.7229028633670112
 20
128.9081495495379954
 30
0.0
  0
VERTEX
  5
23CF
  8
0
 10
45.6984135926095121
 20
128.950566210730301
 30
0.0
  0
VERTEX
  5
23D0
  8
0
 10
45.6739357568927673
 20
128.992963065851086
 30
0.0
  0
VERTEX
  5
23D1
  8
0
 10
45.6494701599970298
 20
129.0353387227119981
 30
0.0
  0
VERTEX
  5
23D2
  8
0
 10
45.6250176057025101
 20
129.077691789124998
 30
0.0
  0
VERTEX
  5
23D3
  8
0
 10
45.6005788977894326
 20
129.1200208729017049
 30
0.0
  0
VERTEX
  5
23D4
  8
0
 10
45.5761548400380079
 20
129.1623245818541932
 30
0.0
  0
VERTEX
  5
23D5
  8
0
 10
45.5517462329161233
 20
129.2046015295312884
 30
0.0
  0
VERTEX
  5
23D6
  8
0
 10
45.527353041623229
 20
129.2468517762094109
 30
0.0
  0
VERTEX
  5
23D7
  8
0
 10
45.5029732977564194
 20
129.2890787312622081
 30
0.0
  0
VERTEX
  5
23D8
  8
0
 10
45.4786047600780705
 20
129.3312862766271962
 30
0.0
  0
VERTEX
  5
23D9
  8
0
 10
45.4542451873504305
 20
129.3734782942422044
 30
0.0
  0
VERTEX
  5
23DA
  8
0
 10
45.4298923383358613
 20
129.415658666044493
 30
0.0
  0
VERTEX
  5
23DB
  8
0
 10
45.4055439717966394
 20
129.4578312739716921
 30
0.0
  0
VERTEX
  5
23DC
  8
0
 10
45.3811978464951196
 20
129.4999999999614033
 30
0.0
  0
SEQEND
  5
23DD
  8
0
  0
POLYLINE
  5
1E3B
  8
0
 66
     1
 10
0.0
 20
0.0
 30
0.0
  0
VERTEX
  5
23DE
  8
0
 10
47.6905989232535816
 20
133.4999999999614033
 30
0.0
  0
VERTEX
  5
23DF
  8
0
 10
47.7464272268514591
 20
133.4999999999614033
 30
0.0
  0
VERTEX
  5
23E0
  8
0
 10
47.8022612804924734
 20
133.4999999999614033
 30
0.0
  0
VERTEX
  5
23E1
  8
0
 10
47.8581068342197113
 20
133.4999999999614033
 30
0.0
  0
VERTEX
  5
23E2
  8
0
 10
47.9139696380762814
 20
133.4999999999614033
 30
0.0
  0
VERTEX
  5
23E3
  8
0
 10
47.9698554421053416
 20
133.4999999999614033
 30
0.0
  0
VERTEX
  5
23E4
  8
0
 10
48.0257699963499931
 20
133.4999999999614033
 30
0.0
  0
VERTEX
  5
23E5
  8
0
 10
48.0817190508533372
 20
133.4999999999614033
 30
0.0
  0
VERTEX
  5
23E6
  8
0
 10
48.1377079022550376
 20
133.4999999999614033
 30
0.0
  0
VERTEX
  5
23E7
  8
0
 10
48.1937371615817369
 20
133.4999999999614033
 30
0.0
  0
VERTEX
  5
23E8
  8
0
 10
48.2498046733910613
 20
133.4999999999614033
 30
0.0
  0
VERTEX
  5
23E9
  8
0
 10
48.3059082463987792
 20
133.4999999999614033
 30
0.0
  0
VERTEX
  5
23EA
  8
0
 10
48.3620456893207518
 20
133.4999999999614033
 30
0.0
  0
VERTEX
  5
23EB
  8
0
 10
48.4182148108727404
 20
133.4999999999614033
 30
0.0
  0
VERTEX
  5
23EC
  8
0
 10
48.4744134197705421
 20
133.4999999999614033
 30
0.0
  0
VERTEX
  5
23ED
  8
0
 10
48.5306393939489169
 20
133.4999999999614033
 30
0.0
  0
VERTEX
  5
23EE
  8
0
 10
48.5868916726405686
 20
133.4999999999614033
 30
0.0
  0
VERTEX
  5
23EF
  8
0
 10
48.6431700253499173
 20
133.4999999999614033
 30
0.0
  0
VERTEX
  5
23F0
  8
0
 10
48.6994742437203669
 20
133.4999999999614033
 30
0.0
  0
VERTEX
  5
23F1
  8
0
 10
48.75580411939535
 20
133.4999999999614033
 30
0.0
  0
VERTEX
  5
23F2
  8
0
 10
48.8121594440182491
 20
133.4999999999614033
 30
0.0
  0
VERTEX
  5
23F3
  8
0
 10
48.8685400092324969
 20
133.4999999999614033
 30
0.0
  0
VERTEX
  5
23F4
  8
0
 10
48.9249455629104375
 20
133.4999999999614033
 30
0.0
  0
VERTEX
  5
23F5
  8
0
 10
48.9813753628588415
 20
133.4999999999614033
 30
0.0
  0
VERTEX
  5
23F6
  8
0
 10
49.0378283594047915
 20
133.4999999999614033
 30
0.0
  0
VERTEX
  5
23F7
  8
0
 10
49.0943034981273172
 20
133.4999999999614033
 30
0.0
  0
VERTEX
  5
23F8
  8
0
 10
49.1507997246055695
 20
133.4999999999614033
 30
0.0
  0
VERTEX
  5
23F9
  8
0
 10
49.2073159844186421
 20
133.4999999999614033
 30
0.0
  0
VERTEX
  5
23FA
  8
0
 10
49.2638512231455579
 20
133.4999999999614033
 30
0.0
  0
VERTEX
  5
23FB
  8
0
 10
49.3204043720417928
 20
133.4999999999614033
 30
0.0
  0
VERTEX
  5
23FC
  8
0
 10
49.3769742944646524
 20
133.4999999999614033
 30
0.0
  0
VERTEX
  5
23FD
  8
0
 10
49.4335598336730584
 20
133.4999999999614033
 30
0.0
  0
VERTEX
  5
23FE
  8
0
 10
49.490159832922977
 20
133.4999999999614033
 30
0.0
  0
VERTEX
  5
23FF
  8
0
 10
49.5467731354702323
 20
133.4999999999614033
 30
0.0
  0
VERTEX
  5
2400
  8
0
 10
49.6033985845707477
 20
133.4999999999614033
 30
0.0
  0
VERTEX
  5
2401
  8
0
 10
49.6600350191132165
 20
133.4999999999614033
 30
0.0
  0
VERTEX
  5
2402
  8
0
 10
49.7166810941442918
 20
133.4999999999614033
 30
0.0
  0
VERTEX
  5
2403
  8
0
 10
49.7733352174219306
 20
133.4999999999614033
 30
0.0
  0
VERTEX
  5
2404
  8
0
 10
49.8299957792968584
 20
133.4999999999614033
 30
0.0
  0
VERTEX
  5
2405
  8
0
 10
49.8866611701197726
 20
133.4999999999614033
 30
0.0
  0
VERTEX
  5
2406
  8
0
 10
49.943329780241271
 20
133.4999999999614033
 30
0.0
  0
VERTEX
  5
2407
  8
0
 10
50.0000000000121076
 20
133.4999999999614033
 30
0.0
  0
SEQEND
  5
2408
  8
0
  0
POLYLINE
  5
1E3C
  8
0
 66
     1
 10
0.0
 20
0.0
 30
0.0
  0
VERTEX
  5
2409
  8
0
 10
46.5358983848742866
 20
131.4999999999614033
 30
0.0
  0
VERTEX
  5
240A
  8
0
 10
46.560616233431368
 20
131.542812569516002
 30
0.0
  0
VERTEX
  5
240B
  8
0
 10
46.5853335441762226
 20
131.5856242075525131
 30
0.0
  0
VERTEX
  5
240C
  8
0
 10
46.6100497792966735
 20
131.6284339825529059
 30
0.0
  0
VERTEX
  5
240D
  8
0
 10
46.6347644009804583
 20
131.6712409629990077
 30
0.0
  0
VERTEX
  5
240E
  8
0
 10
46.6594768714153574
 20
131.7140442173727877
 30
0.0
  0
VERTEX
  5
240F
  8
0
 10
46.6841866527892293
 20
131.7568428141561867
 30
0.0
  0
VERTEX
  5
2410
  8
0
 10
46.708893214896591
 20
131.7996358350065123
 30
0.0
  0
VERTEX
  5
2411
  8
0
 10
46.7335960968736615
 20
131.8424224816841956
 30
0.0
  0
VERTEX
  5
2412
  8
0
 10
46.7582948749338527
 20
131.8852020201692881
 30
0.0
  0
VERTEX
  5
2413
  8
0
 10
46.7829891256404196
 20
131.9279737170479905
 30
0.0
  0
VERTEX
  5
2414
  8
0
 10
46.807678425556702
 20
131.9707368389063049
 30
0.0
  0
VERTEX
  5
2415
  8
0
 10
46.8323623512459619
 20
132.0134906523302902
 30
0.0
  0
VERTEX
  5
2416
  8
0
 10
46.8570404798657023
 20
132.0562344249354965
 30
0.0
  0
VERTEX
  5
2417
  8
0
 10
46.881712425058538
 20
132.0989674875310129
 30
0.0
  0
VERTEX
  5
2418
  8
0
 10
46.9063778575022283
 20
132.1416892697141918
 30
0.0
  0
VERTEX
  5
2419
  8
0
 10
46.9310364528377875
 20
132.1843992096787019
 30
0.0
  0
VERTEX
  5
241A
  8
0
 10
46.9556878867061016
 20
132.2270967456180131
 30
0.0
  0
VERTEX
  5
241B
  8
0
 10
46.9803318347481422
 20
132.2697813157259077
 30
0.0
  0
VERTEX
  5
241C
  8
0
 10
47.0049679726048666
 20
132.3124523581959977
 30
0.0
  0
VERTEX
  5
241D
  8
0
 10
47.029595976723698
 20
132.3551093126187936
 30
0.0
  0
VERTEX
  5
241E
  8
0
 10
47.0542155299783929
 20
132.3977516297156001
 30
0.0
  0
VERTEX
  5
241F
  8
0
 10
47.0788263183161675
 20
132.4403787655309088
 30
0.0
  0
VERTEX
  5
2420
  8
0
 10
47.103428027703302
 20
132.4829901761424082
 30
0.0
  0
VERTEX
  5
2421
  8
0
 10
47.128020344106119
 20
132.5255853176279004
 30
0.0
  0
VERTEX
  5
2422
  8
0
 10
47.1526029534909625
 20
132.5681636460651021
 30
0.0
  0
VERTEX
  5
2423
  8
0
 10
47.1771755418417627
 20
132.6107246175621981
 30
0.0
  0
VERTEX
  5
2424
  8
0
 10
47.2017378549326097
 20
132.6532677917869023
 30
0.0
  0
VERTEX
  5
2425
  8
0
 10
47.2262898318617772
 20
132.6957930632545128
 30
0.0
  0
VERTEX
  5
2426
  8
0
 10
47.2508314507291516
 20
132.738300394032791
 30
0.0
  0
VERTEX
  5
2427
  8
0
 10
47.2753626896345622
 20
132.7807897461896118
 30
0.0
  0
VERTEX
  5
2428
  8
0
 10
47.2998835266778812
 20
132.8232610817927082
 30
0.0
  0
VERTEX
  5
2429
  8
0
 10
47.3243939399589522
 20
132.8657143629100972
 30
0.0
  0
VERTEX
  5
242A
  8
0
 10
47.3488939063816971
 20
132.9081495495379954
 30
0.0
  0
VERTEX
  5
242B
  8
0
 10
47.3733831771392033
 20
132.950566210730301
 30
0.0
  0
VERTEX
  5
242C
  8
0
 10
47.397861012855941
 20
132.9929630658510007
 30
0.0
  0
VERTEX
  5
242D
  8
0
 10
47.4223266097516785
 20
133.0353387227119981
 30
0.0
  0
VERTEX
  5
242E
  8
0
 10
47.4467791640461769
 20
133.0776917891249127
 30
0.0
  0
VERTEX
  5
242F
  8
0
 10
47.4712178719592828
 20
133.1200208729017049
 30
0.0
  0
VERTEX
  5
2430
  8
0
 10
47.4956419297107004
 20
133.1623245818541932
 30
0.0
  0
VERTEX
  5
2431
  8
0
 10
47.5200505368325707
 20
133.2046015295312884
 30
0.0
  0
VERTEX
  5
2432
  8
0
 10
47.5444437281254508
 20
133.2468517762094109
 30
0.0
  0
VERTEX
  5
2433
  8
0
 10
47.568823471992232
 20
133.2890787312622081
 30
0.0
  0
VERTEX
  5
2434
  8
0
 10
47.5931920096706165
 20
133.3312862766273099
 30
0.0
  0
VERTEX
  5
2435
  8
0
 10
47.6175515823982423
 20
133.3734782942422044
 30
0.0
  0
VERTEX
  5
2436
  8
0
 10
47.6419044314128186
 20
133.415658666044493
 30
0.0
  0
VERTEX
  5
2437
  8
0
 10
47.6662527979520405
 20
133.4578312739716921
 30
0.0
  0
VERTEX
  5
2438
  8
0
 10
47.6905989232535603
 20
133.4999999999614033
 30
0.0
  0
SEQEND
  5
2439
  8
0
  0
POLYLINE
  5
1E3D
  8
0
 66
     1
 10
0.0
 20
0.0
 30
0.0
  0
VERTEX
  5
243A
  8
0
 10
50.0000000000120721
 20
133.4999999999614033
 30
0.0
  0
VERTEX
  5
243B
  8
0
 10
50.0494356971262206
 20
133.4999999999614033
 30
0.0
  0
VERTEX
  5
243C
  8
0
 10
50.0988703186159228
 20
133.4999999999614033
 30
0.0
  0
VERTEX
  5
243D
  8
0
 10
50.1483027888567676
 20
133.4999999999614033
 30
0.0
  0
VERTEX
  5
243E
  8
0
 10
50.1977320322243088
 20
133.4999999999614033
 30
0.0
  0
VERTEX
  5
243F
  8
0
 10
50.2471569730941496
 20
133.4999999999614033
 30
0.0
  0
VERTEX
  5
2440
  8
0
 10
50.2965765358418366
 20
133.4999999999614033
 30
0.0
  0
VERTEX
  5
2441
  8
0
 10
50.3459896600564889
 20
133.4999999999614033
 30
0.0
  0
VERTEX
  5
2442
  8
0
 10
50.3953954240106228
 20
133.4999999999614033
 30
0.0
  0
VERTEX
  5
2443
  8
0
 10
50.4447929801309769
 20
133.4999999999614033
 30
0.0
  0
VERTEX
  5
2444
  8
0
 10
50.4941814815441603
 20
133.4999999999614033
 30
0.0
  0
VERTEX
  5
2445
  8
0
 10
50.543560081376711
 20
133.4999999999614033
 30
0.0
  0
VERTEX
  5
2446
  8
0
 10
50.5929279327552308
 20
133.4999999999614033
 30
0.0
  0
VERTEX
  5
2447
  8
0
 10
50.64228418999474
 20
133.4999999999614033
 30
0.0
  0
VERTEX
  5
2448
  8
0
 10
50.6916280803804113
 20
133.4999999999614033
 30
0.0
  0
VERTEX
  5
2449
  8
0
 10
50.7409589452678631
 20
133.4999999999614033
 30
0.0
  0
VERTEX
  5
244A
  8
0
 10
50.7902761359389316
 20
133.4999999999614033
 30
0.0
  0
VERTEX
  5
244B
  8
0
 10
50.8395790036755884
 20
133.4999999999614033
 30
0.0
  0
VERTEX
  5
244C
  8
0
 10
50.8888668997597122
 20
133.4999999999614033
 30
0.0
  0
VERTEX
  5
244D
  8
0
 10
50.9381391754731396
 20
133.4999999999614033
 30
0.0
  0
VERTEX
  5
244E
  8
0
 10
50.9873951837107526
 20
133.4999999999614033
 30
0.0
  0
VERTEX
  5
244F
  8
0
 10
51.0366342902201495
 20
133.4999999999614033
 30
0.0
  0
VERTEX
  5
2450
  8
0
 10
51.0858558668956491
 20
133.4999999999614033
 30
0.0
  0
VERTEX
  5
2451
  8
0
 10
51.1350592856698825
 20
133.4999999999614033
 30
0.0
  0
VERTEX
  5
2452
  8
0
 10
51.1842439184755094
 20
133.4999999999614033
 30
0.0
  0
VERTEX
  5
2453
  8
0
 10
51.2334091372451823
 20
133.4999999999614033
 30
0.0
  0
VERTEX
  5
2454
  8
0
 10
51.282554313946811
 20
133.4999999999614033
 30
0.0
  0
VERTEX
  5
2455
  8
0
 10
51.3316789401284765
 20
133.4999999999614033
 30
0.0
  0
VERTEX
  5
2456
  8
0
 10
51.380782893986833
 20
133.4999999999614033
 30
0.0
  0
VERTEX
  5
2457
  8
0
 10
51.4298661317215533
 20
133.4999999999614033
 30
0.0
  0
VERTEX
  5
2458
  8
0
 10
51.478928609532403
 20
133.4999999999614033
 30
0.0
  0
VERTEX
  5
2459
  8
0
 10
51.5279702836189983
 20
133.4999999999614033
 30
0.0
  0
VERTEX
  5
245A
  8
0
 10
51.5769911101811473
 20
133.4999999999614033
 30
0.0
  0
VERTEX
  5
245B
  8
0
 10
51.62599104302668
 20
133.4999999999614033
 30
0.0
  0
VERTEX
  5
245C
  8
0
 10
51.6749695845416923
 20
133.4999999999614033
 30
0.0
  0
VERTEX
  5
245D
  8
0
 10
51.7239252559751606
 20
133.4999999999614033
 30
0.0
  0
VERTEX
  5
245E
  8
0
 10
51.7728564497666284
 20
133.4999999999614033
 30
0.0
  0
VERTEX
  5
245F
  8
0
 10
51.8217615583556892
 20
133.4999999999614033
 30
0.0
  0
VERTEX
  5
2460
  8
0
 10
51.8706389741819009
 20
133.4999999999614033
 30
0.0
  0
VERTEX
  5
2461
  8
0
 10
51.9194870896847434
 20
133.4999999999614033
 30
0.0
  0
VERTEX
  5
2462
  8
0
 10
51.9683043039285621
 20
133.4999999999614033
 30
0.0
  0
VERTEX
  5
2463
  8
0
 10
52.0170906865143365
 20
133.4999999999614033
 30
0.0
  0
VERTEX
  5
2464
  8
0
 10
52.0658501742479132
 20
133.4999999999614033
 30
0.0
  0
VERTEX
  5
2465
  8
0
 10
52.114587249604682
 20
133.4999999999614033
 30
0.0
  0
VERTEX
  5
2466
  8
0
 10
52.1633063950599407
 20
133.4999999999614033
 30
0.0
  0
VERTEX
  5
2467
  8
0
 10
52.2120120930891005
 20
133.4999999999614033
 30
0.0
  0
VERTEX
  5
2468
  8
0
 10
52.2607088261675301
 20
133.4999999999614033
 30
0.0
  0
VERTEX
  5
2469
  8
0
 10
52.3094010767706266
 20
133.4999999999614033
 30
0.0
  0
SEQEND
  5
246A
  8
0
  0
POLYLINE
  5
1E3E
  8
0
 66
     1
 10
0.0
 20
0.0
 30
0.0
  0
VERTEX
  5
246B
  8
0
 10
52.3094010767705981
 20
133.4999999999614033
 30
0.0
  0
VERTEX
  5
246C
  8
0
 10
52.3373152285695298
 20
133.4516512707955087
 30
0.0
  0
VERTEX
  5
246D
  8
0
 10
52.3652322553900618
 20
133.4032975619460899
 30
0.0
  0
VERTEX
  5
246E
  8
0
 10
52.3931550322536381
 20
133.3549338937299069
 30
0.0
  0
VERTEX
  5
246F
  8
0
 10
52.4210864341819516
 20
133.3065552864634924
 30
0.0
  0
VERTEX
  5
2470
  8
0
 10
52.4490293361964675
 20
133.2581567604634074
 30
0.0
  0
VERTEX
  5
2471
  8
0
 10
52.4769866133188074
 20
133.2097333360462983
 30
0.0
  0
VERTEX
  5
2472
  8
0
 10
52.5049611405704866
 20
133.1612800335286124
 30
0.0
  0
VERTEX
  5
2473
  8
0
 10
52.5329555662713403
 20
133.1127922658859859
 30
0.0
  0
VERTEX
  5
2474
  8
0
 10
52.5609701959346793
 20
133.0642695039539092
 30
0.0
  0
VERTEX
  5
2475
  8
0
 10
52.5890039518393735
 20
133.0157136143999992
 30
0.0
  0
VERTEX
  5
2476
  8
0
 10
52.6170557383432325
 20
132.9671264949321881
 30
0.0
  0
VERTEX
  5
2477
  8
0
 10
52.6451244598042081
 20
132.9185100432582942
 30
0.0
  0
VERTEX
  5
2478
  8
0
 10
52.6732090205802024
 20
132.869866157085994
 30
0.0
  0
VERTEX
  5
2479
  8
0
 10
52.7013083250291103
 20
132.8211967341231912
 30
0.0
  0
VERTEX
  5
247A
  8
0
 10
52.7294213121182906
 20
132.7725036121321978
 30
0.0
  0
VERTEX
  5
247B
  8
0
 10
52.7575474514641201
 20
132.7237877097643945
 30
0.0
  0
VERTEX
  5
247C
  8
0
 10
52.7856866278187908
 20
132.6750492266349966
 30
0.0
  0
VERTEX
  5
247D
  8
0
 10
52.8138387370040334
 20
132.6262883431859905
 30
0.0
  0
VERTEX
  5
247E
  8
0
 10
52.8420036748415001
 20
132.5775052398593914
 30
0.0
  0
VERTEX
  5
247F
  8
0
 10
52.8701813371529568
 20
132.5287000970974987
 30
0.0
  0
VERTEX
  5
2480
  8
0
 10
52.89837161976007
 20
132.4798730953422137
 30
0.0
  0
VERTEX
  5
2481
  8
0
 10
52.9265743965990225
 20
132.4310244529426086
 30
0.0
  0
VERTEX
  5
2482
  8
0
 10
52.9547892965732387
 20
132.3821548126568075
 30
0.0
  0
VERTEX
  5
2483
  8
0
 10
52.9830157948461817
 20
132.3332650835282891
 30
0.0
  0
VERTEX
  5
2484
  8
0
 10
53.0112533642074482
 20
132.2843561787123008
 30
0.0
  0
VERTEX
  5
2485
  8
0
 10
53.0395014774465707
 20
132.2354290113642037
 30
0.0
  0
VERTEX
  5
2486
  8
0
 10
53.0677596073531106
 20
132.1864844946391884
 30
0.0
  0
VERTEX
  5
2487
  8
0
 10
53.0960272267165934
 20
132.1375235416927012
 30
0.0
  0
VERTEX
  5
2488
  8
0
 10
53.1243038011646718
 20
132.0885470780845026
 30
0.0
  0
VERTEX
  5
2489
  8
0
 10
53.152588762376098
 20
132.039556088176198
 30
0.0
  0
VERTEX
  5
248A
  8
0
 10
53.1808815319802974
 20
131.9905515737349049
 30
0.0
  0
VERTEX
  5
248B
  8
0
 10
53.2091815316052532
 20
131.9415345365302983
 30
0.0
  0
VERTEX
  5
248C
  8
0
 10
53.2374881828788986
 20
131.8925059783323093
 30
0.0
  0
VERTEX
  5
248D
  8
0
 10
53.265800907429167
 20
131.8434669009104994
 30
0.0
  0
VERTEX
  5
248E
  8
0
 10
53.2941191247004227
 20
131.7944183098169049
 30
0.0
  0
VERTEX
  5
248F
  8
0
 10
53.3224421622159284
 20
131.7453613698154129
 30
0.0
  0
VERTEX
  5
2490
  8
0
 10
53.3507692238547691
 20
131.6962974598278038
 30
0.0
  0
VERTEX
  5
2491
  8
0
 10
53.3790995047922081
 20
131.6472279738513862
 30
0.0
  0
VERTEX
  5
2492
  8
0
 10
53.4074322002036581
 20
131.598154305883412
 30
0.0
  0
VERTEX
  5
2493
  8
0
 10
53.4357665052644677
 20
131.549077849920991
 30
0.0
  0
VERTEX
  5
2494
  8
0
 10
53.4641016151499002
 20
131.4999999999614033
 30
0.0
  0
SEQEND
  5
2495
  8
0
  0
POLYLINE
  5
1E3F
  8
0
 66
     1
 10
0.0
 20
0.0
 30
0.0
  0
VERTEX
  5
2496
  8
0
 10
53.4641016151499002
 20
127.4999999999614033
 30
0.0
  0
VERTEX
  5
2497
  8
0
 10
53.4393837665928402
 20
127.4571874304068047
 30
0.0
  0
VERTEX
  5
2498
  8
0
 10
53.4146664558479927
 20
127.4143757923701941
 30
0.0
  0
VERTEX
  5
2499
  8
0
 10
53.3899502207275418
 20
127.3715660173699007
 30
0.0
  0
VERTEX
  5
249A
  8
0
 10
53.3652355990437499
 20
127.3287590369236995
 30
0.0
  0
VERTEX
  5
249B
  8
0
 10
53.3405231286088508
 20
127.2859557825499053
 30
0.0
  0
VERTEX
  5
249C
  8
0
 10
53.3158133472349789
 20
127.2431571857665062
 30
0.0
  0
VERTEX
  5
249D
  8
0
 10
53.2911067851276528
 20
127.2003641649162944
 30
0.0
  0
VERTEX
  5
249E
  8
0
 10
53.2664039031505681
 20
127.1575775182385968
 30
0.0
  0
VERTEX
  5
249F
  8
0
 10
53.241705125090391
 20
127.1147979797535044
 30
0.0
  0
VERTEX
  5
24A0
  8
0
 10
53.2170108743837886
 20
127.072026282874802
 30
0.0
  0
VERTEX
  5
24A1
  8
0
 10
53.1923215744675204
 20
127.0292631610165017
 30
0.0
  0
VERTEX
  5
24A2
  8
0
 10
53.1676376487782534
 20
126.9865093475925022
 30
0.0
  0
VERTEX
  5
24A3
  8
0
 10
53.1429595201585414
 20
126.9437655749873954
 30
0.0
  0
VERTEX
  5
24A4
  8
0
 10
53.1182875749656986
 20
126.9010325123917937
 30
0.0
  0
VERTEX
  5
24A5
  8
0
 10
53.0936221425219799
 20
126.8583107302086006
 30
0.0
  0
VERTEX
  5
24A6
  8
0
 10
53.0689635471864207
 20
126.8156007902442042
 30
0.0
  0
VERTEX
  5
24A7
  8
0
 10
53.0443121133181066
 20
126.7729032543047936
 30
0.0
  0
VERTEX
  5
24A8
  8
0
 10
53.0196681652760731
 20
126.7302186841968989
 30
0.0
  0
VERTEX
  5
24A9
  8
0
 10
52.9950320274193416
 20
126.6875476417266952
 30
0.0
  0
VERTEX
  5
24AA
  8
0
 10
52.9704040233005387
 20
126.6448906873039988
 30
0.0
  0
VERTEX
  5
24AB
  8
0
 10
52.9457844700458224
 20
126.6022483702072066
 30
0.0
  0
VERTEX
  5
24AC
  8
0
 10
52.9211736817080975
 20
126.5596212343918978
 30
0.0
  0
VERTEX
  5
24AD
  8
0
 10
52.8965719723209702
 20
126.5170098237802989
 30
0.0
  0
VERTEX
  5
24AE
  8
0
 10
52.8719796559181177
 20
126.4744146822948068
 30
0.0
  0
VERTEX
  5
24AF
  8
0
 10
52.8473970465333025
 20
126.4318363538577046
 30
0.0
  0
VERTEX
  5
24B0
  8
0
 10
52.8228244581824526
 20
126.3892753823605943
 30
0.0
  0
VERTEX
  5
24B1
  8
0
 10
52.798262145091627
 20
126.3467322081358049
 30
0.0
  0
VERTEX
  5
24B2
  8
0
 10
52.773710168162431
 20
126.3042069366681943
 30
0.0
  0
VERTEX
  5
24B3
  8
0
 10
52.7491685492950921
 20
126.2616996058899019
 30
0.0
  0
VERTEX
  5
24B4
  8
0
 10
52.7246373103896815
 20
126.2192102537331948
 30
0.0
  0
VERTEX
  5
24B5
  8
0
 10
52.7001164733463483
 20
126.176738918129999
 30
0.0
  0
VERTEX
  5
24B6
  8
0
 10
52.6756060600652916
 20
126.1342856370126952
 30
0.0
  0
VERTEX
  5
24B7
  8
0
 10
52.6511060936425395
 20
126.091850450384797
 30
0.0
  0
VERTEX
  5
24B8
  8
0
 10
52.6266168228850404
 20
126.0494337891925056
 30
0.0
  0
VERTEX
  5
24B9
  8
0
 10
52.6021389871683027
 20
126.0070369340717065
 30
0.0
  0
VERTEX
  5
24BA
  8
0
 10
52.5776733902725724
 20
125.9646612772107943
 30
0.0
  0
VERTEX
  5
24BB
  8
0
 10
52.5532208359780313
 20
125.9223082107978939
 30
0.0
  0
VERTEX
  5
24BC
  8
0
 10
52.5287821280649609
 20
125.8799791270211017
 30
0.0
  0
VERTEX
  5
24BD
  8
0
 10
52.5043580703135504
 20
125.8376754180685992
 30
0.0
  0
VERTEX
  5
24BE
  8
0
 10
52.479949463191609
 20
125.7953984703914045
 30
0.0
  0
VERTEX
  5
24BF
  8
0
 10
52.4555562718987218
 20
125.7531482237133957
 30
0.0
  0
VERTEX
  5
24C0
  8
0
 10
52.4311765280319619
 20
125.710921268660698
 30
0.0
  0
VERTEX
  5
24C1
  8
0
 10
52.406807990353542
 20
125.6687137232954967
 30
0.0
  0
VERTEX
  5
24C2
  8
0
 10
52.3824484176259091
 20
125.6265217056806023
 30
0.0
  0
VERTEX
  5
24C3
  8
0
 10
52.3580955686113327
 20
125.5843413338782995
 30
0.0
  0
VERTEX
  5
24C4
  8
0
 10
52.3337472020721179
 20
125.5421687259511003
 30
0.0
  0
VERTEX
  5
24C5
  8
0
 10
52.3094010767705981
 20
125.4999999999614033
 30
0.0
  0
SEQEND
  5
24C6
  8
0
  0
POLYLINE
  5
1E40
  8
0
 66
     1
 10
0.0
 20
0.0
 30
0.0
  0
VERTEX
  5
24C7
  8
0
 10
52.3094010767705981
 20
125.4999999999614033
 30
0.0
  0
VERTEX
  5
24C8
  8
0
 10
52.2535727731726922
 20
125.4999999999614033
 30
0.0
  0
VERTEX
  5
24C9
  8
0
 10
52.1977387195317135
 20
125.4999999999614033
 30
0.0
  0
VERTEX
  5
24CA
  8
0
 10
52.1418931658044826
 20
125.4999999999614033
 30
0.0
  0
VERTEX
  5
24CB
  8
0
 10
52.0860303619479126
 20
125.4999999999614033
 30
0.0
  0
VERTEX
  5
24CC
  8
0
 10
52.0301445579188666
 20
125.4999999999614033
 30
0.0
  0
VERTEX
  5
24CD
  8
0
 10
51.9742300036742222
 20
125.4999999999614033
 30
0.0
  0
VERTEX
  5
24CE
  8
0
 10
51.9182809491708781
 20
125.4999999999614033
 30
0.0
  0
VERTEX
  5
24CF
  8
0
 10
51.8622920977691422
 20
125.4999999999614033
 30
0.0
  0
VERTEX
  5
24D0
  8
0
 10
51.8062628384424713
 20
125.4999999999614033
 30
0.0
  0
VERTEX
  5
24D1
  8
0
 10
51.7501953266331611
 20
125.4999999999614033
 30
0.0
  0
VERTEX
  5
24D2
  8
0
 10
51.694091753625429
 20
125.4999999999614033
 30
0.0
  0
VERTEX
  5
24D3
  8
0
 10
51.6379543107034422
 20
125.4999999999614033
 30
0.0
  0
VERTEX
  5
24D4
  8
0
 10
51.5817851891514465
 20
125.4999999999614033
 30
0.0
  0
VERTEX
  5
24D5
  8
0
 10
51.5255865802536377
 20
125.4999999999614033
 30
0.0
  0
VERTEX
  5
24D6
  8
0
 10
51.4693606060752913
 20
125.4999999999614033
 30
0.0
  0
VERTEX
  5
24D7
  8
0
 10
51.4131083273836396
 20
125.4999999999614033
 30
0.0
  0
VERTEX
  5
24D8
  8
0
 10
51.356829974674298
 20
125.4999999999614033
 30
0.0
  0
VERTEX
  5
24D9
  8
0
 10
51.3005257563038413
 20
125.4999999999614033
 30
0.0
  0
VERTEX
  5
24DA
  8
0
 10
51.2441958806288369
 20
125.4999999999614033
 30
0.0
  0
VERTEX
  5
24DB
  8
0
 10
51.1878405560059591
 20
125.4999999999614033
 30
0.0
  0
VERTEX
  5
24DC
  8
0
 10
51.1314599907917113
 20
125.4999999999614033
 30
0.0
  0
VERTEX
  5
24DD
  8
0
 10
51.0750544371137778
 20
125.4999999999614033
 30
0.0
  0
VERTEX
  5
24DE
  8
0
 10
51.0186246371653667
 20
125.4999999999614033
 30
0.0
  0
VERTEX
  5
24DF
  8
0
 10
50.9621716406194309
 20
125.4999999999614033
 30
0.0
  0
VERTEX
  5
24E0
  8
0
 10
50.905696501896891
 20
125.4999999999614033
 30
0.0
  0
VERTEX
  5
24E1
  8
0
 10
50.8492002754186387
 20
125.4999999999614033
 30
0.0
  0
VERTEX
  5
24E2
  8
0
 10
50.7926840156055803
 20
125.4999999999614033
 30
0.0
  0
VERTEX
  5
24E3
  8
0
 10
50.7361487768786503
 20
125.4999999999614033
 30
0.0
  0
VERTEX
  5
24E4
  8
0
 10
50.6795956279824225
 20
125.4999999999614033
 30
0.0
  0
VERTEX
  5
24E5
  8
0
 10
50.62302570555957
 20
125.4999999999614033
 30
0.0
  0
VERTEX
  5
24E6
  8
0
 10
50.5664401663511285
 20
125.4999999999614033
 30
0.0
  0
VERTEX
  5
24E7
  8
0
 10
50.5098401671012311
 20
125.4999999999614033
 30
0.0
  0
VERTEX
  5
24E8
  8
0
 10
50.4532268645539617
 20
125.4999999999614033
 30
0.0
  0
VERTEX
  5
24E9
  8
0
 10
50.3966014154534321
 20
125.4999999999614033
 30
0.0
  0
VERTEX
  5
24EA
  8
0
 10
50.3399649809109633
 20
125.4999999999614033
 30
0.0
  0
VERTEX
  5
24EB
  8
0
 10
50.283318905879888
 20
125.4999999999614033
 30
0.0
  0
VERTEX
  5
24EC
  8
0
 10
50.2266647826022634
 20
125.4999999999614033
 30
0.0
  0
VERTEX
  5
24ED
  8
0
 10
50.1700042207273214
 20
125.4999999999614033
 30
0.0
  0
VERTEX
  5
24EE
  8
0
 10
50.1133388299044498
 20
125.4999999999614033
 30
0.0
  0
VERTEX
  5
24EF
  8
0
 10
50.0566702197829088
 20
125.4999999999614033
 30
0.0
  0
VERTEX
  5
24F0
  8
0
 10
50.0000000000120721
 20
125.4999999999614033
 30
0.0
  0
SEQEND
  5
24F1
  8
0
  0
POLYLINE
  5
1E41
  8
0
 66
     1
 10
0.0
 20
0.0
 30
0.0
  0
VERTEX
  5
24F2
  8
0
 10
50.0000000000120721
 20
125.4999999999614033
 30
0.0
  0
VERTEX
  5
24F3
  8
0
 10
49.9505643028979591
 20
125.4999999999614033
 30
0.0
  0
VERTEX
  5
24F4
  8
0
 10
49.901129681408257
 20
125.4999999999614033
 30
0.0
  0
VERTEX
  5
24F5
  8
0
 10
49.8516972111674406
 20
125.4999999999614033
 30
0.0
  0
VERTEX
  5
24F6
  8
0
 10
49.802267967799871
 20
125.4999999999614033
 30
0.0
  0
VERTEX
  5
24F7
  8
0
 10
49.7528430269300586
 20
125.4999999999614033
 30
0.0
  0
VERTEX
  5
24F8
  8
0
 10
49.7034234641823787
 20
125.4999999999614033
 30
0.0
  0
VERTEX
  5
24F9
  8
0
 10
49.6540103399677335
 20
125.4999999999614033
 30
0.0
  0
VERTEX
  5
24FA
  8
0
 10
49.6046045760135996
 20
125.4999999999614033
 30
0.0
  0
VERTEX
  5
24FB
  8
0
 10
49.5552070198932313
 20
125.4999999999614033
 30
0.0
  0
VERTEX
  5
24FC
  8
0
 10
49.5058185184800621
 20
125.4999999999614033
 30
0.0
  0
VERTEX
  5
24FD
  8
0
 10
49.4564399186474972
 20
125.4999999999614033
 30
0.0
  0
VERTEX
  5
24FE
  8
0
 10
49.4070720672689774
 20
125.4999999999614033
 30
0.0
  0
VERTEX
  5
24FF
  8
0
 10
49.3577158100294682
 20
125.4999999999614033
 30
0.0
  0
VERTEX
  5
2500
  8
0
 10
49.3083719196437968
 20
125.4999999999614033
 30
0.0
  0
VERTEX
  5
2501
  8
0
 10
49.2590410547563522
 20
125.4999999999614033
 30
0.0
  0
VERTEX
  5
2502
  8
0
 10
49.2097238640852765
 20
125.4999999999614033
 30
0.0
  0
VERTEX
  5
2503
  8
0
 10
49.1604209963486198
 20
125.4999999999614033
 30
0.0
  0
VERTEX
  5
2504
  8
0
 10
49.1111331002645102
 20
125.4999999999614033
 30
0.0
  0
VERTEX
  5
2505
  8
0
 10
49.0618608245510686
 20
125.4999999999614033
 30
0.0
  0
VERTEX
  5
2506
  8
0
 10
49.0126048163134627
 20
125.4999999999614033
 30
0.0
  0
VERTEX
  5
2507
  8
0
 10
48.9633657098040587
 20
125.4999999999614033
 30
0.0
  0
VERTEX
  5
2508
  8
0
 10
48.9141441331285591
 20
125.4999999999614033
 30
0.0
  0
VERTEX
  5
2509
  8
0
 10
48.8649407143543328
 20
125.4999999999614033
 30
0.0
  0
VERTEX
  5
250A
  8
0
 10
48.8157560815486988
 20
125.4999999999614033
 30
0.0
  0
VERTEX
  5
250B
  8
0
 10
48.766590862779033
 20
125.4999999999614033
 30
0.0
  0
VERTEX
  5
250C
  8
0
 10
48.7174456860774114
 20
125.4999999999614033
 30
0.0
  0
VERTEX
  5
250D
  8
0
 10
48.6683210598957317
 20
125.4999999999614033
 30
0.0
  0
VERTEX
  5
250E
  8
0
 10
48.6192171060373823
 20
125.4999999999614033
 30
0.0
  0
VERTEX
  5
250F
  8
0
 10
48.5701338683026407
 20
125.4999999999614033
 30
0.0
  0
VERTEX
  5
2510
  8
0
 10
48.5210713904918123
 20
125.4999999999614033
 30
0.0
  0
VERTEX
  5
2511
  8
0
 10
48.4720297164051885
 20
125.4999999999614033
 30
0.0
  0
VERTEX
  5
2512
  8
0
 10
48.4230088898430324
 20
125.4999999999614033
 30
0.0
  0
VERTEX
  5
2513
  8
0
 10
48.3740089569974998
 20
125.4999999999614033
 30
0.0
  0
VERTEX
  5
2514
  8
0
 10
48.3250304154824732
 20
125.4999999999614033
 30
0.0
  0
VERTEX
  5
2515
  8
0
 10
48.2760747440489908
 20
125.4999999999614033
 30
0.0
  0
VERTEX
  5
2516
  8
0
 10
48.2271435502574874
 20
125.4999999999614033
 30
0.0
  0
VERTEX
  5
2517
  8
0
 10
48.1782384416684408
 20
125.4999999999614033
 30
0.0
  0
VERTEX
  5
2518
  8
0
 10
48.1293610258422575
 20
125.4999999999614033
 30
0.0
  0
VERTEX
  5
2519
  8
0
 10
48.0805129103394222
 20
125.4999999999614033
 30
0.0
  0
VERTEX
  5
251A
  8
0
 10
48.0316956960955892
 20
125.4999999999614033
 30
0.0
  0
VERTEX
  5
251B
  8
0
 10
47.9829093135098219
 20
125.4999999999614033
 30
0.0
  0
VERTEX
  5
251C
  8
0
 10
47.9341498257762382
 20
125.4999999999614033
 30
0.0
  0
VERTEX
  5
251D
  8
0
 10
47.8854127504195333
 20
125.4999999999614033
 30
0.0
  0
VERTEX
  5
251E
  8
0
 10
47.8366936049642675
 20
125.4999999999614033
 30
0.0
  0
VERTEX
  5
251F
  8
0
 10
47.7879879069350793
 20
125.4999999999614033
 30
0.0
  0
VERTEX
  5
2520
  8
0
 10
47.7392911738566497
 20
125.4999999999614033
 30
0.0
  0
VERTEX
  5
2521
  8
0
 10
47.6905989232535816
 20
125.4999999999614033
 30
0.0
  0
SEQEND
  5
2522
  8
0
  0
POLYLINE
  5
1E42
  8
0
 66
     1
 10
0.0
 20
0.0
 30
0.0
  0
VERTEX
  5
2523
  8
0
 10
47.6905989232535816
 20
125.4999999999614033
 30
0.0
  0
VERTEX
  5
2524
  8
0
 10
47.66268477145465
 20
125.5483487291272979
 30
0.0
  0
VERTEX
  5
2525
  8
0
 10
47.6347677446341535
 20
125.5967024379767025
 30
0.0
  0
VERTEX
  5
2526
  8
0
 10
47.6068449677705416
 20
125.6450661061928997
 30
0.0
  0
VERTEX
  5
2527
  8
0
 10
47.5789135658422566
 20
125.6934447134593
 30
0.0
  0
VERTEX
  5
2528
  8
0
 10
47.5509706638277407
 20
125.7418432394593992
 30
0.0
  0
VERTEX
  5
2529
  8
0
 10
47.5230133867054008
 20
125.7902666638764941
 30
0.0
  0
VERTEX
  5
252A
  8
0
 10
47.4950388594537216
 20
125.8387199663940947
 30
0.0
  0
VERTEX
  5
252B
  8
0
 10
47.4670444337528679
 20
125.8872077340368065
 30
0.0
  0
VERTEX
  5
252C
  8
0
 10
47.4390298040895289
 20
125.9357304959688975
 30
0.0
  0
VERTEX
  5
252D
  8
0
 10
47.4109960481848702
 20
125.9842863855226938
 30
0.0
  0
VERTEX
  5
252E
  8
0
 10
47.3829442616809828
 20
126.0328735049905049
 30
0.0
  0
VERTEX
  5
252F
  8
0
 10
47.3548755402200001
 20
126.0814899566644982
 30
0.0
  0
VERTEX
  5
2530
  8
0
 10
47.3267909794440129
 20
126.1301338428367984
 30
0.0
  0
VERTEX
  5
2531
  8
0
 10
47.2986916749951192
 20
126.1788032657996013
 30
0.0
  0
VERTEX
  5
2532
  8
0
 10
47.2705786879059175
 20
126.2274963877905947
 30
0.0
  0
VERTEX
  5
2533
  8
0
 10
47.2424525485600881
 20
126.2762122901582984
 30
0.0
  0
VERTEX
  5
2534
  8
0
 10
47.2143133722054174
 20
126.3249507732877959
 30
0.0
  0
VERTEX
  5
2535
  8
0
 10
47.1861612630201819
 20
126.373711656736802
 30
0.0
  0
VERTEX
  5
2536
  8
0
 10
47.1579963251826868
 20
126.4224947600633016
 30
0.0
  0
VERTEX
  5
2537
  8
0
 10
47.1298186628712514
 20
126.4712999028252938
 30
0.0
  0
VERTEX
  5
2538
  8
0
 10
47.1016283802641382
 20
126.520126904580593
 30
0.0
  0
VERTEX
  5
2539
  8
0
 10
47.0734256034252212
 20
126.568975546980198
 30
0.0
  0
VERTEX
  5
253A
  8
0
 10
47.0452107034510334
 20
126.6178451872659991
 30
0.0
  0
VERTEX
  5
253B
  8
0
 10
47.016984205178062
 20
126.6667349163945033
 30
0.0
  0
VERTEX
  5
253C
  8
0
 10
46.9887466358167885
 20
126.7156438212105058
 30
0.0
  0
VERTEX
  5
253D
  8
0
 10
46.9604985225776588
 20
126.7645709885586029
 30
0.0
  0
VERTEX
  5
253E
  8
0
 10
46.9322403926711615
 20
126.8135155052836041
 30
0.0
  0
VERTEX
  5
253F
  8
0
 10
46.9039727733076788
 20
126.8624764582301054
 30
0.0
  0
VERTEX
  5
2540
  8
0
 10
46.8756961988595435
 20
126.9114529218383041
 30
0.0
  0
VERTEX
  5
2541
  8
0
 10
46.8474112376481102
 20
126.9604439117465944
 30
0.0
  0
VERTEX
  5
2542
  8
0
 10
46.8191184680439108
 20
127.0094484261879018
 30
0.0
  0
VERTEX
  5
2543
  8
0
 10
46.7908184684189266
 20
127.0584654633924941
 30
0.0
  0
VERTEX
  5
2544
  8
0
 10
46.7625118171453096
 20
127.1074940215905968
 30
0.0
  0
VERTEX
  5
2545
  8
0
 10
46.7341990925950483
 20
127.1565330990122931
 30
0.0
  0
VERTEX
  5
2546
  8
0
 10
46.705880875323821
 20
127.2055816901059018
 30
0.0
  0
VERTEX
  5
2547
  8
0
 10
46.6775578378083082
 20
127.2546386301074932
 30
0.0
  0
VERTEX
  5
2548
  8
0
 10
46.6492307761694676
 20
127.3037025400951023
 30
0.0
  0
VERTEX
  5
2549
  8
0
 10
46.6209004952320001
 20
127.3527720260714062
 30
0.0
  0
VERTEX
  5
254A
  8
0
 10
46.5925677998205501
 20
127.4018456940393946
 30
0.0
  0
VERTEX
  5
254B
  8
0
 10
46.5642334947597405
 20
127.4509221500018015
 30
0.0
  0
VERTEX
  5
254C
  8
0
 10
46.5358983848742866
 20
127.4999999999614033
 30
0.0
  0
SEQEND
  5
254D
  8
0
  0
LINE
  5
1E43
  8
3
 10
87.9329999999997938
 20
99.5000000000000142
 30
0.0
 11
87.9329999999998222
 21
96.5
 31
0.0
  0
LINE
  5
1E44
  8
3
 10
92.0670000000002062
 20
99.5000000000000142
 30
0.0
 11
92.0670000000002062
 21
96.5
 31
0.0
  0
LINE
  5
1E45
  8
3
 10
52.0670000000001991
 20
99.5000000000000142
 30
0.0
 11
52.0670000000001778
 21
96.5
 31
0.0
  0
LINE
  5
1E46
  8
3
 10
47.9329999999997867
 20
99.5000000000000142
 30
0.0
 11
47.9329999999997867
 21
96.5
 31
0.0
  0
CIRCLE
  5
1E47
  8
3
 10
50.0
 20
129.5
 30
0.0
 40
2.0670000000002058
  0
CIRCLE
  5
1E48
  8
0
 10
50.0
 20
129.5
 30
0.0
 40
4.0000000000385683
  0
VIEWPORT
  5
22
 67
     1
  8
0
 10
261.517699115044195
 20
148.5
 30
0.0
 40
523.0353982300885036
 41
297.0
 68
     1
 69
     1
1001
ACAD
1000
MVIEW
1002
{
1070
    16
1010
0.0
1020
0.0
1030
0.0
1010
0.0
1020
0.0
1030
1.0
1040
0.0
1040
297.0
1040
261.517699115044195
1040
148.5
1040
50.0
1040
0.0
1040
0.0
1070
     0
1070
   100
1070
     1
1070
     1
1070
     0
1070
     0
1070
     0
1070
     0
1040
0.0
1040
0.0
1040
0.0
1040
1.0
1040
1.0
1040
10.0
1040
10.0
1070
     0
1002
{
1002
}
1002
}
  0
ENDSEC
  0
EOF
