  0
SECTION
  2
HEADER
  9
$ACADVER
  1
AC1009
  9
$INSBASE
 10
0.0
 20
0.0
 30
0.0
  9
$EXTMIN
 10
0.0
 20
-2.960436562073669
 30
0.0
  9
$EXTMAX
 10
156.9196551146029037
 20
92.4999999999999858
 30
0.0
  9
$LIMMIN
 10
0.0
 20
0.0
  9
$LIMMAX
 10
400.0
 20
277.0
  9
$ORTHOMODE
 70
     1
  9
$REGENMODE
 70
     1
  9
$FILLMODE
 70
     1
  9
$QTEXTMODE
 70
     0
  9
$MIRRTEXT
 70
     1
  9
$DRAGMODE
 70
     2
  9
$LTSCALE
 40
5.0
  9
$OSMODE
 70
    37
  9
$ATTMODE
 70
     1
  9
$TEXTSIZE
 40
2.5
  9
$TRACEWID
 40
1.0
  9
$TEXTSTYLE
  7
STANDARD
  9
$CLAYER
  8
0
  9
$CELTYPE
  6
BYLAYER
  9
$CECOLOR
 62
   256
  9
$DIMSCALE
 40
1.0
  9
$DIMASZ
 40
3.0
  9
$DIMEXO
 40
1.0
  9
$DIMDLI
 40
6.0
  9
$DIMRND
 40
0.0
  9
$DIMDLE
 40
0.0
  9
$DIMEXE
 40
1.0
  9
$DIMTP
 40
495.0
  9
$DIMTM
 40
0.0
  9
$DIMTXT
 40
3.0
  9
$DIMCEN
 40
0.0
  9
$DIMTSZ
 40
0.0
  9
$DIMTOL
 70
     0
  9
$DIMLIM
 70
     0
  9
$DIMTIH
 70
     0
  9
$DIMTOH
 70
     0
  9
$DIMSE1
 70
     0
  9
$DIMSE2
 70
     0
  9
$DIMTAD
 70
     3
  9
$DIMZIN
 70
     8
  9
$DIMBLK
  1

  9
$DIMASO
 70
     0
  9
$DIMSHO
 70
     1
  9
$DIMPOST
  1

  9
$DIMAPOST
  1

  9
$DIMALT
 70
     0
  9
$DIMALTD
 70
     2
  9
$DIMALTF
 40
25.3999999999999986
  9
$DIMLFAC
 40
1.0
  9
$DIMTOFL
 70
     1
  9
$DIMTVP
 40
0.0
  9
$DIMTIX
 70
     1
  9
$DIMSOXD
 70
     0
  9
$DIMSAH
 70
     1
  9
$DIMBLK1
  1
ARROW1
  9
$DIMBLK2
  1
ARROW1
  9
$DIMSTYLE
  2
ITM
  9
$DIMCLRD
 70
     4
  9
$DIMCLRE
 70
     4
  9
$DIMCLRT
 70
     4
  9
$DIMTFAC
 40
1.0
  9
$DIMGAP
 40
1.0
  9
$LUNITS
 70
     2
  9
$LUPREC
 70
     1
  9
$SKETCHINC
 40
1.0
  9
$FILLETRAD
 40
0.0
  9
$AUNITS
 70
     0
  9
$AUPREC
 70
     0
  9
$MENU
  1
.
  9
$ELEVATION
 40
0.0
  9
$PELEVATION
 40
0.0
  9
$THICKNESS
 40
0.0
  9
$LIMCHECK
 70
     0
  9
$BLIPMODE
 70
     0
  9
$CHAMFERA
 40
10.0
  9
$CHAMFERB
 40
10.0
  9
$SKPOLY
 70
     0
  9
$TDCREATE
 40
2451415.6127083338797092
  9
$TDUPDATE
 40
2460886.7184027777984738
  9
$TDINDWG
 40
0.4964946875
  9
$TDUSRTIMER
 40
0.4964946875
  9
$USRTIMER
 70
     1
  9
$ANGBASE
 50
0.0
  9
$ANGDIR
 70
     0
  9
$PDMODE
 70
     0
  9
$PDSIZE
 40
0.0
  9
$PLINEWID
 40
0.0
  9
$COORDS
 70
     1
  9
$SPLFRAME
 70
     0
  9
$SPLINETYPE
 70
     6
  9
$SPLINESEGS
 70
     8
  9
$ATTDIA
 70
     1
  9
$ATTREQ
 70
     1
  9
$HANDLING
 70
     1
  9
$HANDSEED
  5
3455
  9
$SURFTAB1
 70
     6
  9
$SURFTAB2
 70
     6
  9
$SURFTYPE
 70
     6
  9
$SURFU
 70
     6
  9
$SURFV
 70
     6
  9
$UCSNAME
  2

  9
$UCSORG
 10
0.0
 20
0.0
 30
0.0
  9
$UCSXDIR
 10
1.0
 20
0.0
 30
0.0
  9
$UCSYDIR
 10
0.0
 20
1.0
 30
0.0
  9
$PUCSNAME
  2

  9
$PUCSORG
 10
0.0
 20
0.0
 30
0.0
  9
$PUCSXDIR
 10
1.0
 20
0.0
 30
0.0
  9
$PUCSYDIR
 10
0.0
 20
1.0
 30
0.0
  9
$USERI1
 70
     3
  9
$USERI2
 70
     1
  9
$USERI3
 70
     1
  9
$USERI4
 70
     0
  9
$USERI5
 70
     0
  9
$USERR1
 40
1.0
  9
$USERR2
 40
3.0
  9
$USERR3
 40
3.0
  9
$USERR4
 40
3.0
  9
$USERR5
 40
10.0
  9
$WORLDVIEW
 70
     1
  9
$SHADEDGE
 70
     3
  9
$SHADEDIF
 70
    70
  9
$TILEMODE
 70
     1
  9
$MAXACTVP
 70
    16
  9
$PLIMCHECK
 70
     0
  9
$PEXTMIN
 10
1.0000000000000000E+20
 20
1.0000000000000000E+20
 30
1.0000000000000000E+20
  9
$PEXTMAX
 10
-1.0000000000000000E+20
 20
-1.0000000000000000E+20
 30
-1.0000000000000000E+20
  9
$PLIMMIN
 10
0.0
 20
0.0
  9
$PLIMMAX
 10
420.0
 20
297.0
  9
$UNITMODE
 70
     0
  9
$VISRETAIN
 70
     0
  9
$PLINEGEN
 70
     0
  9
$PSLTSCALE
 70
     1
  0
ENDSEC
  0
SECTION
  2
TABLES
  0
TABLE
  2
VPORT
 70
     1
  0
VPORT
  2
*ACTIVE
 70
     0
 10
0.0
 20
0.0
 11
1.0
 21
1.0
 12
127.5862068965517011
 22
54.5183374961815588
 13
0.0
 23
0.0
 14
10.0
 24
10.0
 15
10.0
 25
10.0
 16
0.0
 26
0.0
 36
1.0
 17
0.0
 27
0.0
 37
0.0
 40
109.0366749923631033
 41
2.340243902439024
 42
50.0
 43
0.0
 44
0.0
 50
0.0
 51
0.0
 71
     0
 72
   100
 73
     1
 74
     1
 75
     0
 76
     0
 77
     0
 78
     0
  0
ENDTAB
  0
TABLE
  2
LTYPE
 70
     3
  0
LTYPE
  2
CONTINUOUS
 70
     0
  3
Solid line
 72
    65
 73
     0
 40
0.0
  0
LTYPE
  2
CENTER
 70
     0
  3
____ _ ____ _ ____ _ ____ _ ____ _ ____ _ ____ 
 72
    65
 73
     4
 40
2.0
 49
1.25
 49
-0.25
 49
0.25
 49
-0.25
  0
LTYPE
  2
PHANTOM2
 70
     0
  3
___ _ _ ___ _ _ ___ _ _ ___ _ _
 72
    65
 73
     6
 40
1.25
 49
0.625
 49
-0.125
 49
0.125
 49
-0.125
 49
0.125
 49
-0.125
  0
ENDTAB
  0
TABLE
  2
LAYER
 70
     5
  0
LAYER
  2
0
 70
     0
 62
     7
  6
CONTINUOUS
  0
LAYER
  2
WAKU
 70
     0
 62
     5
  6
CONTINUOUS
  0
LAYER
  2
1
 70
     0
 62
     1
  6
CENTER
  0
LAYER
  2
3
 70
     0
 62
     3
  6
CONTINUOUS
  0
LAYER
  2
DEFPOINTS
 70
     0
 62
     7
  6
CONTINUOUS
  0
ENDTAB
  0
TABLE
  2
STYLE
 70
     3
  0
STYLE
  2
STANDARD
 70
     0
 40
0.0
 41
1.0
 50
0.0
 71
     0
 42
2.5
  3
ROMANS
  4
EXTFONT
  0
STYLE
  2
K
 70
     0
 40
0.0
 41
1.0
 50
0.0
 71
     0
 42
3.0
  3
ROMANS
  4
bigfont
  0
STYLE
  2
STANDARD1
 70
     0
 40
0.0
 41
1.0
 50
0.0
 71
     0
 42
3.0
  3
txt
  4

  0
ENDTAB
  0
TABLE
  2
VIEW
 70
     0
  0
ENDTAB
  0
TABLE
  2
UCS
 70
     0
  0
ENDTAB
  0
TABLE
  2
APPID
 70
    45
  0
APPID
  2
ACAD
 70
     0
  0
APPID
  2
ACAD_NAV_VCDISPLAY
 70
     0
  0
APPID
  2
DCO15
 70
     0
  0
APPID
  2
GENIUS_GENOREF_13
 70
     0
  0
APPID
  2
GENIUS_GENOENT_13
 70
     0
  0
APPID
  2
GENIUS_GENBH_13
 70
     0
  0
APPID
  2
GENIUS_GENOBJ_13
 70
     0
  0
APPID
  2
GENIUS_GENODEF_13
 70
     0
  0
APPID
  2
GENIUS_GENOLIS_13
 70
     0
  0
APPID
  2
GENIUS_GENOBJ-NBEHI-BHF_13
 70
     0
  0
APPID
  2
GENIUS_GENOBJ-NBEHI-BHB_13
 70
     0
  0
APPID
  2
GENIUS_GENOBJ-F-PART_13
 70
     0
  0
APPID
  2
GENIUS_GEFSTDP_13
 70
     0
  0
APPID
  2
GENIUS_GENOBJ-N-RSSYM_13
 70
     0
  0
APPID
  2
GENIUS_GENSYMENT_13
 70
     0
  0
APPID
  2
GENIUS_GENOBJ-N-TIT_13
 70
     0
  0
APPID
  2
GENIUS_GENTITLE_13
 70
     0
  0
APPID
  2
GENIUS_GENZVEED_13
 70
     0
  0
APPID
  2
GENIUS_GENOBJ-N-LEADER_13
 70
     0
  0
APPID
  2
GENIUS_GENOBJ-N-FIL_13
 70
     0
  0
APPID
  2
GENIUS_GENOBJ-N-SEC_13
 70
     0
  0
APPID
  2
GENIUS_GENOBJ-N-CRS_13
 70
     0
  0
APPID
  2
GENIUS_GENOBJ-N-ZOO_13
 70
     0
  0
APPID
  2
GENIUS_GENZOO_13
 70
     0
  0
APPID
  2
GENIUS_GENOBJ-F-TOL_13
 70
     0
  0
APPID
  2
GENIUS_GENFIL_13
 70
     0
  0
APPID
  2
GENIUS_GENOBJ-N-CHA_13
 70
     0
  0
APPID
  2
_CALL_MAC$
 70
     0
  0
APPID
  2
ASM_BASE
 70
     0
  0
APPID
  2
ASM_EXPLO_VER_2_00
 70
     0
  0
APPID
  2
ASM_CADM_VER_12_00
 70
     0
  0
APPID
  2
ASM_BASEFORO
 70
     0
  0
APPID
  2
ASM_BASETRAVI
 70
     0
  0
APPID
  2
ASM_BASETRAVI1
 70
     0
  0
APPID
  2
ASM_GRUPPI
 70
     0
  0
APPID
  2
ASM_CADM_ALBERO
 70
     0
  0
APPID
  2
ASM_GOLE
 70
     0
  0
APPID
  2
ACAD_EXEMPT_FROM_CAD_STANDARDS
 70
     0
  0
APPID
  2
ACAD_DSTYLE_DIMJAG
 70
     0
  0
APPID
  2
ACAD_DSTYLE_DIMTALN
 70
     0
  0
APPID
  2
GRADIENTCOLOR1ACI
 70
     0
  0
APPID
  2
GRADIENTCOLOR2ACI
 70
     0
  0
APPID
  2
ACAD_MLEADERVER
 70
     0
  0
APPID
  2
ACAD_TC
 70
     0
  0
APPID
  2
ACAD_DSTYLE_DIMRADIAL_EXTENSION
 70
     0
  0
ENDTAB
  0
TABLE
  2
DIMSTYLE
 70
     2
  0
DIMSTYLE
  2
STANDARD
 70
     0
  3

  4

  5

  6

  7

 40
1.0
 41
0.18
 42
0.0625
 43
0.38
 44
0.18
 45
0.0
 46
0.0
 47
0.0
 48
0.0
140
0.18
141
0.09
142
0.0
143
25.3999999999999986
144
1.0
145
0.0
146
1.0
147
0.09
 71
     0
 72
     0
 73
     1
 74
     1
 75
     0
 76
     0
 77
     0
 78
     0
170
     0
171
     2
172
     0
173
     0
174
     0
175
     0
176
     0
177
     0
178
     0
  0
DIMSTYLE
  2
ITM
 70
     0
  3

  4

  5
ARROWANG
  6
ARROWANG
  7
ARROWANG
 40
1.0
 41
1.5
 42
1.0
 43
6.0
 44
1.0
 45
0.0
 46
0.0
 47
495.0
 48
0.0
140
3.0
141
0.0
142
0.0
143
25.3999999999999986
144
1.0
145
0.0
146
1.0
147
0.5
 71
     0
 72
     0
 73
     0
 74
     0
 75
     0
 76
     0
 77
     3
 78
     8
170
     0
171
     2
172
     1
173
     1
174
     1
175
     0
176
     0
177
     0
178
     0
  0
ENDTAB
  0
ENDSEC
  0
SECTION
  2
BLOCKS
  0
BLOCK
  8
0
  2
$MODEL_SPACE
 70
     0
 10
0.0
 20
0.0
 30
0.0
  3
$MODEL_SPACE
  1

  0
ENDBLK
  5
1C
  8
0
  0
BLOCK
 67
     1
  8
0
  2
$PAPER_SPACE
 70
     0
 10
0.0
 20
0.0
 30
0.0
  3
$PAPER_SPACE
  1

  0
ENDBLK
  5
19
 67
     1
  8
0
  0
BLOCK
  8
0
  2
ARROWANG
 70
     0
 10
0.0
 20
0.0
 30
0.0
  3
ARROWANG
  1

  0
LINE
  5
C9
  8
0
 10
0.0
 20
0.0
 30
0.0
 11
-1.4999999999999429
 21
0.4019237886467409
 31
0.0
  0
LINE
  5
CA
  8
0
 10
0.0
 20
0.0
 30
0.0
 11
-1.5
 21
-0.4019237886467124
 31
0.0
  0
ENDBLK
  5
CB
  8
0
  0
BLOCK
  8
0
  2
ARROW1
 70
     0
 10
0.0
 20
0.0
 30
0.0
  3
ARROW1
  1

  0
SOLID
  5
EE
  8
WAKU
  6
CONTINUOUS
 62
     4
 10
-1.0
 20
0.1666666666666714
 30
0.0
 11
-1.0
 21
-0.1666666666666714
 31
0.0
 12
0.0
 22
0.0
 32
0.0
 13
0.0
 23
0.0
 33
0.0
  0
ENDBLK
  5
F0
  8
0
  0
ENDSEC
  0
SECTION
  2
ENTITIES
  0
TEXT
  5
1BB9
  8
0
 62
     3
 10
0.0
 20
0.0
 30
0.0
 40
10.0
  1
VPFF70-M5-L
  7
STANDARD1
  0
LINE
  5
2FA2
  8
0
 10
30.5000000000000604
 20
85.4848275573014291
 30
0.0
 11
40.0000000000000213
 21
90.9696551146028867
 31
0.0
  0
LINE
  5
2FA3
  8
0
 10
49.5000000000000568
 20
85.4848275573014291
 30
0.0
 11
49.5000000000000568
 21
74.5151724426985425
 31
0.0
  0
LINE
  5
2FA4
  8
0
 10
40.0000000000000213
 20
69.0303448853970849
 30
0.0
 11
30.5000000000000604
 21
74.5151724426985425
 31
0.0
  0
CIRCLE
  5
2FA5
  8
0
 10
40.0000000000000213
 20
80.0
 30
0.0
 40
9.4999999999999716
  0
CIRCLE
  5
2FA6
  8
0
 10
40.0000000000000213
 20
80.0
 30
0.0
 40
6.0000000000000258
  0
LINE
  5
2FA7
  8
0
 10
45.0
 20
83.3166247903554051
 30
0.0
 11
45.0
 21
76.6833752096445664
 31
0.0
  0
LINE
  5
2FA8
  8
0
 10
35.0
 20
83.3166247903554051
 30
0.0
 11
35.0
 21
76.6833752096445664
 31
0.0
  0
CIRCLE
  5
2FA9
  8
3
 10
40.0
 20
80.0
 30
0.0
 40
2.499999999999992
  0
CIRCLE
  5
2FAA
  8
0
 10
40.0000000000000213
 20
80.0
 30
0.0
 40
1.0
  0
LINE
  5
2FAB
  8
0
 10
40.0000000000000213
 20
90.9696551146028867
 30
0.0
 11
49.5000000000000568
 21
85.4848275573014291
 31
0.0
  0
LINE
  5
2FAC
  8
0
 10
49.5000000000000568
 20
74.5151724426985425
 30
0.0
 11
40.0000000000000213
 21
69.0303448853970849
 31
0.0
  0
LINE
  5
2FAD
  8
0
 10
30.5000000000000604
 20
74.5151724426985425
 30
0.0
 11
30.5000000000000604
 21
85.4848275573014291
 31
0.0
  0
LINE
  5
2FAE
  8
1
 10
40.0000000000000213
 20
92.4999999999999858
 30
0.0
 11
40.0000000000000213
 21
57.0000000000000568
 31
0.0
  0
LINE
  5
2FAF
  8
1
 10
53.969655114602908
 20
80.0
 30
0.0
 11
26.0303448853971418
 21
80.0
 31
0.0
  0
CIRCLE
  5
2FB0
  8
0
 10
40.0000000000000213
 20
80.0
 30
0.0
 40
2.0670000000002058
  0
LINE
  5
2FB3
  8
0
 10
34.8999999999999204
 20
65.3999999999999488
 30
0.0
 11
34.899999999999892
 21
61.2535533905931686
 31
0.0
  0
LINE
  5
2FB4
  8
0
 10
45.0999999999999019
 20
61.2535533905931118
 30
0.0
 11
45.0999999999999304
 21
65.399999999999892
 31
0.0
  0
LINE
  5
2FB5
  8
0
 10
34.899999999999892
 20
61.2535533905931686
 30
0.0
 11
35.253553390593197
 21
60.899999999999892
 31
0.0
  0
LINE
  5
2FB6
  8
0
 10
44.7464466094065969
 20
60.899999999999828
 30
0.0
 11
45.0999999999999019
 21
61.2535533905931118
 31
0.0
  0
LINE
  5
2FB7
  8
0
 10
34.9999999999999716
 20
68.9999999999999432
 30
0.0
 11
34.9999999999999503
 21
65.3999999999999488
 31
0.0
  0
LINE
  5
2FB8
  8
0
 10
44.9999999999999432
 20
65.399999999999892
 30
0.0
 11
44.9999999999999432
 21
68.9999999999998863
 31
0.0
  0
LINE
  5
2FB9
  8
0
 10
44.9999999999999432
 20
68.9999999999998863
 30
0.0
 11
44.4999999999999432
 21
69.4999999999998863
 31
0.0
  0
LINE
  5
2FBA
  8
0
 10
35.4999999999999716
 20
69.4999999999999432
 30
0.0
 11
34.9999999999999716
 21
68.9999999999999432
 31
0.0
  0
LINE
  5
2FBB
  8
0
 10
34.2264973081036885
 20
69.7072594216368486
 30
0.0
 11
34.9999999999999716
 21
69.4999999999999432
 31
0.0
  0
LINE
  5
2FBC
  8
0
 10
44.9999999999999432
 20
69.4999999999998863
 30
0.0
 11
45.7735026918962191
 21
69.7072594216367634
 31
0.0
  0
LINE
  5
2FBD
  8
0
 10
37.9999999999999218
 20
60.9000000000000625
 30
0.0
 11
38.2411542731879024
 21
60.0000000000000568
 31
0.0
  0
LINE
  5
2FBE
  8
0
 10
41.7588457268118631
 20
60.0000000000000284
 30
0.0
 11
41.9999999999998792
 21
60.900000000000027
 31
0.0
  0
LINE
  5
2FBF
  8
0
 10
34.8999999999999204
 20
65.3999999999999773
 30
0.0
 11
45.0999999999999304
 21
65.399999999999892
 31
0.0
  0
LINE
  5
2FC1
  8
0
 10
34.899999999999892
 20
61.2535533905932184
 30
0.0
 11
45.0999999999999019
 21
61.2535533905931118
 31
0.0
  0
LINE
  5
2FC3
  8
0
 10
35.2535533905929981
 20
60.9000000000001407
 30
0.0
 11
44.7464466094066324
 21
60.8999999999999986
 31
0.0
  0
LINE
  5
2FC5
  8
0
 10
34.9999999999999503
 20
68.9999999999999716
 30
0.0
 11
44.9999999999999432
 21
68.9999999999998863
 31
0.0
  0
LINE
  5
2FC7
  8
0
 10
37.1132486540518585
 20
69.7072594216368486
 30
0.0
 11
37.11324865405183
 21
70.6970115520637989
 31
0.0
  0
POLYLINE
  5
2FC8
  8
0
 66
     1
 10
0.0
 20
0.0
 30
0.0
 70
   128
  0
VERTEX
  5
33E9
  8
0
 10
35.6698729810777877
 20
69.5000000000000142
 30
0.0
  0
VERTEX
  5
33EA
  8
0
 10
36.3915608175648018
 20
69.5547058465150201
 30
0.0
  0
VERTEX
  5
33EB
  8
0
 10
37.1132486540518585
 20
69.7072594216368486
 30
0.0
  0
SEQEND
  5
33EC
  8
0
  0
POLYLINE
  5
2FC9
  8
0
 66
     1
 10
0.0
 20
0.0
 30
0.0
 70
   128
  0
VERTEX
  5
33ED
  8
0
 10
34.2264973081036885
 20
69.7072594216368486
 30
0.0
  0
VERTEX
  5
33EE
  8
0
 10
34.9449402417470765
 20
69.5551891417055401
 30
0.0
  0
VERTEX
  5
33EF
  8
0
 10
35.6698729810777877
 20
69.5000000000000142
 30
0.0
  0
SEQEND
  5
33F0
  8
0
  0
LINE
  5
2FCA
  8
0
 10
34.2264973081036885
 20
69.7072594216368486
 30
0.0
 11
34.2264973081037667
 21
72.3636782187304419
 31
0.0
  0
POLYLINE
  5
2FCB
  8
0
 66
     1
 10
0.0
 20
0.0
 30
0.0
 70
   128
  0
VERTEX
  5
33F1
  8
0
 10
37.1132486540518585
 20
69.7072594216368486
 30
0.0
  0
VERTEX
  5
33F2
  8
0
 10
38.5501345213385491
 20
69.5551891417055401
 30
0.0
  0
VERTEX
  5
33F3
  8
0
 10
39.1291156113479985
 20
69.533150221618385
 30
0.0
  0
SEQEND
  5
33F4
  8
0
  0
LINE
  5
2FCD
  8
0
 10
42.8867513459480776
 20
69.7072594216368202
 30
0.0
 11
42.8867513459480776
 21
70.6970115520637137
 31
0.0
  0
POLYLINE
  5
2FCE
  8
0
 66
     1
 10
0.0
 20
0.0
 30
0.0
 70
   128
  0
VERTEX
  5
33F5
  8
0
 10
40.8722503339587888
 20
69.5339388505089318
 30
0.0
  0
VERTEX
  5
33F6
  8
0
 10
41.4834033978084094
 20
69.5577185289619138
 30
0.0
  0
VERTEX
  5
33F7
  8
0
 10
42.8867513459480776
 20
69.7072594216368202
 30
0.0
  0
SEQEND
  5
33F8
  8
0
  0
POLYLINE
  5
2FCF
  8
0
 66
     1
 10
0.0
 20
0.0
 30
0.0
 70
   128
  0
VERTEX
  5
33F9
  8
0
 10
42.8867513459480776
 20
69.7072594216368202
 30
0.0
  0
VERTEX
  5
33FA
  8
0
 10
43.6051942795914727
 20
69.5551891417055117
 30
0.0
  0
VERTEX
  5
33FB
  8
0
 10
44.3301270189221626
 20
69.4999999999998863
 30
0.0
  0
SEQEND
  5
33FC
  8
0
  0
LINE
  5
2FD0
  8
0
 10
34.9999999999991189
 20
69.5000000000001705
 30
0.0
 11
39.1865334794731268
 21
69.5000000000000426
 31
0.0
  0
LINE
  5
2FD1
  8
0
 10
45.7735026918962191
 20
69.7072594216367918
 30
0.0
 11
45.7735026918962831
 21
72.3636782187304135
 31
0.0
  0
POLYLINE
  5
2FD2
  8
0
 66
     1
 10
0.0
 20
0.0
 30
0.0
 70
   128
  0
VERTEX
  5
33FD
  8
0
 10
44.3301270189221626
 20
69.4999999999998863
 30
0.0
  0
VERTEX
  5
33FE
  8
0
 10
45.0518148554091766
 20
69.5547058465149632
 30
0.0
  0
VERTEX
  5
33FF
  8
0
 10
45.7735026918962191
 20
69.7072594216367918
 30
0.0
  0
SEQEND
  5
3400
  8
0
  0
LINE
  5
2FD5
  8
0
 10
38.2411542731879024
 20
60.0000000000000568
 30
0.0
 11
41.7588457268118631
 21
60.0000000000000284
 31
0.0
  0
CIRCLE
  5
2FDD
  8
3
 10
40.0
 20
80.0
 30
0.0
 40
5.0529999999999751
  0
LINE
  5
3055
  8
0
 10
94.0
 20
89.5000000000000142
 30
0.0
 11
93.6062070988899109
 21
90.9696551146029151
 31
0.0
  0
LINE
  5
3056
  8
0
 10
93.6062070988899109
 20
69.0303448853971133
 30
0.0
 11
94.0
 21
70.5
 31
0.0
  0
LINE
  5
3057
  8
0
 10
90.393792901110146
 20
90.9696551146029151
 30
0.0
 11
90.0000000000000568
 21
89.5000000000000142
 31
0.0
  0
LINE
  5
3058
  8
0
 10
90.0000000000000568
 20
70.5
 30
0.0
 11
90.393792901110146
 21
69.0303448853971133
 31
0.0
  0
LINE
  5
3059
  8
0
 10
82.0000000000000568
 20
89.5000000000000142
 30
0.0
 11
81.6062070988899109
 21
90.9696551146029151
 31
0.0
  0
LINE
  5
305A
  8
0
 10
81.6062070988899109
 20
69.0303448853971133
 30
0.0
 11
82.0000000000000568
 21
70.5
 31
0.0
  0
LINE
  5
305B
  8
0
 10
78.393792901110146
 20
90.9696551146029151
 30
0.0
 11
78.0000000000000284
 21
89.5000000000000142
 31
0.0
  0
LINE
  5
305C
  8
0
 10
78.0000000000000284
 20
70.5
 30
0.0
 11
78.393792901110146
 21
69.0303448853971133
 31
0.0
  0
LINE
  5
305D
  8
0
 10
99.2330000000000041
 20
86.0000000000000284
 30
0.0
 11
94.0000000000000568
 21
86.0000000000000284
 31
0.0
  0
LINE
  5
305E
  8
0
 10
90.0000000000000568
 20
86.0000000000000284
 30
0.0
 11
82.0000000000000568
 21
86.0000000000000284
 31
0.0
  0
LINE
  5
305F
  8
0
 10
78.0000000000000284
 20
86.0000000000000284
 30
0.0
 11
70.7670000000000243
 21
86.0000000000000284
 31
0.0
  0
LINE
  5
3060
  8
0
 10
70.7670000000000243
 20
74.0
 30
0.0
 11
78.0000000000000284
 21
74.0
 31
0.0
  0
LINE
  5
3061
  8
0
 10
82.0000000000000568
 20
74.0
 30
0.0
 11
90.0000000000000568
 21
74.0
 31
0.0
  0
LINE
  5
3062
  8
0
 10
94.0000000000000568
 20
74.0
 30
0.0
 11
99.2330000000000041
 21
74.0
 31
0.0
  0
LINE
  5
3063
  8
0
 10
99.2330000000000041
 20
74.0
 30
0.0
 11
100.0
 21
74.7670000000000243
 31
0.0
  0
LINE
  5
3064
  8
0
 10
100.0
 20
85.2330000000000041
 30
0.0
 11
99.2330000000000041
 21
86.0000000000000284
 31
0.0
  0
LINE
  5
306D
  8
0
 10
70.7670000000000243
 20
86.0000000000000284
 30
0.0
 11
70.0000000000000284
 21
85.2330000000000041
 31
0.0
  0
LINE
  5
306E
  8
0
 10
70.0000000000000284
 20
74.7670000000000243
 30
0.0
 11
70.7670000000000243
 21
74.0
 31
0.0
  0
ARC
  5
3079
  8
0
 10
83.4792789127167936
 20
71.6615310331346222
 30
0.0
 40
10.5213090336841901
 50
0.6057223970295077
 51
15.7371709089566192
  0
ARC
  5
307A
  8
0
 10
53.0011557540903695
 20
80.1870342715234443
 30
0.0
 40
40.9992708632615077
 50
352.0481673990543072
 51
359.7386218992081126
  0
LINE
  5
307B
  8
0
 10
93.9999999999999432
 20
89.5000000000002132
 30
0.0
 11
94.0000000000000568
 21
70.5000000000001563
 31
0.0
  0
ARC
  5
307C
  8
0
 10
53.0219284729125491
 20
79.8144571425864626
 30
0.0
 40
40.9784915807187176
 50
0.2594253366265179
 51
7.9537853651120969
  0
ARC
  5
307D
  8
0
 10
83.482216028502819
 20
88.3380472160138766
 30
0.0
 40
10.5183676306801708
 50
344.2607009899393233
 51
359.3964057040761872
  0
LINE
  5
307E
  8
0
 10
90.0000000000000568
 20
89.5000000000001563
 30
0.0
 11
90.0
 21
70.5000000000000142
 31
0.0
  0
ARC
  5
307F
  8
0
 10
130.9780715270752864
 20
80.1855428574118747
 30
0.0
 40
40.9784915807065033
 50
180.259425336624787
 51
187.9537853651121111
  0
ARC
  5
3080
  8
0
 10
100.5177839714945947
 20
71.6619527839869193
 30
0.0
 40
10.5183676306774707
 50
164.2607009899392949
 51
179.3964057040793989
  0
ARC
  5
3081
  8
0
 10
100.520721087283107
 20
88.338468966864923
 30
0.0
 40
10.5213090336839894
 50
180.6057223970277903
 51
195.7371709089549086
  0
ARC
  5
3082
  8
0
 10
130.9988442458889892
 20
79.8129657284789431
 30
0.0
 40
40.9992708632408167
 50
172.0481673990526872
 51
179.7386218992112958
  0
ARC
  5
3083
  8
0
 10
100.5177839714951062
 20
88.1164354558909508
 30
0.0
 40
10.5183676306780196
 50
164.2607009899392949
 51
179.3964057040778073
  0
LINE
  5
3084
  8
0
 10
93.6062070988899109
 20
90.9696551146029151
 30
0.0
 11
90.393792901110146
 21
90.9696551146029151
 31
0.0
  0
ARC
  5
3085
  8
0
 10
83.4792789127149035
 20
88.1160137050389238
 30
0.0
 40
10.5213090336860908
 50
0.6057223970295077
 51
15.7371709089534608
  0
LINE
  5
3086
  8
0
 10
93.6062070988899109
 20
85.4848275573014575
 30
0.0
 11
90.3937929011100891
 21
85.4848275573014575
 31
0.0
  0
LINE
  5
3087
  8
0
 10
93.6062070988899109
 20
74.5151724426985709
 30
0.0
 11
90.3937929011100891
 21
74.5151724426985709
 31
0.0
  0
ARC
  5
3088
  8
0
 10
100.5207210872809043
 20
71.8839862949604935
 30
0.0
 40
10.5213090336818293
 50
180.6057223970277903
 51
195.7371709089576939
  0
ARC
  5
3089
  8
0
 10
83.482216028501341
 20
71.8835645441095608
 30
0.0
 40
10.5183676306816594
 50
344.2607009899421087
 51
359.3964057040761872
  0
LINE
  5
308A
  8
0
 10
93.6062070988899109
 20
69.0303448853971133
 30
0.0
 11
90.393792901110146
 21
69.0303448853971133
 31
0.0
  0
ARC
  5
308B
  8
0
 10
118.9780715270967022
 20
80.1855428574141627
 30
0.0
 40
40.9784915807280115
 50
180.2594253366281123
 51
187.9537853651121111
  0
ARC
  5
308C
  8
0
 10
118.9988442459176952
 20
79.8129657284761436
 30
0.0
 40
40.9992708632695724
 50
172.0481673990543072
 51
179.7386218992081126
  0
LINE
  5
308D
  8
0
 10
81.6062070988899109
 20
85.4848275573014575
 30
0.0
 11
78.3937929011101033
 21
85.4848275573014575
 31
0.0
  0
ARC
  5
308E
  8
0
 10
41.0219284729090532
 20
79.8144571425867184
 30
0.0
 40
40.9784915807221708
 50
0.2594253366265179
 51
7.953785365110452
  0
ARC
  5
308F
  8
0
 10
41.0011557540953788
 20
80.1870342715225064
 30
0.0
 40
40.9992708632564486
 50
352.0481673990543072
 51
359.7386218992097042
  0
LINE
  5
3090
  8
0
 10
81.6062070988899109
 20
74.5151724426985709
 30
0.0
 11
78.3937929011101033
 21
74.5151724426985709
 31
0.0
  0
ARC
  5
3091
  8
0
 10
71.4822160285041548
 20
88.3380472160135355
 30
0.0
 40
10.5183676306787905
 50
344.2607009899393233
 51
359.3964057040777789
  0
LINE
  5
3092
  8
0
 10
81.9999999999999289
 20
89.5000000000000853
 30
0.0
 11
81.9999999999999289
 21
70.4999999999996732
 31
0.0
  0
ARC
  5
3093
  8
0
 10
88.5207210872844144
 20
88.3384689668653635
 30
0.0
 40
10.5213090336853892
 50
180.6057223970310872
 51
195.7371709089549086
  0
ARC
  5
3094
  8
0
 10
88.517783971497181
 20
88.1164354558905245
 30
0.0
 40
10.5183676306801601
 50
164.2607009899392949
 51
179.3964057040745956
  0
LINE
  5
3095
  8
0
 10
81.6062070988899109
 20
90.9696551146029151
 30
0.0
 11
78.393792901110146
 21
90.9696551146029151
 31
0.0
  0
ARC
  5
3096
  8
0
 10
71.4792789127176604
 20
88.1160137050393928
 30
0.0
 40
10.5213090336833108
 50
0.6057223970278792
 51
15.7371709089549405
  0
ARC
  5
3097
  8
0
 10
71.4792789127170352
 20
71.6615310331348212
 30
0.0
 40
10.5213090336839503
 50
0.6057223970295077
 51
15.7371709089549405
  0
ARC
  5
3098
  8
0
 10
88.5207210872833343
 20
71.883986294961062
 30
0.0
 40
10.5213090336842701
 50
180.6057223970310872
 51
195.7371709089566139
  0
ARC
  5
3099
  8
0
 10
88.517783971497181
 20
71.661952783986294
 30
0.0
 40
10.5183676306801299
 50
164.2607009899392949
 51
179.3964057040761872
  0
ARC
  5
309A
  8
0
 10
71.4822160285052064
 20
71.8835645441089355
 30
0.0
 40
10.5183676306777407
 50
344.2607009899393233
 51
359.3964057040794273
  0
LINE
  5
309B
  8
0
 10
81.6062070988899109
 20
69.0303448853971133
 30
0.0
 11
78.393792901110146
 21
69.0303448853971133
 31
0.0
  0
LINE
  5
309C
  8
0
 10
78.0
 20
89.4999999999999289
 30
0.0
 11
78.0000000000000284
 21
70.4999999999999005
 31
0.0
  0
LINE
  5
309D
  8
0
 10
99.2330000000000041
 20
86.0000000000000284
 30
0.0
 11
99.2330000000000041
 21
74.0
 31
0.0
  0
LINE
  5
309E
  8
0
 10
70.7669999999999959
 20
76.6833752096445949
 30
0.0
 11
70.7670000000000243
 21
74.0
 31
0.0
  0
LINE
  5
309F
  8
0
 10
70.7669999999999959
 20
76.6833752096445949
 30
0.0
 11
76.0000000000000284
 21
76.6833752096446233
 31
0.0
  0
LINE
  5
30A0
  8
0
 10
76.0000000000000284
 20
76.6833752096446233
 30
0.0
 11
76.0000000000000284
 21
83.3166247903554051
 31
0.0
  0
LINE
  5
30A1
  8
0
 10
76.0000000000000284
 20
83.3166247903554051
 30
0.0
 11
70.7669999999999959
 21
83.3166247903554336
 31
0.0
  0
LINE
  5
30A2
  8
0
 10
70.7670000000000243
 20
86.0000000000000284
 30
0.0
 11
70.7669999999999959
 21
83.3166247903554336
 31
0.0
  0
LINE
  5
30A3
  8
0
 10
100.0
 20
85.2330000000000041
 30
0.0
 11
100.0
 21
74.7670000000000243
 31
0.0
  0
POLYLINE
  5
30BA
  8
0
 66
     1
 10
0.0
 20
0.0
 30
0.0
 70
   128
  0
VERTEX
  5
3401
  8
0
 10
70.7669999999999959
 20
83.3166247903554336
 30
0.0
  0
VERTEX
  5
3402
  8
0
 10
70.3375338255585234
 20
82.4557783087428504
 30
0.0
  0
VERTEX
  5
3403
  8
0
 10
70.0000000000000284
 20
81.5441143092401148
 30
0.0
  0
SEQEND
  5
3404
  8
0
  0
ARC
  5
30BB
  8
0
 10
78.6473982479419647
 20
81.1455810714831642
 30
0.0
 40
9.0560453675759351
 50
197.277835621814404
 51
209.5203250197716898
  0
LINE
  5
30BE
  8
0
 10
70.0000000000000284
 20
85.2330000000000041
 30
0.0
 11
70.0000000000000284
 21
74.7670000000000243
 31
0.0
  0
LINE
  5
30BF
  8
1
 10
67.0000000000000568
 20
80.0
 30
0.0
 11
115.9500000000000028
 21
80.0000000000000142
 31
0.0
  0
LINE
  5
30C0
  8
3
 10
70.0000000000000284
 20
85.0530000000000257
 30
0.0
 11
78.0
 21
85.0530000000000257
 31
0.0
  0
LINE
  5
30C1
  8
3
 10
81.9999999999999289
 20
85.0529999999999973
 30
0.0
 11
90.0000000000000568
 21
85.0529999999999831
 31
0.0
  0
LINE
  5
30C2
  8
3
 10
93.9999999999999432
 20
85.0529999999999546
 30
0.0
 11
100.0
 21
85.0529999999999404
 31
0.0
  0
LINE
  5
30C3
  8
3
 10
70.0000000000000284
 20
74.9469999999999459
 30
0.0
 11
78.0000000000000284
 21
74.9469999999999459
 31
0.0
  0
LINE
  5
30C4
  8
3
 10
81.9999999999999289
 20
74.9469999999999459
 30
0.0
 11
89.9999999999999432
 21
74.9469999999999317
 31
0.0
  0
LINE
  5
30C5
  8
3
 10
94.0000000000000568
 20
74.9469999999999033
 30
0.0
 11
100.0
 21
74.9469999999999033
 31
0.0
  0
LINE
  5
30C6
  8
0
 10
101.4500000000001023
 20
44.7000000000000526
 30
0.0
 11
100.0
 21
44.7000000000000526
 31
0.0
  0
LINE
  5
30C7
  8
0
 10
100.0
 20
35.3000000000000469
 30
0.0
 11
101.4500000000001023
 21
35.3000000000000469
 31
0.0
  0
LINE
  5
30C8
  8
0
 10
101.9500000000001023
 20
44.2500000000000284
 30
0.0
 11
101.4500000000001023
 21
44.2500000000000284
 31
0.0
  0
LINE
  5
30C9
  8
0
 10
101.4500000000001023
 20
35.7500000000000426
 30
0.0
 11
101.9500000000001023
 21
35.7500000000000426
 31
0.0
  0
CIRCLE
  5
30CA
  8
0
 10
107.4500000000001023
 20
39.9999999999999218
 30
0.0
 40
2.0000000000000142
  0
CIRCLE
  5
30CB
  8
0
 10
107.4500000000001023
 20
39.9999999999998934
 30
0.0
 40
1.758845726811983
  0
CIRCLE
  5
30CC
  8
0
 10
107.4500000000001023
 20
39.9999999999998934
 30
0.0
 40
1.0
  0
CIRCLE
  5
30CD
  8
0
 10
107.4500000000001023
 20
39.9999999999999218
 30
0.0
 40
4.7464466094067168
  0
CIRCLE
  5
30CE
  8
0
 10
107.4500000000001023
 20
39.9999999999999218
 30
0.0
 40
5.1000000000000076
  0
LINE
  5
30CF
  8
0
 10
112.4500000000001023
 20
37.1132486540518727
 30
0.0
 11
110.8044808454112058
 21
36.163207727193317
 31
0.0
  0
LINE
  5
30D0
  8
0
 10
112.4500000000001023
 20
39.0432681638209402
 30
0.0
 11
112.4500000000001023
 21
37.1132486540518727
 31
0.0
  0
LINE
  5
30D1
  8
0
 10
112.4500000000001023
 20
42.8867513459480918
 30
0.0
 11
112.4500000000001023
 21
40.9821346191053806
 31
0.0
  0
LINE
  5
30D2
  8
0
 10
110.7820215515778983
 20
43.8497591521471008
 30
0.0
 11
112.4500000000001023
 21
42.8867513459480918
 31
0.0
  0
LINE
  5
30D3
  8
0
 10
107.4500000000001023
 20
34.2264973081037027
 30
0.0
 11
105.8084763444874028
 21
35.1742314324950271
 31
0.0
  0
LINE
  5
30D4
  8
0
 10
109.1248271583877028
 20
35.1934592188449429
 30
0.0
 11
107.4500000000001023
 21
34.2264973081037027
 31
0.0
  0
LINE
  5
30D5
  8
0
 10
105.7855723045500014
 20
44.8125449138815171
 30
0.0
 11
107.4500000000001023
 21
45.7735026918962333
 31
0.0
  0
LINE
  5
30D6
  8
0
 10
107.4500000000001023
 20
45.7735026918962333
 30
0.0
 11
109.1033033729212036
 21
44.8189675444881175
 31
0.0
  0
LINE
  5
30D7
  8
0
 10
102.4500000000001023
 20
42.8867513459480918
 30
0.0
 11
104.1070875291031967
 21
43.8434712769465875
 31
0.0
  0
LINE
  5
30D8
  8
0
 10
102.4500000000001023
 20
40.9690287427313606
 30
0.0
 11
102.4500000000001023
 21
42.8867513459480918
 31
0.0
  0
LINE
  5
30D9
  8
0
 10
104.128119029178805
 20
36.1443861808232398
 30
0.0
 11
102.4500000000001023
 21
37.1132486540518727
 31
0.0
  0
LINE
  5
30DA
  8
0
 10
102.4500000000001023
 20
37.1132486540518727
 30
0.0
 11
102.4500000000001023
 21
39.0040270238880566
 31
0.0
  0
LINE
  5
30DB
  8
0
 10
112.9500000000001023
 20
45.5000000000000284
 30
0.0
 11
107.9237205583711017
 21
45.5000000000000284
 31
0.0
  0
LINE
  5
30DC
  8
0
 10
106.976279441628904
 20
45.5000000000000284
 30
0.0
 11
101.9500000000001023
 21
45.5000000000000426
 31
0.0
  0
LINE
  5
30DE
  8
0
 10
112.9500000000000028
 20
34.5000000000000782
 30
0.0
 11
112.9500000000000028
 21
45.5000000000000426
 31
0.0
  0
LINE
  5
30E0
  8
0
 10
101.9500000000001023
 20
34.5000000000000568
 30
0.0
 11
106.9762794416288045
 21
34.5000000000000568
 31
0.0
  0
LINE
  5
30E1
  8
0
 10
107.9237205583712012
 20
34.5000000000000568
 30
0.0
 11
112.9500000000001023
 21
34.5000000000000782
 31
0.0
  0
LINE
  5
30E3
  8
0
 10
101.9500000000001023
 20
45.5000000000000426
 30
0.0
 11
101.9500000000001023
 21
34.5000000000000497
 31
0.0
  0
LINE
  5
30E5
  8
0
 10
101.4500000000001023
 20
44.7000000000000526
 30
0.0
 11
101.4500000000001023
 21
35.3000000000000469
 31
0.0
  0
LINE
  5
3226
  8
0
 10
99.2330000000000041
 20
45.9999999999999218
 30
0.0
 11
94.0000000000000568
 21
45.9999999999999218
 31
0.0
  0
LINE
  5
3227
  8
0
 10
90.0000000000000568
 20
45.9999999999999503
 30
0.0
 11
82.0000000000000568
 21
45.9999999999999716
 31
0.0
  0
LINE
  5
3228
  8
0
 10
78.0000000000000284
 20
45.9999999999999716
 30
0.0
 11
76.0
 21
46.0
 31
0.0
  0
LINE
  5
3229
  8
0
 10
76.0
 20
34.0000000000000071
 30
0.0
 11
77.9999999999999716
 21
34.0000000000000071
 31
0.0
  0
LINE
  5
322A
  8
0
 10
82.0000000000000568
 20
33.9999999999999787
 30
0.0
 11
89.9999999999999432
 21
33.9999999999999503
 31
0.0
  0
LINE
  5
322B
  8
0
 10
93.9999999999999432
 20
33.9999999999999503
 30
0.0
 11
99.2330000000000041
 21
33.9999999999999218
 31
0.0
  0
LINE
  5
322C
  8
0
 10
99.2330000000000041
 20
33.9999999999999218
 30
0.0
 11
100.0
 21
34.7669999999998893
 31
0.0
  0
LINE
  5
322D
  8
0
 10
100.0
 20
45.2329999999998975
 30
0.0
 11
99.2330000000000041
 21
45.9999999999999218
 31
0.0
  0
ARC
  5
323C
  8
0
 10
120.8256213804888972
 20
44.9142367257814001
 30
0.0
 40
30.8260588982008485
 50
180.3052649636161107
 51
189.1731316758657897
  0
ARC
  5
323D
  8
0
 10
120.8180987461433062
 20
44.5863869289557115
 30
0.0
 40
30.818533053408931
 50
170.8257833960726941
 51
179.6958199644464003
  0
LINE
  5
323E
  8
0
 10
94.0000000000000568
 20
49.5000000000000071
 30
0.0
 11
90.0000000000000568
 21
49.4999999999999787
 31
0.0
  0
ARC
  5
323F
  8
0
 10
63.1743786195057382
 20
44.585763274218472
 30
0.0
 40
30.8260588982062416
 50
0.3052649636161355
 51
9.1731316758625727
  0
ARC
  5
3240
  8
0
 10
63.1819012538541926
 20
44.9136130710441321
 30
0.0
 40
30.8185330534113895
 50
350.8257833960743142
 51
359.6958199644465139
  0
LINE
  5
3241
  8
0
 10
93.6062070988899109
 20
39.9999999999999503
 30
0.0
 11
90.3937929011100891
 21
39.9999999999999503
 31
0.0
  0
ARC
  5
3242
  8
0
 10
120.818098746137494
 20
35.0863869289563866
 30
0.0
 40
30.8185330534031401
 50
170.8257833960726941
 51
179.6958199644464003
  0
LINE
  5
3243
  8
0
 10
90.0000000000000568
 20
49.4999999999999787
 30
0.0
 11
90.0000000000000568
 21
30.5000000000000107
 31
0.0
  0
ARC
  5
3244
  8
0
 10
63.1743786195045516
 20
35.085763274217932
 30
0.0
 40
30.8260588982074388
 50
0.3052649636161355
 51
9.1731316758642212
  0
LINE
  5
3245
  8
0
 10
93.9999999999999432
 20
49.5000000000000071
 30
0.0
 11
94.0000000000000568
 21
30.5000000000000107
 31
0.0
  0
ARC
  5
3246
  8
0
 10
120.825621380486794
 20
35.4142367257809383
 30
0.0
 40
30.8260588981987489
 50
180.3052649636161107
 51
189.1731316758657897
  0
ARC
  5
3247
  8
0
 10
63.1819012538590528
 20
35.413613071044189
 30
0.0
 40
30.8185330534065507
 50
350.8257833960727226
 51
359.6958199644465139
  0
LINE
  5
3248
  8
0
 10
94.0000000000000568
 20
30.5000000000000107
 30
0.0
 11
90.0000000000000568
 21
30.5000000000000107
 31
0.0
  0
ARC
  5
3249
  8
0
 10
108.825621380482005
 20
44.9142367257808033
 30
0.0
 40
30.8260588981939314
 50
180.3052649636161107
 51
189.1731316758657897
  0
ARC
  5
324A
  8
0
 10
108.818098746135604
 20
44.5863869289564789
 30
0.0
 40
30.818533053401179
 50
170.8257833960726941
 51
179.6958199644464003
  0
LINE
  5
324B
  8
0
 10
82.0000000000000568
 20
49.4999999999999503
 30
0.0
 11
78.0000000000000284
 21
49.4999999999999503
 31
0.0
  0
ARC
  5
324C
  8
0
 10
51.1743786195106622
 20
44.5857632742183796
 30
0.0
 40
30.8260588982013708
 50
0.3052649636161355
 51
9.1731316758642212
  0
ARC
  5
324D
  8
0
 10
51.181901253860751
 20
44.9136130710440113
 30
0.0
 40
30.8185330534048596
 50
350.8257833960727226
 51
359.6958199644465139
  0
LINE
  5
324E
  8
0
 10
81.6062070988899109
 20
39.9999999999999787
 30
0.0
 11
78.3937929011101033
 21
39.9999999999999787
 31
0.0
  0
LINE
  5
324F
  8
0
 10
82.0000000000000568
 20
49.4999999999999503
 30
0.0
 11
81.9999999999999289
 21
30.4999999999999005
 31
0.0
  0
ARC
  5
3250
  8
0
 10
51.1743786195129431
 20
35.0857632742187633
 30
0.0
 40
30.8260588981990296
 50
0.3052649636161355
 51
9.1731316758642212
  0
ARC
  5
3251
  8
0
 10
108.8180987461433062
 20
35.0863869289555694
 30
0.0
 40
30.8185330534089914
 50
170.8257833960726941
 51
179.6958199644448086
  0
LINE
  5
3252
  8
0
 10
78.0000000000000853
 20
49.4999999999999503
 30
0.0
 11
77.9999999999999147
 21
30.4999999999999503
 31
0.0
  0
ARC
  5
3253
  8
0
 10
108.8256213804928052
 20
35.414236725781862
 30
0.0
 40
30.8260588982047601
 50
180.3052649636177023
 51
189.1731316758657897
  0
ARC
  5
3254
  8
0
 10
51.1819012538594222
 20
35.4136130710437911
 30
0.0
 40
30.8185330534061492
 50
350.8257833960743142
 51
359.6958199644465139
  0
LINE
  5
3255
  8
0
 10
81.9999999999999289
 20
30.4999999999999005
 30
0.0
 11
77.9999999999999147
 21
30.4999999999999503
 31
0.0
  0
LINE
  5
3256
  8
0
 10
99.2330000000000041
 20
45.9999999999999218
 30
0.0
 11
99.2330000000000041
 21
33.9999999999999218
 31
0.0
  0
LINE
  5
3257
  8
0
 10
76.0
 20
34.0000000000000071
 30
0.0
 11
76.0
 21
35.0000000000000284
 31
0.0
  0
LINE
  5
3258
  8
0
 10
76.0
 20
35.0000000000000284
 30
0.0
 11
70.0000000000000284
 21
35.0000000000000284
 31
0.0
  0
LINE
  5
3259
  8
0
 10
70.7670000000000243
 20
45.0
 30
0.0
 11
70.7669999999999675
 21
35.0000000000000284
 31
0.0
  0
LINE
  5
325A
  8
0
 10
70.0000000000000568
 20
45.0
 30
0.0
 11
76.0
 21
45.0
 31
0.0
  0
LINE
  5
325B
  8
0
 10
76.0
 20
45.0
 30
0.0
 11
76.0
 21
46.0
 31
0.0
  0
LINE
  5
325C
  8
0
 10
100.0
 20
45.2329999999998975
 30
0.0
 11
100.0
 21
34.7669999999998893
 31
0.0
  0
LINE
  5
325D
  8
0
 10
70.0000000000000284
 20
45.0
 30
0.0
 11
70.0
 21
35.0000000000000284
 31
0.0
  0
LINE
  5
3271
  8
1
 10
67.0000000000000142
 20
40.0
 30
0.0
 11
115.9500000000000028
 21
40.0000000000000284
 31
0.0
  0
LINE
  5
3272
  8
3
 10
76.0
 20
45.0530000000000328
 30
0.0
 11
77.9999999999999716
 21
45.0530000000000328
 31
0.0
  0
LINE
  5
3273
  8
3
 10
81.9999999999999289
 20
45.0529999999999973
 30
0.0
 11
90.0000000000000568
 21
45.0529999999999973
 31
0.0
  0
LINE
  5
3274
  8
3
 10
93.9999999999999432
 20
45.0529999999999688
 30
0.0
 11
100.0
 21
45.0529999999999404
 31
0.0
  0
LINE
  5
3275
  8
3
 10
76.0
 20
34.946999999999953
 30
0.0
 11
78.0
 21
34.946999999999953
 31
0.0
  0
LINE
  5
3276
  8
3
 10
81.9999999999999289
 20
34.946999999999953
 30
0.0
 11
89.9999999999999432
 21
34.946999999999953
 31
0.0
  0
LINE
  5
3277
  8
3
 10
94.0000000000000568
 20
34.9469999999999317
 30
0.0
 11
100.0
 21
34.9469999999999317
 31
0.0
  0
LINE
  5
32BD
  8
0
 10
102.3499999999999943
 20
65.3999999999999204
 30
0.0
 11
102.3499999999998948
 21
61.2535533905931402
 31
0.0
  0
LINE
  5
32BE
  8
0
 10
112.5499999999998977
 20
61.2535533905930833
 30
0.0
 11
112.5499999999998977
 21
65.399999999999892
 31
0.0
  0
LINE
  5
32BF
  8
0
 10
102.3499999999999943
 20
61.2535533905931402
 30
0.0
 11
102.7035533905932994
 21
60.8999999999998565
 31
0.0
  0
LINE
  5
32C0
  8
0
 10
112.1964466094067063
 20
60.899999999999828
 30
0.0
 11
112.5499999999999972
 21
61.2535533905930833
 31
0.0
  0
LINE
  5
32C1
  8
0
 10
102.4500000000000028
 20
68.9999999999999147
 30
0.0
 11
102.4500000000000028
 21
65.3999999999999204
 31
0.0
  0
LINE
  5
32C2
  8
0
 10
112.4500000000000028
 20
65.399999999999892
 30
0.0
 11
112.4500000000000028
 21
68.9999999999998863
 31
0.0
  0
LINE
  5
32C3
  8
0
 10
112.4500000000000028
 20
68.9999999999998863
 30
0.0
 11
111.9500000000000028
 21
69.4999999999998863
 31
0.0
  0
LINE
  5
32C4
  8
0
 10
102.9500000000000028
 20
69.4999999999999147
 30
0.0
 11
102.4500000000000028
 21
68.9999999999999147
 31
0.0
  0
LINE
  5
32C5
  8
0
 10
101.4500000000000028
 20
84.6999999999998892
 30
0.0
 11
100.0
 21
84.6999999999998892
 31
0.0
  0
LINE
  5
32C6
  8
0
 10
100.0
 20
75.2999999999998977
 30
0.0
 11
101.4500000000000028
 21
75.2999999999998977
 31
0.0
  0
LINE
  5
32C7
  8
0
 10
102.9500000000000028
 20
74.4999999999999147
 30
0.0
 11
102.9500000000000028
 21
73.4999999999999147
 31
0.0
  0
LINE
  5
32C8
  8
0
 10
111.9500000000000028
 20
73.4999999999998863
 30
0.0
 11
111.9500000000000028
 21
74.4999999999998437
 31
0.0
  0
LINE
  5
32C9
  8
0
 10
101.9500000000000028
 20
84.2499999999998863
 30
0.0
 11
101.4500000000000028
 21
84.2499999999998863
 31
0.0
  0
LINE
  5
32CA
  8
0
 10
101.4500000000000028
 20
75.7499999999999147
 30
0.0
 11
101.9500000000000028
 21
75.7499999999999147
 31
0.0
  0
LINE
  5
32CB
  8
0
 10
103.4500000000000028
 20
73.4999999999999147
 30
0.0
 11
103.4500000000000028
 21
72.9999999999999147
 31
0.0
  0
LINE
  5
32CC
  8
0
 10
111.4500000000000028
 20
72.9999999999998863
 30
0.0
 11
111.4500000000000028
 21
73.4999999999998863
 31
0.0
  0
LINE
  5
32CD
  8
0
 10
105.4500000000000028
 20
60.900000000000027
 30
0.0
 11
105.6911542731880047
 21
60.0
 31
0.0
  0
LINE
  5
32CE
  8
0
 10
109.208845726812001
 20
60.0
 30
0.0
 11
109.4500000000000028
 21
60.900000000000027
 31
0.0
  0
LINE
  5
32CF
  8
0
 10
107.4500000000000028
 20
69.7072594216367634
 30
0.0
 11
107.4500000000000028
 21
72.7927405783629524
 31
0.0
  0
POLYLINE
  5
32D0
  8
0
 66
     1
 10
0.0
 20
0.0
 30
0.0
 70
   128
  0
VERTEX
  5
3405
  8
0
 10
104.9500000000000028
 20
69.4999999999998863
 30
0.0
  0
VERTEX
  5
3406
  8
0
 10
106.2000000000000028
 20
69.5547058465149632
 30
0.0
  0
VERTEX
  5
3407
  8
0
 10
107.4500000000000028
 20
69.7072594216367634
 30
0.0
  0
SEQEND
  5
3408
  8
0
  0
POLYLINE
  5
32D1
  8
0
 66
     1
 10
0.0
 20
0.0
 30
0.0
 70
   128
  0
VERTEX
  5
3409
  8
0
 10
102.4500000000000028
 20
69.7072594216367918
 30
0.0
  0
VERTEX
  5
340A
  8
0
 10
103.6943796634090944
 20
69.5551891417054833
 30
0.0
  0
VERTEX
  5
340B
  8
0
 10
104.9500000000000028
 20
69.4999999999998863
 30
0.0
  0
SEQEND
  5
340C
  8
0
  0
LINE
  5
32D2
  8
0
 10
102.4500000000000028
 20
69.4999999999999005
 30
0.0
 11
102.4500000000000028
 21
72.9999999999998579
 31
0.0
  0
POLYLINE
  5
32D3
  8
0
 66
     1
 10
0.0
 20
0.0
 30
0.0
 70
   128
  0
VERTEX
  5
340D
  8
0
 10
104.9500000000000028
 20
72.9999999999998579
 30
0.0
  0
VERTEX
  5
340E
  8
0
 10
103.7000000000000028
 20
72.945294153484781
 30
0.0
  0
VERTEX
  5
340F
  8
0
 10
102.4500000000000028
 20
72.7927405783629808
 30
0.0
  0
SEQEND
  5
3410
  8
0
  0
POLYLINE
  5
32D4
  8
0
 66
     1
 10
0.0
 20
0.0
 30
0.0
 70
   128
  0
VERTEX
  5
3411
  8
0
 10
107.4500000000000028
 20
72.7927405783629524
 30
0.0
  0
VERTEX
  5
3412
  8
0
 10
106.2056203365907976
 20
72.9448108582942609
 30
0.0
  0
VERTEX
  5
3413
  8
0
 10
104.9500000000000028
 20
72.9999999999998579
 30
0.0
  0
SEQEND
  5
3414
  8
0
  0
LINE
  5
32D5
  8
0
 10
112.4500000000001023
 20
69.4999999999998437
 30
0.0
 11
112.4500000000001023
 21
72.9999999999998579
 31
0.0
  0
POLYLINE
  5
32D6
  8
0
 66
     1
 10
0.0
 20
0.0
 30
0.0
 70
   128
  0
VERTEX
  5
3415
  8
0
 10
109.9500000000000028
 20
69.4999999999998437
 30
0.0
  0
VERTEX
  5
3416
  8
0
 10
111.2000000000000028
 20
69.5547058465149348
 30
0.0
  0
VERTEX
  5
3417
  8
0
 10
112.4500000000000028
 20
69.7072594216367634
 30
0.0
  0
SEQEND
  5
3418
  8
0
  0
POLYLINE
  5
32D7
  8
0
 66
     1
 10
0.0
 20
0.0
 30
0.0
 70
   128
  0
VERTEX
  5
3419
  8
0
 10
107.4500000000000028
 20
69.7072594216367634
 30
0.0
  0
VERTEX
  5
341A
  8
0
 10
108.6943796634090944
 20
69.5551891417054549
 30
0.0
  0
VERTEX
  5
341B
  8
0
 10
109.9500000000000028
 20
69.4999999999998437
 30
0.0
  0
SEQEND
  5
341C
  8
0
  0
POLYLINE
  5
32D8
  8
0
 66
     1
 10
0.0
 20
0.0
 30
0.0
 70
   128
  0
VERTEX
  5
341D
  8
0
 10
109.9500000000000028
 20
72.9999999999998579
 30
0.0
  0
VERTEX
  5
341E
  8
0
 10
108.7000000000000028
 20
72.9452941534847525
 30
0.0
  0
VERTEX
  5
341F
  8
0
 10
107.4500000000000028
 20
72.7927405783629524
 30
0.0
  0
SEQEND
  5
3420
  8
0
  0
POLYLINE
  5
32D9
  8
0
 66
     1
 10
0.0
 20
0.0
 30
0.0
 70
   128
  0
VERTEX
  5
3421
  8
0
 10
112.4500000000000028
 20
72.7927405783629524
 30
0.0
  0
VERTEX
  5
3422
  8
0
 10
111.2056203365907976
 20
72.9448108582942609
 30
0.0
  0
VERTEX
  5
3423
  8
0
 10
109.9500000000000028
 20
72.9999999999998579
 30
0.0
  0
SEQEND
  5
3424
  8
0
  0
LINE
  5
32DA
  8
0
 10
102.4500000000000028
 20
72.9999999999998579
 30
0.0
 11
112.4500000000001023
 21
72.9999999999998579
 31
0.0
  0
LINE
  5
32DB
  8
0
 10
102.4500000000000028
 20
69.4999999999999005
 30
0.0
 11
112.4500000000000028
 21
69.4999999999998437
 31
0.0
  0
LINE
  5
32DD
  8
0
 10
101.9500000000000028
 20
74.4999999999998437
 30
0.0
 11
101.9500000000000028
 21
85.4999999999998579
 31
0.0
  0
LINE
  5
32E1
  8
0
 10
112.9500000000000028
 20
85.4999999999998153
 30
0.0
 11
101.9500000000000028
 21
85.4999999999998579
 31
0.0
  0
LINE
  5
32E2
  8
0
 10
112.9500000000000028
 20
74.4999999999998295
 30
0.0
 11
101.9500000000000028
 21
74.4999999999998437
 31
0.0
  0
LINE
  5
32E3
  8
0
 10
112.9500000000000028
 20
74.4999999999998295
 30
0.0
 11
112.9500000000000028
 21
85.4999999999998153
 31
0.0
  0
LINE
  5
32E6
  8
0
 10
102.3499999999999943
 20
65.3999999999999204
 30
0.0
 11
112.5499999999999972
 21
65.399999999999892
 31
0.0
  0
LINE
  5
32E7
  8
0
 10
102.3499999999999943
 20
61.2535533905931402
 30
0.0
 11
112.5499999999999972
 21
61.2535533905930833
 31
0.0
  0
LINE
  5
32E8
  8
0
 10
102.7035533905932994
 20
60.900000000000027
 30
0.0
 11
112.1964466094067063
 21
60.8999999999999986
 31
0.0
  0
LINE
  5
32E9
  8
0
 10
102.4500000000000028
 20
68.9999999999999147
 30
0.0
 11
112.4500000000000028
 21
68.9999999999998863
 31
0.0
  0
LINE
  5
32EA
  8
0
 10
101.4500000000000028
 20
84.6999999999998892
 30
0.0
 11
101.4500000000000028
 21
75.2999999999998977
 31
0.0
  0
LINE
  5
32EB
  8
0
 10
102.9500000000000028
 20
73.4999999999999147
 30
0.0
 11
111.9500000000000028
 21
73.4999999999998863
 31
0.0
  0
LINE
  5
32F4
  8
0
 10
105.6911542731880047
 20
60.0
 30
0.0
 11
109.208845726812001
 21
60.0
 31
0.0
  0
LINE
  5
32F5
  8
1
 10
107.4500000000001023
 20
31.2264973081037311
 30
0.0
 11
107.4500000000001023
 21
48.7735026918961907
 31
0.0
  0
LINE
  5
32F6
  8
1
 10
107.4500000000000028
 20
88.4999999999998295
 30
0.0
 11
107.4500000000000028
 21
57.0
 31
0.0
  0
LINE
  5
32F7
  8
0
 10
40.8134665205268092
 20
69.5
 30
0.0
 11
44.9999999999998792
 21
69.4999999999998863
 31
0.0
  0
LINE
  5
3342
  8
0
 10
137.850000000000108
 20
65.3999999999997499
 30
0.0
 11
137.8500000000001933
 21
61.2535533905929697
 31
0.0
  0
LINE
  5
3343
  8
0
 10
148.0500000000002103
 20
61.2535533905930407
 30
0.0
 11
148.0500000000002103
 21
65.3999999999998636
 31
0.0
  0
LINE
  5
3344
  8
0
 10
137.8500000000001933
 20
61.2535533905929697
 30
0.0
 11
138.203553390593413
 21
60.8999999999997002
 31
0.0
  0
LINE
  5
3345
  8
0
 10
147.6964466094069053
 20
60.8999999999997499
 30
0.0
 11
148.0500000000002103
 21
61.2535533905930407
 31
0.0
  0
LINE
  5
3346
  8
0
 10
147.9500000000001023
 20
68.9999999999998863
 30
0.0
 11
147.4500000000001023
 21
69.4999999999998295
 31
0.0
  0
LINE
  5
3347
  8
0
 10
138.4500000000001023
 20
69.4999999999997726
 30
0.0
 11
137.9500000000001023
 21
68.9999999999997726
 31
0.0
  0
LINE
  5
3348
  8
0
 10
137.9500000000001023
 20
68.9999999999997726
 30
0.0
 11
137.9500000000001023
 21
65.3999999999997499
 31
0.0
  0
LINE
  5
3349
  8
0
 10
147.9500000000001023
 20
65.3999999999998636
 30
0.0
 11
147.9500000000001023
 21
68.9999999999998863
 31
0.0
  0
LINE
  5
334A
  8
0
 10
138.4500000000001023
 20
74.4999999999997726
 30
0.0
 11
138.4500000000001023
 21
73.4999999999997726
 31
0.0
  0
LINE
  5
334B
  8
0
 10
147.4500000000001023
 20
73.4999999999998295
 30
0.0
 11
147.4500000000001023
 21
74.4999999999998295
 31
0.0
  0
LINE
  5
334C
  8
0
 10
138.9500000000001023
 20
73.4999999999997726
 30
0.0
 11
138.9500000000001023
 21
72.9999999999997726
 31
0.0
  0
LINE
  5
334D
  8
0
 10
146.9500000000001023
 20
72.9999999999998153
 30
0.0
 11
146.9500000000001023
 21
73.4999999999998295
 31
0.0
  0
LINE
  5
334E
  8
0
 10
137.9500000000001023
 20
72.9999999999997726
 30
0.0
 11
137.1764973081037908
 21
72.7927405783628956
 31
0.0
  0
LINE
  5
334F
  8
0
 10
137.1764973081039045
 20
69.7072594216366497
 30
0.0
 11
137.9500000000001023
 21
69.4999999999997726
 31
0.0
  0
LINE
  5
3350
  8
0
 10
148.7235026918964138
 20
72.7927405783628956
 30
0.0
 11
147.9500000000001023
 21
72.9999999999998153
 31
0.0
  0
LINE
  5
3351
  8
0
 10
147.9500000000001023
 20
69.4999999999998295
 30
0.0
 11
148.7235026918964138
 21
69.7072594216367634
 31
0.0
  0
LINE
  5
3352
  8
0
 10
140.9500000000001876
 20
60.8999999999998707
 30
0.0
 11
141.1911542731882037
 21
59.9999999999998934
 31
0.0
  0
LINE
  5
3353
  8
0
 10
144.7088457268120862
 20
59.9999999999998934
 30
0.0
 11
144.9500000000001023
 21
60.8999999999999204
 31
0.0
  0
LINE
  5
3354
  8
0
 10
137.4499999999999886
 20
85.4999999999998153
 30
0.0
 11
148.4499999999999034
 21
85.4999999999998153
 31
0.0
  0
LINE
  5
3355
  8
0
 10
137.4499999999999034
 20
74.4999999999998437
 30
0.0
 11
137.4499999999999034
 21
85.4999999999998153
 31
0.0
  0
LINE
  5
3356
  8
0
 10
148.4499999999999886
 20
74.4999999999998437
 30
0.0
 11
148.4499999999999034
 21
85.4999999999998153
 31
0.0
  0
LINE
  5
3357
  8
0
 10
137.4499999999999886
 20
74.4999999999998437
 30
0.0
 11
148.4499999999999886
 21
74.4999999999998437
 31
0.0
  0
LINE
  5
3358
  8
0
 10
137.850000000000108
 20
65.3999999999997499
 30
0.0
 11
148.0500000000002103
 21
65.3999999999998636
 31
0.0
  0
LINE
  5
3359
  8
0
 10
137.8500000000001933
 20
61.2535533905929697
 30
0.0
 11
148.0500000000002103
 21
61.2535533905930407
 31
0.0
  0
LINE
  5
335A
  8
0
 10
138.203553390593413
 20
60.8999999999998707
 30
0.0
 11
147.6964466094069053
 21
60.8999999999999204
 31
0.0
  0
LINE
  5
335B
  8
0
 10
140.0632486540519892
 20
69.7072594216366497
 30
0.0
 11
140.0632486540519039
 21
72.7927405783628956
 31
0.0
  0
POLYLINE
  5
335C
  8
0
 66
     1
 10
0.0
 20
0.0
 30
0.0
 70
   128
  0
VERTEX
  5
3425
  8
0
 10
138.61987298107789
 20
69.4999999999997726
 30
0.0
  0
VERTEX
  5
3426
  8
0
 10
139.341560817564897
 20
69.5547058465148211
 30
0.0
  0
VERTEX
  5
3427
  8
0
 10
140.0632486540519892
 20
69.7072594216366497
 30
0.0
  0
SEQEND
  5
3428
  8
0
  0
POLYLINE
  5
335D
  8
0
 66
     1
 10
0.0
 20
0.0
 30
0.0
 70
   128
  0
VERTEX
  5
3429
  8
0
 10
137.1764973081039045
 20
69.7072594216366497
 30
0.0
  0
VERTEX
  5
342A
  8
0
 10
137.8949402417472072
 20
69.5551891417053412
 30
0.0
  0
VERTEX
  5
342B
  8
0
 10
138.61987298107789
 20
69.4999999999997726
 30
0.0
  0
SEQEND
  5
342C
  8
0
  0
LINE
  5
335E
  8
0
 10
137.1764973081039045
 20
69.7072594216366497
 30
0.0
 11
137.1764973081037908
 21
72.7927405783628956
 31
0.0
  0
POLYLINE
  5
335F
  8
0
 66
     1
 10
0.0
 20
0.0
 30
0.0
 70
   128
  0
VERTEX
  5
342D
  8
0
 10
138.61987298107789
 20
72.9999999999997726
 30
0.0
  0
VERTEX
  5
342E
  8
0
 10
137.8981851445907978
 20
72.9452941534846673
 30
0.0
  0
VERTEX
  5
342F
  8
0
 10
137.1764973081037908
 20
72.7927405783628956
 30
0.0
  0
SEQEND
  5
3430
  8
0
  0
POLYLINE
  5
3360
  8
0
 66
     1
 10
0.0
 20
0.0
 30
0.0
 70
   128
  0
VERTEX
  5
3431
  8
0
 10
140.0632486540519039
 20
72.7927405783628956
 30
0.0
  0
VERTEX
  5
3432
  8
0
 10
139.3448057204086012
 20
72.944810858294133
 30
0.0
  0
VERTEX
  5
3433
  8
0
 10
138.61987298107789
 20
72.9999999999997726
 30
0.0
  0
SEQEND
  5
3434
  8
0
  0
LINE
  5
3361
  8
0
 10
137.9499999999999886
 20
72.9999999999997726
 30
0.0
 11
147.9500000000003013
 21
72.9999999999997726
 31
0.0
  0
POLYLINE
  5
3362
  8
0
 66
     1
 10
0.0
 20
0.0
 30
0.0
 70
   128
  0
VERTEX
  5
3435
  8
0
 10
142.9500000000001023
 20
72.9999999999997726
 30
0.0
  0
VERTEX
  5
3436
  8
0
 10
141.4665966021916006
 20
72.9422814710377452
 30
0.0
  0
VERTEX
  5
3437
  8
0
 10
140.0632486540519039
 20
72.7927405783628956
 30
0.0
  0
SEQEND
  5
3438
  8
0
  0
LINE
  5
3363
  8
0
 10
145.836751345948187
 20
69.7072594216367065
 30
0.0
 11
145.836751345948187
 21
72.7927405783628956
 31
0.0
  0
POLYLINE
  5
3364
  8
0
 66
     1
 10
0.0
 20
0.0
 30
0.0
 70
   128
  0
VERTEX
  5
3439
  8
0
 10
142.9500000000001023
 20
69.4999999999997726
 30
0.0
  0
VERTEX
  5
343A
  8
0
 10
144.433403397808604
 20
69.5577185289618001
 30
0.0
  0
VERTEX
  5
343B
  8
0
 10
145.836751345948187
 20
69.7072594216367065
 30
0.0
  0
SEQEND
  5
343C
  8
0
  0
POLYLINE
  5
3365
  8
0
 66
     1
 10
0.0
 20
0.0
 30
0.0
 70
   128
  0
VERTEX
  5
343D
  8
0
 10
140.0632486540519892
 20
69.7072594216366497
 30
0.0
  0
VERTEX
  5
343E
  8
0
 10
141.5001345213385946
 20
69.5551891417053412
 30
0.0
  0
VERTEX
  5
343F
  8
0
 10
142.9500000000001023
 20
69.4999999999997726
 30
0.0
  0
SEQEND
  5
3440
  8
0
  0
POLYLINE
  5
3366
  8
0
 66
     1
 10
0.0
 20
0.0
 30
0.0
 70
   128
  0
VERTEX
  5
3441
  8
0
 10
145.836751345948187
 20
72.7927405783628956
 30
0.0
  0
VERTEX
  5
3442
  8
0
 10
144.3998654786614964
 20
72.944810858294133
 30
0.0
  0
VERTEX
  5
3443
  8
0
 10
142.9500000000001023
 20
72.9999999999997726
 30
0.0
  0
SEQEND
  5
3444
  8
0
  0
POLYLINE
  5
3367
  8
0
 66
     1
 10
0.0
 20
0.0
 30
0.0
 70
   128
  0
VERTEX
  5
3445
  8
0
 10
147.2801270189222862
 20
72.9999999999998153
 30
0.0
  0
VERTEX
  5
3446
  8
0
 10
146.5584391824353077
 20
72.9452941534847241
 30
0.0
  0
VERTEX
  5
3447
  8
0
 10
145.836751345948187
 20
72.7927405783628956
 30
0.0
  0
SEQEND
  5
3448
  8
0
  0
LINE
  5
3368
  8
0
 10
148.7235026918964138
 20
69.7072594216367634
 30
0.0
 11
148.7235026918964138
 21
72.7927405783629524
 31
0.0
  0
POLYLINE
  5
3369
  8
0
 66
     1
 10
0.0
 20
0.0
 30
0.0
 70
   128
  0
VERTEX
  5
3449
  8
0
 10
147.2801270189222862
 20
69.4999999999998863
 30
0.0
  0
VERTEX
  5
344A
  8
0
 10
148.0018148554092932
 20
69.5547058465149348
 30
0.0
  0
VERTEX
  5
344B
  8
0
 10
148.7235026918964138
 20
69.7072594216367634
 30
0.0
  0
SEQEND
  5
344C
  8
0
  0
POLYLINE
  5
336A
  8
0
 66
     1
 10
0.0
 20
0.0
 30
0.0
 70
   128
  0
VERTEX
  5
344D
  8
0
 10
145.836751345948187
 20
69.7072594216367065
 30
0.0
  0
VERTEX
  5
344E
  8
0
 10
146.5551942795916034
 20
69.5551891417053838
 30
0.0
  0
VERTEX
  5
344F
  8
0
 10
147.2801270189222862
 20
69.4999999999998863
 30
0.0
  0
SEQEND
  5
3450
  8
0
  0
POLYLINE
  5
336B
  8
0
 66
     1
 10
0.0
 20
0.0
 30
0.0
 70
   128
  0
VERTEX
  5
3451
  8
0
 10
148.7235026918964138
 20
72.7927405783629524
 30
0.0
  0
VERTEX
  5
3452
  8
0
 10
148.0050597582529122
 20
72.9448108582942041
 30
0.0
  0
VERTEX
  5
3453
  8
0
 10
147.2801270189222862
 20
72.9999999999998153
 30
0.0
  0
SEQEND
  5
3454
  8
0
  0
LINE
  5
336C
  8
0
 10
137.9500000000001023
 20
69.4999999999997726
 30
0.0
 11
147.9499999999997897
 21
69.4999999999997726
 31
0.0
  0
LINE
  5
336D
  8
0
 10
137.9500000000001023
 20
68.9999999999997726
 30
0.0
 11
147.9500000000001023
 21
68.9999999999998863
 31
0.0
  0
LINE
  5
336E
  8
0
 10
138.4500000000001023
 20
73.4999999999997726
 30
0.0
 11
147.4500000000001023
 21
73.4999999999998295
 31
0.0
  0
LINE
  5
336F
  8
0
 10
141.1911542731882037
 20
59.9999999999998934
 30
0.0
 11
144.7088457268120862
 21
59.9999999999998934
 31
0.0
  0
LINE
  5
3370
  8
0
 10
152.4499999999999886
 20
85.4848275573013723
 30
0.0
 11
152.4500000000001023
 21
74.5151724426984572
 31
0.0
  0
LINE
  5
3371
  8
0
 10
133.4499999999999886
 20
85.484827557301287
 30
0.0
 11
133.4499999999999886
 21
74.5151724426983719
 31
0.0
  0
ARC
  5
3372
  8
0
 10
142.9499999999999886
 20
79.9999999999998295
 30
0.0
 40
9.5
 50
307.4260616412379932
 51
232.5739383587657017
  0
LINE
  5
3373
  8
0
 10
133.4499999999999886
 20
85.484827557301287
 30
0.0
 11
142.9499999999999886
 21
90.9696551146027446
 31
0.0
  0
LINE
  5
3374
  8
0
 10
152.4500000000001023
 20
74.5151724426984572
 30
0.0
 11
148.7235026918963001
 21
72.3636782187303425
 31
0.0
  0
LINE
  5
3375
  8
0
 10
133.4499999999999886
 20
74.5151724426983719
 30
0.0
 11
137.1764973081039045
 21
72.3636782187302572
 31
0.0
  0
LINE
  5
3376
  8
0
 10
152.4499999999999886
 20
85.4848275573013723
 30
0.0
 11
142.9499999999999886
 21
90.9696551146027446
 31
0.0
  0
ARC
  5
3377
  8
0
 10
142.9499999999999886
 20
79.9999999999998295
 30
0.0
 40
6.0
 50
156.4435356909004042
 51
203.5564643090991126
  0
ARC
  5
3378
  8
0
 10
142.9499999999999886
 20
79.9999999999998295
 30
0.0
 40
6.0
 50
336.4435356908963968
 51
23.5564643091035713
  0
ARC
  5
3379
  8
0
 10
142.9499999999999886
 20
79.9999999999998295
 30
0.0
 40
6.0
 50
66.4435356908988268
 51
113.5564643091012016
  0
LINE
  5
337A
  8
1
 10
142.9499999999999886
 20
92.499999999999801
 30
0.0
 11
142.9499999999999886
 21
56.9999999999998792
 31
0.0
  0
LINE
  5
337B
  8
1
 10
156.9196551146029037
 20
79.9999999999998295
 30
0.0
 11
128.9803448853971872
 21
79.9999999999998295
 31
0.0
  0
VIEWPORT
  5
22
 67
     1
  8
0
 10
261.517699115044195
 20
148.5
 30
0.0
 40
523.0353982300885036
 41
297.0
 68
     1
 69
     1
1001
ACAD
1000
MVIEW
1002
{
1070
    16
1010
0.0
1020
0.0
1030
0.0
1010
0.0
1020
0.0
1030
1.0
1040
0.0
1040
297.0
1040
261.517699115044195
1040
148.5
1040
50.0
1040
0.0
1040
0.0
1070
     0
1070
   100
1070
     1
1070
     1
1070
     0
1070
     0
1070
     0
1070
     0
1040
0.0
1040
0.0
1040
0.0
1040
1.0
1040
1.0
1040
10.0
1040
10.0
1070
     0
1002
{
1002
}
1002
}
  0
ENDSEC
  0
EOF
