  0
SECTION
  2
HEADER
  9
$ACADVER
  1
AC1009
  9
$INSBASE
 10
0.0
 20
0.0
 30
0.0
  9
$EXTMIN
 10
0.0
 20
-2.960436562073669
 30
0.0
  9
$EXTMAX
 10
199.0999999999991132
 20
113.0000000000002984
 30
0.0
  9
$LIMMIN
 10
0.0
 20
0.0
  9
$LIMMAX
 10
400.0
 20
277.0
  9
$ORTHOMODE
 70
     1
  9
$REGENMODE
 70
     1
  9
$FILLMODE
 70
     1
  9
$QTEXTMODE
 70
     0
  9
$MIRRTEXT
 70
     1
  9
$DRAGMODE
 70
     2
  9
$LTSCALE
 40
5.0
  9
$OSMODE
 70
    37
  9
$ATTMODE
 70
     1
  9
$TEXTSIZE
 40
2.5
  9
$TRACEWID
 40
1.0
  9
$TEXTSTYLE
  7
STANDARD
  9
$CLAYER
  8
0
  9
$CELTYPE
  6
BYLAYER
  9
$CECOLOR
 62
   256
  9
$DIMSCALE
 40
1.0
  9
$DIMASZ
 40
3.0
  9
$DIMEXO
 40
1.0
  9
$DIMDLI
 40
6.0
  9
$DIMRND
 40
0.0
  9
$DIMDLE
 40
0.0
  9
$DIMEXE
 40
1.0
  9
$DIMTP
 40
495.0
  9
$DIMTM
 40
0.0
  9
$DIMTXT
 40
3.0
  9
$DIMCEN
 40
0.0
  9
$DIMTSZ
 40
0.0
  9
$DIMTOL
 70
     0
  9
$DIMLIM
 70
     0
  9
$DIMTIH
 70
     0
  9
$DIMTOH
 70
     0
  9
$DIMSE1
 70
     0
  9
$DIMSE2
 70
     0
  9
$DIMTAD
 70
     3
  9
$DIMZIN
 70
     8
  9
$DIMBLK
  1

  9
$DIMASO
 70
     0
  9
$DIMSHO
 70
     1
  9
$DIMPOST
  1

  9
$DIMAPOST
  1

  9
$DIMALT
 70
     0
  9
$DIMALTD
 70
     2
  9
$DIMALTF
 40
25.3999999999999986
  9
$DIMLFAC
 40
1.0
  9
$DIMTOFL
 70
     1
  9
$DIMTVP
 40
0.0
  9
$DIMTIX
 70
     1
  9
$DIMSOXD
 70
     0
  9
$DIMSAH
 70
     1
  9
$DIMBLK1
  1
ARROW1
  9
$DIMBLK2
  1
ARROW1
  9
$DIMSTYLE
  2
ITM
  9
$DIMCLRD
 70
     4
  9
$DIMCLRE
 70
     4
  9
$DIMCLRT
 70
     4
  9
$DIMTFAC
 40
1.0
  9
$DIMGAP
 40
1.0
  9
$LUNITS
 70
     2
  9
$LUPREC
 70
     1
  9
$SKETCHINC
 40
1.0
  9
$FILLETRAD
 40
0.0
  9
$AUNITS
 70
     0
  9
$AUPREC
 70
     0
  9
$MENU
  1
.
  9
$ELEVATION
 40
0.0
  9
$PELEVATION
 40
0.0
  9
$THICKNESS
 40
0.0
  9
$LIMCHECK
 70
     0
  9
$BLIPMODE
 70
     0
  9
$CHAMFERA
 40
10.0
  9
$CHAMFERB
 40
10.0
  9
$SKPOLY
 70
     0
  9
$TDCREATE
 40
2451415.6127083338797092
  9
$TDUPDATE
 40
2460886.7183564808219671
  9
$TDINDWG
 40
0.619538669
  9
$TDUSRTIMER
 40
0.619538669
  9
$USRTIMER
 70
     1
  9
$ANGBASE
 50
0.0
  9
$ANGDIR
 70
     0
  9
$PDMODE
 70
     0
  9
$PDSIZE
 40
0.0
  9
$PLINEWID
 40
0.0
  9
$COORDS
 70
     1
  9
$SPLFRAME
 70
     0
  9
$SPLINETYPE
 70
     6
  9
$SPLINESEGS
 70
     8
  9
$ATTDIA
 70
     1
  9
$ATTREQ
 70
     1
  9
$HANDLING
 70
     1
  9
$HANDSEED
  5
543F
  9
$SURFTAB1
 70
     6
  9
$SURFTAB2
 70
     6
  9
$SURFTYPE
 70
     6
  9
$SURFU
 70
     6
  9
$SURFV
 70
     6
  9
$UCSNAME
  2

  9
$UCSORG
 10
0.0
 20
0.0
 30
0.0
  9
$UCSXDIR
 10
1.0
 20
0.0
 30
0.0
  9
$UCSYDIR
 10
0.0
 20
1.0
 30
0.0
  9
$PUCSNAME
  2

  9
$PUCSORG
 10
0.0
 20
0.0
 30
0.0
  9
$PUCSXDIR
 10
1.0
 20
0.0
 30
0.0
  9
$PUCSYDIR
 10
0.0
 20
1.0
 30
0.0
  9
$USERI1
 70
     3
  9
$USERI2
 70
     1
  9
$USERI3
 70
     1
  9
$USERI4
 70
     0
  9
$USERI5
 70
     0
  9
$USERR1
 40
1.0
  9
$USERR2
 40
3.0
  9
$USERR3
 40
3.0
  9
$USERR4
 40
3.0
  9
$USERR5
 40
10.0
  9
$WORLDVIEW
 70
     1
  9
$SHADEDGE
 70
     3
  9
$SHADEDIF
 70
    70
  9
$TILEMODE
 70
     1
  9
$MAXACTVP
 70
    16
  9
$PLIMCHECK
 70
     0
  9
$PEXTMIN
 10
1.0000000000000000E+20
 20
1.0000000000000000E+20
 30
1.0000000000000000E+20
  9
$PEXTMAX
 10
-1.0000000000000000E+20
 20
-1.0000000000000000E+20
 30
-1.0000000000000000E+20
  9
$PLIMMIN
 10
0.0
 20
0.0
  9
$PLIMMAX
 10
420.0
 20
297.0
  9
$UNITMODE
 70
     0
  9
$VISRETAIN
 70
     0
  9
$PLINEGEN
 70
     0
  9
$PSLTSCALE
 70
     1
  0
ENDSEC
  0
SECTION
  2
TABLES
  0
TABLE
  2
VPORT
 70
     1
  0
VPORT
  2
*ACTIVE
 70
     0
 10
0.0
 20
0.0
 11
1.0
 21
1.0
 12
159.869067103109586
 22
68.3129937595361696
 13
0.0
 23
0.0
 14
10.0
 24
10.0
 15
10.0
 25
10.0
 16
0.0
 26
0.0
 36
1.0
 17
0.0
 27
0.0
 37
0.0
 40
136.6259875190723108
 41
2.340243902439024
 42
50.0
 43
0.0
 44
0.0
 50
0.0
 51
0.0
 71
     0
 72
   100
 73
     1
 74
     1
 75
     0
 76
     0
 77
     0
 78
     0
  0
ENDTAB
  0
TABLE
  2
LTYPE
 70
     3
  0
LTYPE
  2
CONTINUOUS
 70
     0
  3
Solid line
 72
    65
 73
     0
 40
0.0
  0
LTYPE
  2
CENTER
 70
     0
  3
____ _ ____ _ ____ _ ____ _ ____ _ ____ _ ____ 
 72
    65
 73
     4
 40
2.0
 49
1.25
 49
-0.25
 49
0.25
 49
-0.25
  0
LTYPE
  2
PHANTOM2
 70
     0
  3
___ _ _ ___ _ _ ___ _ _ ___ _ _
 72
    65
 73
     6
 40
1.25
 49
0.625
 49
-0.125
 49
0.125
 49
-0.125
 49
0.125
 49
-0.125
  0
ENDTAB
  0
TABLE
  2
LAYER
 70
     5
  0
LAYER
  2
0
 70
     0
 62
     7
  6
CONTINUOUS
  0
LAYER
  2
WAKU
 70
     0
 62
     5
  6
CONTINUOUS
  0
LAYER
  2
1
 70
     0
 62
     1
  6
CENTER
  0
LAYER
  2
3
 70
     0
 62
     3
  6
CONTINUOUS
  0
LAYER
  2
DEFPOINTS
 70
     0
 62
     7
  6
CONTINUOUS
  0
ENDTAB
  0
TABLE
  2
STYLE
 70
     3
  0
STYLE
  2
STANDARD
 70
     0
 40
0.0
 41
1.0
 50
0.0
 71
     0
 42
2.5
  3
ROMANS
  4
EXTFONT
  0
STYLE
  2
K
 70
     0
 40
0.0
 41
1.0
 50
0.0
 71
     0
 42
3.0
  3
ROMANS
  4
bigfont
  0
STYLE
  2
STANDARD1
 70
     0
 40
0.0
 41
1.0
 50
0.0
 71
     0
 42
3.0
  3
txt
  4

  0
ENDTAB
  0
TABLE
  2
VIEW
 70
     0
  0
ENDTAB
  0
TABLE
  2
UCS
 70
     0
  0
ENDTAB
  0
TABLE
  2
APPID
 70
    45
  0
APPID
  2
ACAD
 70
     0
  0
APPID
  2
ACAD_NAV_VCDISPLAY
 70
     0
  0
APPID
  2
DCO15
 70
     0
  0
APPID
  2
GENIUS_GENOREF_13
 70
     0
  0
APPID
  2
GENIUS_GENOENT_13
 70
     0
  0
APPID
  2
GENIUS_GENBH_13
 70
     0
  0
APPID
  2
GENIUS_GENOBJ_13
 70
     0
  0
APPID
  2
GENIUS_GENODEF_13
 70
     0
  0
APPID
  2
GENIUS_GENOLIS_13
 70
     0
  0
APPID
  2
GENIUS_GENOBJ-NBEHI-BHF_13
 70
     0
  0
APPID
  2
GENIUS_GENOBJ-NBEHI-BHB_13
 70
     0
  0
APPID
  2
GENIUS_GENOBJ-F-PART_13
 70
     0
  0
APPID
  2
GENIUS_GEFSTDP_13
 70
     0
  0
APPID
  2
GENIUS_GENOBJ-N-RSSYM_13
 70
     0
  0
APPID
  2
GENIUS_GENSYMENT_13
 70
     0
  0
APPID
  2
GENIUS_GENOBJ-N-TIT_13
 70
     0
  0
APPID
  2
GENIUS_GENTITLE_13
 70
     0
  0
APPID
  2
GENIUS_GENZVEED_13
 70
     0
  0
APPID
  2
GENIUS_GENOBJ-N-LEADER_13
 70
     0
  0
APPID
  2
GENIUS_GENOBJ-N-FIL_13
 70
     0
  0
APPID
  2
GENIUS_GENOBJ-N-SEC_13
 70
     0
  0
APPID
  2
GENIUS_GENOBJ-N-CRS_13
 70
     0
  0
APPID
  2
GENIUS_GENOBJ-N-ZOO_13
 70
     0
  0
APPID
  2
GENIUS_GENZOO_13
 70
     0
  0
APPID
  2
GENIUS_GENOBJ-F-TOL_13
 70
     0
  0
APPID
  2
GENIUS_GENFIL_13
 70
     0
  0
APPID
  2
GENIUS_GENOBJ-N-CHA_13
 70
     0
  0
APPID
  2
_CALL_MAC$
 70
     0
  0
APPID
  2
ASM_BASE
 70
     0
  0
APPID
  2
ASM_EXPLO_VER_2_00
 70
     0
  0
APPID
  2
ASM_CADM_VER_12_00
 70
     0
  0
APPID
  2
ASM_BASEFORO
 70
     0
  0
APPID
  2
ASM_BASETRAVI
 70
     0
  0
APPID
  2
ASM_BASETRAVI1
 70
     0
  0
APPID
  2
ASM_GRUPPI
 70
     0
  0
APPID
  2
ASM_CADM_ALBERO
 70
     0
  0
APPID
  2
ASM_GOLE
 70
     0
  0
APPID
  2
ACAD_EXEMPT_FROM_CAD_STANDARDS
 70
     0
  0
APPID
  2
ACAD_DSTYLE_DIMJAG
 70
     0
  0
APPID
  2
ACAD_DSTYLE_DIMTALN
 70
     0
  0
APPID
  2
GRADIENTCOLOR1ACI
 70
     0
  0
APPID
  2
GRADIENTCOLOR2ACI
 70
     0
  0
APPID
  2
ACAD_MLEADERVER
 70
     0
  0
APPID
  2
ACAD_TC
 70
     0
  0
APPID
  2
ACAD_DSTYLE_DIMRADIAL_EXTENSION
 70
     0
  0
ENDTAB
  0
TABLE
  2
DIMSTYLE
 70
     2
  0
DIMSTYLE
  2
STANDARD
 70
     0
  3

  4

  5

  6

  7

 40
1.0
 41
0.18
 42
0.0625
 43
0.38
 44
0.18
 45
0.0
 46
0.0
 47
0.0
 48
0.0
140
0.18
141
0.09
142
0.0
143
25.3999999999999986
144
1.0
145
0.0
146
1.0
147
0.09
 71
     0
 72
     0
 73
     1
 74
     1
 75
     0
 76
     0
 77
     0
 78
     0
170
     0
171
     2
172
     0
173
     0
174
     0
175
     0
176
     0
177
     0
178
     0
  0
DIMSTYLE
  2
ITM
 70
     0
  3

  4

  5
ARROWANG
  6
ARROWANG
  7
ARROWANG
 40
1.0
 41
1.5
 42
1.0
 43
6.0
 44
1.0
 45
0.0
 46
0.0
 47
495.0
 48
0.0
140
3.0
141
0.0
142
0.0
143
25.3999999999999986
144
1.0
145
0.0
146
1.0
147
0.5
 71
     0
 72
     0
 73
     0
 74
     0
 75
     0
 76
     0
 77
     3
 78
     8
170
     0
171
     2
172
     1
173
     1
174
     1
175
     0
176
     0
177
     0
178
     0
  0
ENDTAB
  0
ENDSEC
  0
SECTION
  2
BLOCKS
  0
BLOCK
  8
0
  2
$MODEL_SPACE
 70
     0
 10
0.0
 20
0.0
 30
0.0
  3
$MODEL_SPACE
  1

  0
ENDBLK
  5
1C
  8
0
  0
BLOCK
 67
     1
  8
0
  2
$PAPER_SPACE
 70
     0
 10
0.0
 20
0.0
 30
0.0
  3
$PAPER_SPACE
  1

  0
ENDBLK
  5
19
 67
     1
  8
0
  0
BLOCK
  8
0
  2
ARROWANG
 70
     0
 10
0.0
 20
0.0
 30
0.0
  3
ARROWANG
  1

  0
LINE
  5
C9
  8
0
 10
0.0
 20
0.0
 30
0.0
 11
-1.4999999999999429
 21
0.4019237886467409
 31
0.0
  0
LINE
  5
CA
  8
0
 10
0.0
 20
0.0
 30
0.0
 11
-1.5
 21
-0.4019237886467124
 31
0.0
  0
ENDBLK
  5
CB
  8
0
  0
BLOCK
  8
0
  2
ARROW1
 70
     0
 10
0.0
 20
0.0
 30
0.0
  3
ARROW1
  1

  0
SOLID
  5
EE
  8
WAKU
  6
CONTINUOUS
 62
     4
 10
-1.0
 20
0.1666666666666714
 30
0.0
 11
-1.0
 21
-0.1666666666666714
 31
0.0
 12
0.0
 22
0.0
 32
0.0
 13
0.0
 23
0.0
 33
0.0
  0
ENDBLK
  5
F0
  8
0
  0
ENDSEC
  0
SECTION
  2
ENTITIES
  0
TEXT
  5
1BB9
  8
0
 62
     3
 10
0.0
 20
0.0
 30
0.0
 40
10.0
  1
VPDF06-35-M5-T
  7
STANDARD1
  0
LINE
  5
48A9
  8
0
 10
34.849999999999028
 20
75.0499999999999261
 30
0.0
 11
34.8499999999989711
 21
71.3535533905931629
 31
0.0
  0
LINE
  5
48AA
  8
0
 10
45.1499999999989825
 20
71.3535533905931061
 30
0.0
 11
45.1499999999989825
 21
75.0499999999998408
 31
0.0
  0
LINE
  5
48AB
  8
0
 10
34.8499999999989711
 20
71.3535533905931629
 30
0.0
 11
35.2035533905921909
 21
70.9999999999999147
 31
0.0
  0
LINE
  5
48AC
  8
0
 10
44.796446609405713
 20
70.9999999999998295
 30
0.0
 11
45.1499999999989825
 21
71.3535533905931061
 31
0.0
  0
LINE
  5
48AD
  8
0
 10
34.226497308102779
 20
79.2572594216368316
 30
0.0
 11
34.9999999999989981
 21
79.0499999999999261
 31
0.0
  0
LINE
  5
48AE
  8
0
 10
44.9999999999990621
 20
79.0499999999998408
 30
0.0
 11
45.7735026918952883
 21
79.2572594216367463
 31
0.0
  0
LINE
  5
48AF
  8
0
 10
34.9999999999989981
 20
77.7671572875252934
 30
0.0
 11
34.9999999999989981
 21
75.0499999999999261
 31
0.0
  0
LINE
  5
48B0
  8
0
 10
44.9999999999989981
 20
75.0499999999998408
 30
0.0
 11
44.9999999999989981
 21
77.7671572875252366
 31
0.0
  0
LINE
  5
48B1
  8
0
 10
44.9999999999989981
 20
77.7671572875252366
 30
0.0
 11
44.7171572875243726
 21
78.0499999999998408
 31
0.0
  0
LINE
  5
48B2
  8
0
 10
35.2828427124736379
 20
78.0499999999999261
 30
0.0
 11
34.9999999999989981
 21
77.7671572875252934
 31
0.0
  0
LINE
  5
48B3
  8
0
 10
36.7499999999990123
 20
79.0499999999998977
 30
0.0
 11
36.7499999999990123
 21
78.0499999999998835
 31
0.0
  0
LINE
  5
48B4
  8
0
 10
43.2499999999989981
 20
78.0499999999998693
 30
0.0
 11
43.2499999999989981
 21
79.049999999999855
 31
0.0
  0
LINE
  5
48B5
  8
0
 10
37.9999999999989484
 20
70.9999999999998863
 30
0.0
 11
38.267949192430109
 21
69.9999999999998863
 31
0.0
  0
LINE
  5
48B6
  8
0
 10
41.7320508075678376
 20
69.9999999999998437
 30
0.0
 11
41.9999999999989484
 21
70.9999999999998579
 31
0.0
  0
LINE
  5
48B7
  8
0
 10
34.8499999999989711
 20
75.0499999999999261
 30
0.0
 11
45.1499999999989825
 21
75.0499999999998693
 31
0.0
  0
LINE
  5
48B8
  8
0
 10
34.8499999999989711
 20
71.3535533905931629
 30
0.0
 11
45.1499999999989825
 21
71.3535533905931629
 31
0.0
  0
LINE
  5
48B9
  8
0
 10
35.2035533905922478
 20
70.9999999999999147
 30
0.0
 11
44.7964466094057627
 21
70.9999999999998579
 31
0.0
  0
LINE
  5
48BA
  8
0
 10
34.9999999999989981
 20
79.0499999999999261
 30
0.0
 11
44.9999999999989981
 21
79.0499999999998408
 31
0.0
  0
LINE
  5
48BB
  8
0
 10
34.2553479533779921
 20
79.250809174416986
 30
0.0
 11
34.226497308102779
 21
79.2573174332510035
 31
0.0
  0
ARC
  5
48BC
  8
0
 10
35.6496869016975495
 20
84.3044132214976969
 30
0.0
 40
5.2439149988394993
 50
254.2525094565390873
 51
286.2063274413691829
  0
ARC
  5
48BD
  8
0
 10
39.9999999999989981
 20
99.6484733513593568
 30
0.0
 40
20.5830344453704299
 50
261.9377411548360897
 51
278.0622588451639103
  0
ARC
  5
48BE
  8
0
 10
44.3503146001274615
 20
84.3047882910672968
 30
0.0
 40
5.2442755843924882
 50
253.7948004821633106
 51
285.7463626199279929
  0
LINE
  5
48BF
  8
0
 10
45.7735026918952883
 20
79.2573174332509325
 30
0.0
 11
45.7446519296493292
 21
79.2508048020465452
 31
0.0
  0
LINE
  5
48C0
  8
0
 10
37.1132486540509205
 20
79.2688763571601669
 30
0.0
 11
37.1132486540509205
 21
80.6970115520639268
 31
0.0
  0
LINE
  5
48C1
  8
0
 10
34.226497308102779
 20
79.2573174332510035
 30
0.0
 11
34.226497308102779
 21
82.3426825667487776
 31
0.0
  0
LINE
  5
48C2
  8
0
 10
42.8867513459471397
 20
79.2688763571601669
 30
0.0
 11
42.8867513459471397
 21
80.6970115520635858
 31
0.0
  0
LINE
  5
48C3
  8
0
 10
45.7735026918952883
 20
79.2573174332509325
 30
0.0
 11
45.7735026918952883
 21
82.3426825667489339
 31
0.0
  0
LINE
  5
48C4
  8
0
 10
34.9999999999989981
 20
77.7671572875252934
 30
0.0
 11
44.9999999999989981
 21
77.7671572875252366
 31
0.0
  0
LINE
  5
48C5
  8
0
 10
39.9999999999989981
 20
78.0499999999998835
 30
0.0
 11
44.7171572875243726
 21
78.0499999999998408
 31
0.0
  0
LINE
  5
48C6
  8
0
 10
35.2828427124736379
 20
78.0499999999999261
 30
0.0
 11
39.9999999999989981
 21
78.0499999999998835
 31
0.0
  0
LINE
  5
48C7
  8
0
 10
38.267949192430109
 20
69.9999999999998863
 30
0.0
 11
41.7320508075678376
 21
69.9999999999998863
 31
0.0
  0
CIRCLE
  5
48C8
  8
0
 10
39.9999999999991189
 20
90.0
 30
0.0
 40
3.2878679656440322
  0
CIRCLE
  5
48C9
  8
0
 10
39.9999999999991189
 20
90.0
 30
0.0
 40
3.5
  0
CIRCLE
  5
48CA
  8
3
 10
39.9999999999991189
 20
90.0
 30
0.0
 40
2.5
  0
CIRCLE
  5
48CB
  8
0
 10
39.9999999999991189
 20
90.0
 30
0.0
 40
2.0
  0
CIRCLE
  5
48CC
  8
0
 10
39.9999999999994102
 20
90.0
 30
0.0
 40
1.5
  0
CIRCLE
  5
48CD
  8
0
 10
39.9999999999991189
 20
90.0
 30
0.0
 40
8.4999999999999716
  0
LINE
  5
48CE
  8
0
 10
39.9999999999991189
 20
99.8149545762236556
 30
0.0
 11
48.4999999999991189
 21
94.9074772881118349
 31
0.0
  0
LINE
  5
48CF
  8
0
 10
48.4999999999991189
 20
85.0925227118881651
 30
0.0
 11
39.9999999999991189
 21
80.1850454237763586
 31
0.0
  0
LINE
  5
48D0
  8
0
 10
31.4999999999991189
 20
85.0925227118881651
 30
0.0
 11
31.4999999999991189
 21
94.9074772881118349
 31
0.0
  0
LINE
  5
48D1
  8
0
 10
39.9999999999991189
 20
99.8149545762236556
 30
0.0
 11
31.4999999999991189
 21
94.9074772881118349
 31
0.0
  0
LINE
  5
48D2
  8
0
 10
31.4999999999991189
 20
85.0925227118881651
 30
0.0
 11
39.9999999999991189
 21
80.1850454237763586
 31
0.0
  0
LINE
  5
48D3
  8
0
 10
48.4999999999991189
 20
85.0925227118881651
 30
0.0
 11
48.4999999999991189
 21
94.9074772881118349
 31
0.0
  0
ARC
  5
48D4
  8
0
 10
39.9999999999991189
 20
90.0
 30
0.0
 40
9.4999999999998295
 50
93.4746479833919608
 51
146.525352016606405
  0
ARC
  5
48D5
  8
0
 10
39.9999999999991189
 20
90.0
 30
0.0
 40
9.4999999999998295
 50
153.4746479833931119
 51
206.5253520166068029
  0
ARC
  5
48D6
  8
0
 10
39.9999999999991189
 20
90.0
 30
0.0
 40
9.4999999999998295
 50
213.4746479833935098
 51
266.5253520166081103
  0
ARC
  5
48D7
  8
0
 10
39.9999999999991189
 20
90.0
 30
0.0
 40
9.4999999999998295
 50
273.4746479833920034
 51
326.525352016606405
  0
ARC
  5
48D8
  8
0
 10
39.9999999999991189
 20
90.0
 30
0.0
 40
9.4999999999998295
 50
333.4746479833931971
 51
26.5253520166068597
  0
ARC
  5
48D9
  8
0
 10
39.9999999999991189
 20
90.0
 30
0.0
 40
9.4999999999998295
 50
33.4746479833935808
 51
86.5253520166080534
  0
LINE
  5
48DA
  8
0
 10
30.4999999999992895
 20
95.4848275573014575
 30
0.0
 11
30.4999999999992895
 21
84.5151724426985425
 31
0.0
  0
LINE
  5
48DB
  8
0
 10
39.9999999999992895
 20
79.0303448853971133
 30
0.0
 11
49.4999999999992895
 21
84.5151724426985425
 31
0.0
  0
LINE
  5
48DC
  8
0
 10
49.4999999999992895
 20
95.4848275573014575
 30
0.0
 11
39.9999999999992895
 21
100.9696551146029009
 31
0.0
  0
LINE
  5
48DD
  8
0
 10
39.9999999999992895
 20
100.9696551146029009
 30
0.0
 11
30.4999999999992895
 21
95.4848275573014575
 31
0.0
  0
LINE
  5
48DE
  8
0
 10
30.4999999999992895
 20
84.5151724426985425
 30
0.0
 11
39.9999999999992895
 21
79.0303448853971133
 31
0.0
  0
LINE
  5
48DF
  8
0
 10
49.4999999999992895
 20
84.5151724426985425
 30
0.0
 11
49.4999999999992895
 21
95.4848275573014575
 31
0.0
  0
LINE
  5
48E0
  8
1
 10
27.49999999999946
 20
90.0
 30
0.0
 11
52.4999999999993534
 21
90.0
 31
0.0
  0
LINE
  5
48E1
  8
1
 10
39.9999999999993534
 20
113.0000000000000995
 30
0.0
 11
39.9999999999994102
 21
66.9999999999998863
 31
0.0
  0
LINE
  5
48E2
  8
0
 10
45.773502691895402
 20
82.3427405783631059
 30
0.0
 11
45.7487331973932427
 21
82.3493775444118938
 31
0.0
  0
LINE
  5
48E3
  8
0
 10
34.2512668026053291
 20
82.3493775444118938
 30
0.0
 11
34.2264973081029495
 21
82.3427405783630206
 31
0.0
  0
LINE
  5
48E4
  8
0
 10
34.849999999999028
 20
104.9500000000000028
 30
0.0
 11
34.8499999999989711
 21
108.6464466094067944
 31
0.0
  0
LINE
  5
48E5
  8
0
 10
45.1499999999989825
 20
108.6464466094068939
 30
0.0
 11
45.1499999999989825
 21
104.9500000000001023
 31
0.0
  0
LINE
  5
48E6
  8
0
 10
34.8499999999989711
 20
108.6464466094067944
 30
0.0
 11
35.2035533905921909
 21
109.0000000000000995
 31
0.0
  0
LINE
  5
48E7
  8
0
 10
44.796446609405713
 20
109.0000000000000995
 30
0.0
 11
45.1499999999989825
 21
108.6464466094068939
 31
0.0
  0
LINE
  5
48E8
  8
0
 10
34.226497308102779
 20
100.7427405783630974
 30
0.0
 11
34.9999999999989981
 21
100.9500000000000028
 31
0.0
  0
LINE
  5
48E9
  8
0
 10
44.9999999999990621
 20
100.9500000000001023
 30
0.0
 11
45.7735026918952883
 21
100.7427405783631968
 31
0.0
  0
LINE
  5
48EA
  8
0
 10
34.9999999999989981
 20
102.2328427124747066
 30
0.0
 11
34.9999999999989981
 21
104.9500000000000028
 31
0.0
  0
LINE
  5
48EB
  8
0
 10
44.9999999999989981
 20
104.9500000000001023
 30
0.0
 11
44.9999999999989981
 21
102.2328427124747066
 31
0.0
  0
LINE
  5
48EC
  8
0
 10
44.9999999999989981
 20
102.2328427124747066
 30
0.0
 11
44.7171572875243726
 21
101.9500000000001023
 31
0.0
  0
LINE
  5
48ED
  8
0
 10
35.2828427124736379
 20
101.9500000000000028
 30
0.0
 11
34.9999999999989981
 21
102.2328427124747066
 31
0.0
  0
LINE
  5
48EE
  8
0
 10
36.7499999999990123
 20
100.9500000000001023
 30
0.0
 11
36.7499999999990123
 21
101.9500000000001023
 31
0.0
  0
LINE
  5
48EF
  8
0
 10
43.2499999999989981
 20
101.9500000000001023
 30
0.0
 11
43.2499999999989981
 21
100.9500000000001023
 31
0.0
  0
LINE
  5
48F0
  8
0
 10
37.9999999999989484
 20
109.0000000000000995
 30
0.0
 11
38.267949192430109
 21
110.0000000000000995
 31
0.0
  0
LINE
  5
48F1
  8
0
 10
41.7320508075678376
 20
110.0000000000000995
 30
0.0
 11
41.9999999999989484
 21
109.0000000000000995
 31
0.0
  0
LINE
  5
48F2
  8
0
 10
34.8499999999989711
 20
104.9500000000000028
 30
0.0
 11
45.1499999999989825
 21
104.9500000000001023
 31
0.0
  0
LINE
  5
48F3
  8
0
 10
34.8499999999989711
 20
108.6464466094067944
 30
0.0
 11
45.1499999999989825
 21
108.6464466094067944
 31
0.0
  0
LINE
  5
48F4
  8
0
 10
35.2035533905922478
 20
109.0000000000000995
 30
0.0
 11
44.7964466094057627
 21
109.0000000000000995
 31
0.0
  0
LINE
  5
48F5
  8
0
 10
34.9999999999989981
 20
100.9500000000000028
 30
0.0
 11
44.9999999999989981
 21
100.9500000000001023
 31
0.0
  0
LINE
  5
48F6
  8
0
 10
34.2553479533779921
 20
100.7491908255829998
 30
0.0
 11
34.226497308102779
 21
100.7426825667489965
 31
0.0
  0
ARC
  5
48F7
  8
0
 10
35.6496869016975495
 20
95.6955867785022889
 30
0.0
 40
5.2439149988394993
 50
73.793672558630746
 51
105.7474905434608985
  0
ARC
  5
48F8
  8
0
 10
39.9999999999989981
 20
80.3515266486406574
 30
0.0
 40
20.5830344453704299
 50
81.9377411548361039
 51
98.0622588451638961
  0
ARC
  5
48F9
  8
0
 10
44.3503146001274615
 20
95.6952117089327032
 30
0.0
 40
5.2442755843924882
 50
74.2536373800719645
 51
106.2051995178366042
  0
LINE
  5
48FA
  8
0
 10
45.7735026918952883
 20
100.7426825667489965
 30
0.0
 11
45.7446519296493292
 21
100.749195197953398
 31
0.0
  0
LINE
  5
48FB
  8
0
 10
37.1132486540509205
 20
100.7311236428398047
 30
0.0
 11
37.1132486540509205
 21
99.3029884479360589
 31
0.0
  0
LINE
  5
48FC
  8
0
 10
34.226497308102779
 20
100.7426825667489965
 30
0.0
 11
34.226497308102779
 21
97.6573174332512224
 31
0.0
  0
LINE
  5
48FD
  8
0
 10
42.8867513459471397
 20
100.7311236428398047
 30
0.0
 11
42.8867513459471397
 21
99.3029884479364
 31
0.0
  0
LINE
  5
48FE
  8
0
 10
45.7735026918952883
 20
100.7426825667489965
 30
0.0
 11
45.7735026918952883
 21
97.6573174332510803
 31
0.0
  0
LINE
  5
48FF
  8
0
 10
34.9999999999989981
 20
102.2328427124747066
 30
0.0
 11
44.9999999999989981
 21
102.2328427124747066
 31
0.0
  0
LINE
  5
4900
  8
0
 10
39.9999999999989981
 20
101.9500000000001023
 30
0.0
 11
44.7171572875243726
 21
101.9500000000001023
 31
0.0
  0
LINE
  5
4901
  8
0
 10
35.2828427124736379
 20
101.9500000000000028
 30
0.0
 11
39.9999999999989981
 21
101.9500000000001023
 31
0.0
  0
LINE
  5
4902
  8
0
 10
38.267949192430109
 20
110.0000000000000995
 30
0.0
 11
41.7320508075678376
 21
110.0000000000000995
 31
0.0
  0
LINE
  5
4903
  8
0
 10
45.773502691895402
 20
97.6572594216368941
 30
0.0
 11
45.7487331973932427
 21
97.6506224555881204
 31
0.0
  0
LINE
  5
4904
  8
0
 10
34.2512668026053291
 20
97.6506224555881204
 30
0.0
 11
34.2264973081029495
 21
97.6572594216369652
 31
0.0
  0
LINE
  5
4BEB
  8
0
 10
145.0999999999991132
 20
95.4999999999997158
 30
0.0
 11
143.9999999999990905
 21
95.4999999999997158
 31
0.0
  0
LINE
  5
4BEC
  8
0
 10
143.9999999999990905
 20
84.4999999999997442
 30
0.0
 11
145.0999999999991132
 21
84.4999999999997442
 31
0.0
  0
LINE
  5
4BED
  8
0
 10
145.9999999999990052
 20
75.0499999999997272
 30
0.0
 11
145.9999999999990052
 21
71.3535533905929924
 31
0.0
  0
LINE
  5
4BEE
  8
0
 10
156.2999999999989882
 20
71.3535533905929356
 30
0.0
 11
156.2999999999989882
 21
75.0499999999996987
 31
0.0
  0
LINE
  5
4BEF
  8
0
 10
145.9999999999990052
 20
71.3535533905929924
 30
0.0
 11
146.3535533905923103
 21
70.9999999999997158
 31
0.0
  0
LINE
  5
4BF0
  8
0
 10
155.9464466094057968
 20
70.9999999999996874
 30
0.0
 11
156.2999999999989882
 21
71.3535533905929356
 31
0.0
  0
LINE
  5
4BF1
  8
0
 10
156.1499999999990109
 20
77.7671572875251229
 30
0.0
 11
155.8671572875244067
 21
78.0499999999996987
 31
0.0
  0
LINE
  5
4BF2
  8
0
 10
146.4328427124737004
 20
78.0499999999997272
 30
0.0
 11
146.1499999999990109
 21
77.7671572875251229
 31
0.0
  0
LINE
  5
4BF3
  8
0
 10
146.1499999999990109
 20
77.7671572875251229
 30
0.0
 11
146.1499999999990109
 21
75.0499999999997272
 31
0.0
  0
LINE
  5
4BF4
  8
0
 10
156.1499999999990109
 20
75.0499999999996987
 30
0.0
 11
156.1499999999990109
 21
77.7671572875251798
 31
0.0
  0
LINE
  5
4BF5
  8
0
 10
146.4499999999991076
 20
84.4999999999997442
 30
0.0
 11
146.4499999999991076
 21
83.0499999999997272
 31
0.0
  0
LINE
  5
4BF6
  8
0
 10
155.8499999999991132
 20
83.0499999999996845
 30
0.0
 11
155.8499999999991132
 21
84.4999999999996874
 31
0.0
  0
LINE
  5
4BF7
  8
0
 10
145.5999999999991132
 20
94.2499999999997158
 30
0.0
 11
145.0999999999991132
 21
94.2499999999997158
 31
0.0
  0
LINE
  5
4BF8
  8
0
 10
145.0999999999991132
 20
85.7499999999997442
 30
0.0
 11
145.5999999999991132
 21
85.7499999999997442
 31
0.0
  0
LINE
  5
4BF9
  8
0
 10
147.1499999999990962
 20
83.0499999999997272
 30
0.0
 11
147.1499999999990962
 21
82.5499999999997129
 31
0.0
  0
LINE
  5
4BFA
  8
0
 10
155.1499999999990962
 20
82.5499999999996987
 30
0.0
 11
155.1499999999990962
 21
83.0499999999996845
 31
0.0
  0
LINE
  5
4BFB
  8
0
 10
147.8999999999990109
 20
79.0499999999997129
 30
0.0
 11
147.8999999999990109
 21
78.0499999999997272
 31
0.0
  0
LINE
  5
4BFC
  8
0
 10
154.3999999999990109
 20
78.0499999999996987
 30
0.0
 11
154.3999999999990109
 21
79.0499999999996987
 31
0.0
  0
LINE
  5
4BFD
  8
0
 10
149.1499999999990109
 20
70.9999999999997158
 30
0.0
 11
149.4179491924301999
 21
69.9999999999997158
 31
0.0
  0
LINE
  5
4BFE
  8
0
 10
152.8820508075679072
 20
69.9999999999996732
 30
0.0
 11
153.1499999999990109
 21
70.9999999999996874
 31
0.0
  0
LINE
  5
4BFF
  8
0
 10
151.1318482863721897
 20
79.2573739497635046
 30
0.0
 11
151.1257985624461924
 21
82.342733152165124
 31
0.0
  0
ARC
  5
4C00
  8
0
 10
148.6372100534366041
 20
94.5525838249682522
 30
0.0
 40
15.4973115423219205
 50
260.5771519584513953
 51
279.2633377953359854
  0
LINE
  5
4C01
  8
0
 10
146.0999999999991132
 20
79.0499999999997129
 30
0.0
 11
146.0999999999989996
 21
82.5499999999997129
 31
0.0
  0
ARC
  5
4C02
  8
0
 10
148.6611534318597876
 20
67.0436315386054957
 30
0.0
 40
15.4963539518735196
 50
80.8484279858807753
 51
99.5131858987960811
  0
LINE
  5
4C03
  8
0
 10
156.0999999999991132
 20
79.0499999999996419
 30
0.0
 11
156.0999999999991132
 21
82.5499999999996703
 31
0.0
  0
POLYLINE
  5
4C04
  8
0
 66
     1
 10
0.0
 20
0.0
 30
0.0
 70
   128
  0
VERTEX
  5
51AF
  8
0
 10
154.0699710972992023
 20
79.0499999999996419
 30
0.0
  0
VERTEX
  5
51B0
  8
0
 10
155.0857096388845093
 20
79.1165927163563083
 30
0.0
  0
VERTEX
  5
51B1
  8
0
 10
156.0999999999991132
 20
79.2456714939598612
 30
0.0
  0
SEQEND
  5
51B2
  8
0
  0
POLYLINE
  5
4C05
  8
0
 66
     1
 10
0.0
 20
0.0
 30
0.0
 70
   128
  0
VERTEX
  5
51B3
  8
0
 10
151.1318482863721897
 20
79.2573739497635046
 30
0.0
  0
VERTEX
  5
51B4
  8
0
 10
152.1807417357358929
 20
79.1227645538471336
 30
0.0
  0
VERTEX
  5
51B5
  8
0
 10
153.3017442697961883
 20
79.0499999999996703
 30
0.0
  0
SEQEND
  5
51B6
  8
0
  0
POLYLINE
  5
4C06
  8
0
 66
     1
 10
0.0
 20
0.0
 30
0.0
 70
   128
  0
VERTEX
  5
51B7
  8
0
 10
153.2308274651460067
 20
82.5500505854162441
 30
0.0
  0
VERTEX
  5
51B8
  8
0
 10
152.1775407520700014
 20
82.4797134019124059
 30
0.0
  0
VERTEX
  5
51B9
  8
0
 10
151.1257985624461924
 20
82.342733152165124
 30
0.0
  0
SEQEND
  5
51BA
  8
0
  0
LINE
  5
4C07
  8
0
 10
154.0699710972992875
 20
82.5499999999996703
 30
0.0
 11
153.2050289026988992
 21
82.5499999999996703
 31
0.0
  0
POLYLINE
  5
4C08
  8
0
 66
     1
 10
0.0
 20
0.0
 30
0.0
 70
   128
  0
VERTEX
  5
51BB
  8
0
 10
156.0999999999991132
 20
82.3543285060394652
 30
0.0
  0
VERTEX
  5
51BC
  8
0
 10
155.088550827642905
 20
82.483126954813585
 30
0.0
  0
VERTEX
  5
51BD
  8
0
 10
154.0699710972992875
 20
82.5499999999996703
 30
0.0
  0
SEQEND
  5
51BE
  8
0
  0
LINE
  5
4C09
  8
0
 10
146.0999999999988859
 20
82.5499999999997129
 30
0.0
 11
156.0999999999991132
 21
82.5499999999996703
 31
0.0
  0
LINE
  5
4C0A
  8
0
 10
146.0999999999991132
 20
79.0499999999997129
 30
0.0
 11
156.0999999999991132
 21
79.0499999999996419
 31
0.0
  0
LINE
  5
4C0B
  8
0
 10
156.5999999999991132
 20
84.4999999999996874
 30
0.0
 11
156.5999999999991132
 21
95.4999999999996589
 31
0.0
  0
LINE
  5
4C0C
  8
0
 10
156.5999999999991132
 20
84.4999999999996447
 30
0.0
 11
145.5999999999989996
 21
84.4999999999996874
 31
0.0
  0
LINE
  5
4C0D
  8
0
 10
156.5999999999991132
 20
95.4999999999996589
 30
0.0
 11
145.5999999999989996
 21
95.4999999999996732
 31
0.0
  0
LINE
  5
4C0E
  8
0
 10
145.0999999999991132
 20
95.4999999999997158
 30
0.0
 11
145.0999999999991132
 21
84.4999999999997442
 31
0.0
  0
LINE
  5
4C0F
  8
0
 10
143.9999999999990905
 20
95.4999999999997158
 30
0.0
 11
143.9999999999990905
 21
84.4999999999997442
 31
0.0
  0
LINE
  5
4C10
  8
0
 10
145.5999999999991132
 20
84.4999999999996874
 30
0.0
 11
145.5999999999991132
 21
95.4999999999996732
 31
0.0
  0
LINE
  5
4C11
  8
0
 10
145.9999999999990052
 20
71.3535533905929924
 30
0.0
 11
156.2999999999989882
 21
71.3535533905929356
 31
0.0
  0
LINE
  5
4C12
  8
0
 10
145.9999999999990052
 20
75.0499999999997272
 30
0.0
 11
156.2999999999991019
 21
75.0499999999996987
 31
0.0
  0
LINE
  5
4C13
  8
0
 10
146.3535533905923103
 20
70.9999999999997158
 30
0.0
 11
155.9464466094057968
 21
70.9999999999996874
 31
0.0
  0
LINE
  5
4C14
  8
0
 10
146.4328427124737004
 20
78.0499999999997272
 30
0.0
 11
155.8671572875244067
 21
78.0499999999996987
 31
0.0
  0
LINE
  5
4C15
  8
0
 10
146.1499999999990109
 20
77.7671572875251229
 30
0.0
 11
156.1499999999990109
 21
77.7671572875250092
 31
0.0
  0
LINE
  5
4C16
  8
0
 10
146.4499999999991076
 20
83.0499999999997272
 30
0.0
 11
155.8499999999991132
 21
83.0499999999996845
 31
0.0
  0
LINE
  5
4C17
  8
0
 10
149.4179491924301999
 20
69.9999999999997158
 30
0.0
 11
152.8820508075679072
 21
69.9999999999996732
 31
0.0
  0
LINE
  5
4C18
  8
0
 10
134.3937929011092081
 20
100.9696551146029009
 30
0.0
 11
133.9999999999990905
 21
99.5000000000000142
 31
0.0
  0
LINE
  5
4C19
  8
0
 10
138.9999999999990905
 20
99.5000000000000142
 30
0.0
 11
138.6062070988890014
 21
100.9696551146029009
 31
0.0
  0
LINE
  5
4C1A
  8
0
 10
138.6062070988890014
 20
79.0303448853971133
 30
0.0
 11
138.9999999999990905
 21
80.5
 31
0.0
  0
LINE
  5
4C1B
  8
0
 10
133.9999999999990905
 20
80.5
 30
0.0
 11
134.3937929011092081
 21
79.0303448853971133
 31
0.0
  0
LINE
  5
4C1C
  8
0
 10
118.2857142857133965
 20
80.5
 30
0.0
 11
118.6795071868234999
 21
79.0303448853971133
 31
0.0
  0
LINE
  5
4C1D
  8
0
 10
118.6795071868234999
 20
100.9696551146029009
 30
0.0
 11
118.2857142857133965
 21
99.5000000000000142
 31
0.0
  0
LINE
  5
4C1E
  8
0
 10
123.2857142857133965
 20
99.5000000000000142
 30
0.0
 11
122.8919213846032932
 21
100.9696551146029009
 31
0.0
  0
LINE
  5
4C1F
  8
0
 10
122.8919213846032932
 20
79.0303448853971133
 30
0.0
 11
123.2857142857133965
 21
80.5
 31
0.0
  0
LINE
  5
4C20
  8
0
 10
143.2329999999990946
 20
96.0
 30
0.0
 11
138.9999999999990905
 21
96.0
 31
0.0
  0
LINE
  5
4C21
  8
0
 10
133.9999999999990905
 20
96.0
 30
0.0
 11
123.2857142857133965
 21
96.0
 31
0.0
  0
LINE
  5
4C22
  8
0
 10
118.2857142857133965
 20
96.0
 30
0.0
 11
114.7669999999991006
 21
96.0
 31
0.0
  0
LINE
  5
4C23
  8
0
 10
114.7669999999991006
 20
84.0
 30
0.0
 11
118.2857142857133965
 21
84.0
 31
0.0
  0
LINE
  5
4C24
  8
0
 10
123.2857142857133965
 20
84.0
 30
0.0
 11
133.9999999999990905
 21
84.0
 31
0.0
  0
LINE
  5
4C25
  8
0
 10
138.9999999999990905
 20
84.0
 30
0.0
 11
143.2329999999990946
 21
84.0
 31
0.0
  0
LINE
  5
4C26
  8
0
 10
114.7669999999991006
 20
96.0
 30
0.0
 11
113.9999999999991047
 21
95.2330000000000041
 31
0.0
  0
LINE
  5
4C27
  8
0
 10
113.9999999999991047
 20
84.7670000000000243
 30
0.0
 11
114.7669999999991006
 21
84.0
 31
0.0
  0
LINE
  5
4C28
  8
0
 10
143.2329999999990946
 20
84.0
 30
0.0
 11
143.9999999999990905
 21
84.7670000000000243
 31
0.0
  0
LINE
  5
4C29
  8
0
 10
143.9999999999990905
 20
95.2330000000000041
 30
0.0
 11
143.2329999999990946
 21
96.0
 31
0.0
  0
LINE
  5
4C2A
  8
0
 10
73.8523410167818213
 20
99.8149545762236556
 30
0.0
 11
73.4999999999991189
 21
98.5000000000000142
 31
0.0
  0
LINE
  5
4C2B
  8
0
 10
73.4999999999991189
 20
81.5
 30
0.0
 11
73.8523410167818213
 21
80.1850454237763586
 31
0.0
  0
LINE
  5
4C2C
  8
0
 10
78.1476589832164166
 20
80.1850454237763586
 30
0.0
 11
78.4999999999991189
 21
81.5
 31
0.0
  0
LINE
  5
4C2D
  8
0
 10
78.4999999999991189
 20
98.5000000000000142
 30
0.0
 11
78.1476589832164166
 21
99.8149545762236556
 31
0.0
  0
LINE
  5
4C2E
  8
0
 10
113.9999999999991047
 20
94.0
 30
0.0
 11
113.8199542600447955
 21
94.0
 31
0.0
  0
LINE
  5
4C2F
  8
0
 10
112.819954260044895
 20
94.0
 30
0.0
 11
111.4655872826353971
 21
94.0
 31
0.0
  0
LINE
  5
4C30
  8
0
 10
110.430311102225204
 20
94.0
 30
0.0
 11
106.185587282635197
 21
94.0
 31
0.0
  0
LINE
  5
4C31
  8
0
 10
105.1503111022251034
 20
94.0
 30
0.0
 11
100.9055872826351958
 21
94.0
 31
0.0
  0
LINE
  5
4C32
  8
0
 10
99.8703111022251449
 20
94.0
 30
0.0
 11
95.62558728263528
 21
94.0
 31
0.0
  0
LINE
  5
4C33
  8
0
 10
94.5903111022251579
 20
94.0
 30
0.0
 11
90.3455872826352362
 21
94.0
 31
0.0
  0
LINE
  5
4C34
  8
0
 10
89.3103111022251852
 20
94.0
 30
0.0
 11
85.0655872826352635
 21
94.0
 31
0.0
  0
LINE
  5
4C35
  8
0
 10
84.0303111022251699
 20
94.0
 30
0.0
 11
79.785587282635305
 21
94.0
 31
0.0
  0
LINE
  5
4C36
  8
0
 10
78.7503111022251829
 20
94.0
 30
0.0
 11
78.4999999999991189
 21
94.0
 31
0.0
  0
LINE
  5
4C37
  8
0
 10
79.4999999999991189
 20
86.0
 30
0.0
 11
80.8939046416742542
 21
86.0
 31
0.0
  0
LINE
  5
4C38
  8
0
 10
81.9291808220843052
 20
86.0
 30
0.0
 11
86.1739046416742269
 21
86.0
 31
0.0
  0
LINE
  5
4C39
  8
0
 10
87.2091808220842211
 20
86.0
 30
0.0
 11
91.4539046416741854
 21
86.0
 31
0.0
  0
LINE
  5
4C3A
  8
0
 10
92.4891808220842364
 20
86.0
 30
0.0
 11
96.7339046416741866
 21
86.0
 31
0.0
  0
LINE
  5
4C3B
  8
0
 10
97.7691808220842233
 20
86.0
 30
0.0
 11
102.0139046416741024
 21
86.0
 31
0.0
  0
LINE
  5
4C3C
  8
0
 10
103.0491808220841961
 20
86.0
 30
0.0
 11
107.293904641674203
 21
86.0
 31
0.0
  0
LINE
  5
4C3D
  8
0
 10
108.3291808220841972
 20
86.0
 30
0.0
 11
112.5739046416742042
 21
86.0
 31
0.0
  0
LINE
  5
4C3E
  8
0
 10
113.6091808220842978
 20
86.0
 30
0.0
 11
113.9999999999991047
 21
86.0
 31
0.0
  0
LINE
  5
4C3F
  8
0
 10
70.2121320343550508
 20
93.4999999999999858
 30
0.0
 11
69.9999999999991189
 21
93.2878679656440397
 31
0.0
  0
LINE
  5
4C40
  8
0
 10
69.9999999999991189
 20
86.7121320343559745
 30
0.0
 11
70.2121320343550508
 21
86.5
 31
0.0
  0
LINE
  5
4C41
  8
0
 10
73.4999999999991189
 20
93.4999999999999858
 30
0.0
 11
70.2121320343550508
 21
93.4999999999999858
 31
0.0
  0
LINE
  5
4C42
  8
0
 10
70.2121320343550508
 20
86.5
 30
0.0
 11
73.4999999999991189
 21
86.5
 31
0.0
  0
POLYLINE
  5
4C43
  8
0
 66
     1
 10
0.0
 20
0.0
 30
0.0
 70
   128
  0
VERTEX
  5
51BF
  8
0
 10
134.3937929011092081
 20
95.4848275573014575
 30
0.0
  0
VERTEX
  5
51C0
  8
0
 10
134.1048593692397048
 20
96.8498691312238549
 30
0.0
  0
VERTEX
  5
51C1
  8
0
 10
133.9999999999990052
 20
98.2272413359521863
 30
0.0
  0
SEQEND
  5
51C2
  8
0
  0
POLYLINE
  5
4C44
  8
0
 66
     1
 10
0.0
 20
0.0
 30
0.0
 70
   128
  0
VERTEX
  5
51C3
  8
0
 10
133.9999999999990052
 20
98.2272413359521863
 30
0.0
  0
VERTEX
  5
51C4
  8
0
 10
134.1039411083777111
 20
99.5984482252775365
 30
0.0
  0
VERTEX
  5
51C5
  8
0
 10
134.3937929011092081
 20
100.9696551146029009
 30
0.0
  0
SEQEND
  5
51C6
  8
0
  0
LINE
  5
4C45
  8
0
 10
138.6062070988890014
 20
100.9696551146029009
 30
0.0
 11
134.3937929011092081
 21
100.9696551146029009
 31
0.0
  0
POLYLINE
  5
4C46
  8
0
 66
     1
 10
0.0
 20
0.0
 30
0.0
 70
   128
  0
VERTEX
  5
51C7
  8
0
 10
138.6062070988890014
 20
100.9696551146029009
 30
0.0
  0
VERTEX
  5
51C8
  8
0
 10
138.8951406307583909
 20
99.6046135406805035
 30
0.0
  0
VERTEX
  5
51C9
  8
0
 10
138.9999999999990905
 20
98.2272413359521863
 30
0.0
  0
SEQEND
  5
51CA
  8
0
  0
POLYLINE
  5
4C47
  8
0
 66
     1
 10
0.0
 20
0.0
 30
0.0
 70
   128
  0
VERTEX
  5
51CB
  8
0
 10
138.9999999999990905
 20
98.2272413359521863
 30
0.0
  0
VERTEX
  5
51CC
  8
0
 10
138.8960588916204131
 20
96.8560344466268361
 30
0.0
  0
VERTEX
  5
51CD
  8
0
 10
138.6062070988890014
 20
95.4848275573014575
 30
0.0
  0
SEQEND
  5
51CE
  8
0
  0
LINE
  5
4C48
  8
0
 10
138.6062070988890014
 20
95.4848275573014575
 30
0.0
 11
134.3937929011092081
 21
95.4848275573014575
 31
0.0
  0
POLYLINE
  5
4C49
  8
0
 66
     1
 10
0.0
 20
0.0
 30
0.0
 70
   128
  0
VERTEX
  5
51CF
  8
0
 10
134.3937929011092081
 20
84.5151724426985425
 30
0.0
  0
VERTEX
  5
51D0
  8
0
 10
134.1048593692397048
 20
87.2452555905433229
 30
0.0
  0
VERTEX
  5
51D1
  8
0
 10
133.9999999999990052
 20
90.0
 30
0.0
  0
SEQEND
  5
51D2
  8
0
  0
POLYLINE
  5
4C4A
  8
0
 66
     1
 10
0.0
 20
0.0
 30
0.0
 70
   128
  0
VERTEX
  5
51D3
  8
0
 10
133.9999999999990052
 20
90.0
 30
0.0
  0
VERTEX
  5
51D4
  8
0
 10
134.1096671907598932
 20
92.8184925111085448
 30
0.0
  0
VERTEX
  5
51D5
  8
0
 10
134.3937929011092081
 20
95.4848275573014575
 30
0.0
  0
SEQEND
  5
51D6
  8
0
  0
POLYLINE
  5
4C4B
  8
0
 66
     1
 10
0.0
 20
0.0
 30
0.0
 70
   128
  0
VERTEX
  5
51D7
  8
0
 10
138.6062070988890014
 20
95.4848275573014575
 30
0.0
  0
VERTEX
  5
51D8
  8
0
 10
138.8951406307583909
 20
92.7547444094567055
 30
0.0
  0
VERTEX
  5
51D9
  8
0
 10
138.9999999999990052
 20
90.0
 30
0.0
  0
SEQEND
  5
51DA
  8
0
  0
POLYLINE
  5
4C4C
  8
0
 66
     1
 10
0.0
 20
0.0
 30
0.0
 70
   128
  0
VERTEX
  5
51DB
  8
0
 10
138.9999999999990052
 20
90.0
 30
0.0
  0
VERTEX
  5
51DC
  8
0
 10
138.8903328092382878
 20
87.1815074888914694
 30
0.0
  0
VERTEX
  5
51DD
  8
0
 10
138.6062070988890014
 20
84.5151724426985425
 30
0.0
  0
SEQEND
  5
51DE
  8
0
  0
LINE
  5
4C4D
  8
0
 10
138.6062070988890014
 20
84.5151724426985425
 30
0.0
 11
134.3937929011092081
 21
84.5151724426985425
 31
0.0
  0
POLYLINE
  5
4C4E
  8
0
 66
     1
 10
0.0
 20
0.0
 30
0.0
 70
   128
  0
VERTEX
  5
51DF
  8
0
 10
134.3937929011092081
 20
79.0303448853971133
 30
0.0
  0
VERTEX
  5
51E0
  8
0
 10
134.1048593692397048
 20
80.3953864593194965
 30
0.0
  0
VERTEX
  5
51E1
  8
0
 10
133.9999999999990052
 20
81.7727586640478137
 30
0.0
  0
SEQEND
  5
51E2
  8
0
  0
POLYLINE
  5
4C4F
  8
0
 66
     1
 10
0.0
 20
0.0
 30
0.0
 70
   128
  0
VERTEX
  5
51E3
  8
0
 10
133.9999999999990052
 20
81.7727586640478137
 30
0.0
  0
VERTEX
  5
51E4
  8
0
 10
134.1039411083777111
 20
83.1439655533731923
 30
0.0
  0
VERTEX
  5
51E5
  8
0
 10
134.3937929011092081
 20
84.5151724426985425
 30
0.0
  0
SEQEND
  5
51E6
  8
0
  0
POLYLINE
  5
4C50
  8
0
 66
     1
 10
0.0
 20
0.0
 30
0.0
 70
   128
  0
VERTEX
  5
51E7
  8
0
 10
138.6062070988890014
 20
84.5151724426985425
 30
0.0
  0
VERTEX
  5
51E8
  8
0
 10
138.8951406307583909
 20
83.1501308687761593
 30
0.0
  0
VERTEX
  5
51E9
  8
0
 10
138.9999999999990905
 20
81.7727586640478137
 30
0.0
  0
SEQEND
  5
51EA
  8
0
  0
POLYLINE
  5
4C51
  8
0
 66
     1
 10
0.0
 20
0.0
 30
0.0
 70
   128
  0
VERTEX
  5
51EB
  8
0
 10
138.9999999999990905
 20
81.7727586640478137
 30
0.0
  0
VERTEX
  5
51EC
  8
0
 10
138.8960588916204131
 20
80.4015517747224635
 30
0.0
  0
VERTEX
  5
51ED
  8
0
 10
138.6062070988890014
 20
79.0303448853971133
 30
0.0
  0
SEQEND
  5
51EE
  8
0
  0
LINE
  5
4C52
  8
0
 10
138.6062070988890014
 20
79.0303448853971133
 30
0.0
 11
134.3937929011092081
 21
79.0303448853971133
 31
0.0
  0
LINE
  5
4C53
  8
0
 10
133.9999999999990052
 20
99.4999999999997442
 30
0.0
 11
133.9999999999990052
 21
80.5000000000002984
 31
0.0
  0
LINE
  5
4C54
  8
0
 10
138.9999999999988916
 20
99.5000000000005258
 30
0.0
 11
138.9999999999990905
 21
80.5000000000000142
 31
0.0
  0
POLYLINE
  5
4C55
  8
0
 66
     1
 10
0.0
 20
0.0
 30
0.0
 70
   128
  0
VERTEX
  5
51EF
  8
0
 10
122.8919213846031937
 20
95.4848275573014575
 30
0.0
  0
VERTEX
  5
51F0
  8
0
 10
123.1808549164726969
 20
92.7547444094566629
 30
0.0
  0
VERTEX
  5
51F1
  8
0
 10
123.2857142857133965
 20
90.0
 30
0.0
  0
SEQEND
  5
51F2
  8
0
  0
POLYLINE
  5
4C56
  8
0
 66
     1
 10
0.0
 20
0.0
 30
0.0
 70
   128
  0
VERTEX
  5
51F3
  8
0
 10
123.2857142857133965
 20
98.2272413359521863
 30
0.0
  0
VERTEX
  5
51F4
  8
0
 10
123.1817731773347049
 20
96.8560344466268361
 30
0.0
  0
VERTEX
  5
51F5
  8
0
 10
122.8919213846031937
 20
95.4848275573014575
 30
0.0
  0
SEQEND
  5
51F6
  8
0
  0
LINE
  5
4C57
  8
0
 10
118.2857142857133965
 20
99.4999999999998295
 30
0.0
 11
118.2857142857133965
 21
80.5000000000000853
 31
0.0
  0
POLYLINE
  5
4C58
  8
0
 66
     1
 10
0.0
 20
0.0
 30
0.0
 70
   128
  0
VERTEX
  5
51F7
  8
0
 10
118.6795071868234999
 20
84.5151724426985425
 30
0.0
  0
VERTEX
  5
51F8
  8
0
 10
118.3905736549539967
 20
87.2452555905433087
 30
0.0
  0
VERTEX
  5
51F9
  8
0
 10
118.2857142857133965
 20
90.0
 30
0.0
  0
SEQEND
  5
51FA
  8
0
  0
POLYLINE
  5
4C59
  8
0
 66
     1
 10
0.0
 20
0.0
 30
0.0
 70
   128
  0
VERTEX
  5
51FB
  8
0
 10
118.2857142857133965
 20
81.7727586640478137
 30
0.0
  0
VERTEX
  5
51FC
  8
0
 10
118.3896553940920029
 20
83.1439655533731923
 30
0.0
  0
VERTEX
  5
51FD
  8
0
 10
118.6795071868234999
 20
84.5151724426985425
 30
0.0
  0
SEQEND
  5
51FE
  8
0
  0
POLYLINE
  5
4C5A
  8
0
 66
     1
 10
0.0
 20
0.0
 30
0.0
 70
   128
  0
VERTEX
  5
51FF
  8
0
 10
118.6795071868234999
 20
95.4848275573014575
 30
0.0
  0
VERTEX
  5
5200
  8
0
 10
118.3905736549539967
 20
96.8498691312238549
 30
0.0
  0
VERTEX
  5
5201
  8
0
 10
118.2857142857133965
 20
98.2272413359521863
 30
0.0
  0
SEQEND
  5
5202
  8
0
  0
POLYLINE
  5
4C5B
  8
0
 66
     1
 10
0.0
 20
0.0
 30
0.0
 70
   128
  0
VERTEX
  5
5203
  8
0
 10
118.2857142857133965
 20
98.2272413359521863
 30
0.0
  0
VERTEX
  5
5204
  8
0
 10
118.3896553940920029
 20
99.5984482252775365
 30
0.0
  0
VERTEX
  5
5205
  8
0
 10
118.6795071868234999
 20
100.9696551146029009
 30
0.0
  0
SEQEND
  5
5206
  8
0
  0
LINE
  5
4C5C
  8
0
 10
122.8919213846032932
 20
100.9696551146029009
 30
0.0
 11
118.6795071868234999
 21
100.9696551146029009
 31
0.0
  0
POLYLINE
  5
4C5D
  8
0
 66
     1
 10
0.0
 20
0.0
 30
0.0
 70
   128
  0
VERTEX
  5
5207
  8
0
 10
122.8919213846032932
 20
100.9696551146029009
 30
0.0
  0
VERTEX
  5
5208
  8
0
 10
123.1808549164726969
 20
99.6046135406805035
 30
0.0
  0
VERTEX
  5
5209
  8
0
 10
123.2857142857133965
 20
98.2272413359521863
 30
0.0
  0
SEQEND
  5
520A
  8
0
  0
LINE
  5
4C5E
  8
0
 10
122.8919213846031937
 20
95.4848275573014575
 30
0.0
 11
118.6795071868234999
 21
95.4848275573014575
 31
0.0
  0
POLYLINE
  5
4C5F
  8
0
 66
     1
 10
0.0
 20
0.0
 30
0.0
 70
   128
  0
VERTEX
  5
520B
  8
0
 10
122.8919213846031937
 20
84.5151724426985425
 30
0.0
  0
VERTEX
  5
520C
  8
0
 10
123.1808549164726969
 20
83.1501308687761593
 30
0.0
  0
VERTEX
  5
520D
  8
0
 10
123.2857142857133965
 20
81.7727586640478137
 30
0.0
  0
SEQEND
  5
520E
  8
0
  0
POLYLINE
  5
4C60
  8
0
 66
     1
 10
0.0
 20
0.0
 30
0.0
 70
   128
  0
VERTEX
  5
520F
  8
0
 10
123.2857142857133965
 20
90.0
 30
0.0
  0
VERTEX
  5
5210
  8
0
 10
123.1760470949525939
 20
87.1815074888914694
 30
0.0
  0
VERTEX
  5
5211
  8
0
 10
122.8919213846031937
 20
84.5151724426985425
 30
0.0
  0
SEQEND
  5
5212
  8
0
  0
LINE
  5
4C61
  8
0
 10
123.285714285713297
 20
99.5000000000002558
 30
0.0
 11
123.2857142857133965
 21
80.4999999999998863
 31
0.0
  0
POLYLINE
  5
4C62
  8
0
 66
     1
 10
0.0
 20
0.0
 30
0.0
 70
   128
  0
VERTEX
  5
5213
  8
0
 10
118.6795071868234999
 20
79.0303448853971133
 30
0.0
  0
VERTEX
  5
5214
  8
0
 10
118.3905736549539967
 20
80.3953864593194965
 30
0.0
  0
VERTEX
  5
5215
  8
0
 10
118.2857142857133965
 20
81.7727586640478137
 30
0.0
  0
SEQEND
  5
5216
  8
0
  0
LINE
  5
4C63
  8
0
 10
122.8919213846031937
 20
84.5151724426985425
 30
0.0
 11
118.6795071868234999
 21
84.5151724426985425
 31
0.0
  0
POLYLINE
  5
4C64
  8
0
 66
     1
 10
0.0
 20
0.0
 30
0.0
 70
   128
  0
VERTEX
  5
5217
  8
0
 10
123.2857142857133965
 20
81.7727586640478137
 30
0.0
  0
VERTEX
  5
5218
  8
0
 10
123.1817731773347049
 20
80.4015517747224635
 30
0.0
  0
VERTEX
  5
5219
  8
0
 10
122.8919213846032932
 20
79.0303448853971133
 30
0.0
  0
SEQEND
  5
521A
  8
0
  0
LINE
  5
4C65
  8
0
 10
122.8919213846032932
 20
79.0303448853971133
 30
0.0
 11
118.6795071868234999
 21
79.0303448853971133
 31
0.0
  0
POLYLINE
  5
4C66
  8
0
 66
     1
 10
0.0
 20
0.0
 30
0.0
 70
   128
  0
VERTEX
  5
521B
  8
0
 10
118.2857142857133965
 20
90.0
 30
0.0
  0
VERTEX
  5
521C
  8
0
 10
118.3953814764740997
 20
92.8184925111085448
 30
0.0
  0
VERTEX
  5
521D
  8
0
 10
118.6795071868234999
 20
95.4848275573014575
 30
0.0
  0
SEQEND
  5
521E
  8
0
  0
POLYLINE
  5
4C67
  8
0
 66
     1
 10
0.0
 20
0.0
 30
0.0
 70
   128
  0
VERTEX
  5
521F
  8
0
 10
73.8523410167818213
 20
94.9074772881118349
 30
0.0
  0
VERTEX
  5
5220
  8
0
 10
73.5938215408986309
 20
96.1288302753055461
 30
0.0
  0
VERTEX
  5
5221
  8
0
 10
73.4999999999991189
 20
97.3612159321677382
 30
0.0
  0
SEQEND
  5
5222
  8
0
  0
POLYLINE
  5
4C68
  8
0
 66
     1
 10
0.0
 20
0.0
 30
0.0
 70
   128
  0
VERTEX
  5
5223
  8
0
 10
73.4999999999991189
 20
97.3612159321677382
 30
0.0
  0
VERTEX
  5
5224
  8
0
 10
73.5929999390747582
 20
98.588085254195704
 30
0.0
  0
VERTEX
  5
5225
  8
0
 10
73.8523410167818213
 20
99.8149545762236556
 30
0.0
  0
SEQEND
  5
5226
  8
0
  0
LINE
  5
4C69
  8
0
 10
78.1476589832164166
 20
99.8149545762236556
 30
0.0
 11
73.8523410167818213
 21
99.8149545762236556
 31
0.0
  0
POLYLINE
  5
4C6A
  8
0
 66
     1
 10
0.0
 20
0.0
 30
0.0
 70
   128
  0
VERTEX
  5
5227
  8
0
 10
78.1476589832164166
 20
99.8149545762236556
 30
0.0
  0
VERTEX
  5
5228
  8
0
 10
78.4061784590996069
 20
98.5936015890299444
 30
0.0
  0
VERTEX
  5
5229
  8
0
 10
78.4999999999991189
 20
97.3612159321677382
 30
0.0
  0
SEQEND
  5
522A
  8
0
  0
POLYLINE
  5
4C6B
  8
0
 66
     1
 10
0.0
 20
0.0
 30
0.0
 70
   128
  0
VERTEX
  5
522B
  8
0
 10
78.4999999999991189
 20
97.3612159321677382
 30
0.0
  0
VERTEX
  5
522C
  8
0
 10
78.4070000609234654
 20
96.134346610139815
 30
0.0
  0
VERTEX
  5
522D
  8
0
 10
78.1476589832163597
 20
94.9074772881118349
 30
0.0
  0
SEQEND
  5
522E
  8
0
  0
LINE
  5
4C6C
  8
0
 10
78.1476589832163597
 20
94.9074772881118349
 30
0.0
 11
73.8523410167818213
 21
94.9074772881118349
 31
0.0
  0
POLYLINE
  5
4C6D
  8
0
 66
     1
 10
0.0
 20
0.0
 30
0.0
 70
   128
  0
VERTEX
  5
522F
  8
0
 10
78.1476589832163597
 20
94.9074772881118349
 30
0.0
  0
VERTEX
  5
5230
  8
0
 10
78.4061784590995501
 20
92.4647713137244267
 30
0.0
  0
VERTEX
  5
5231
  8
0
 10
78.4999999999990621
 20
90.0
 30
0.0
  0
SEQEND
  5
5232
  8
0
  0
LINE
  5
4C6E
  8
0
 10
78.4999999999991189
 20
98.4999999999998863
 30
0.0
 11
78.4999999999989342
 21
81.4999999999994316
 31
0.0
  0
POLYLINE
  5
4C6F
  8
0
 66
     1
 10
0.0
 20
0.0
 30
0.0
 70
   128
  0
VERTEX
  5
5233
  8
0
 10
73.8523410167818213
 20
85.0925227118881651
 30
0.0
  0
VERTEX
  5
5234
  8
0
 10
73.5938215408985741
 20
87.5352286862755875
 30
0.0
  0
VERTEX
  5
5235
  8
0
 10
73.4999999999990621
 20
90.0
 30
0.0
  0
SEQEND
  5
5236
  8
0
  0
POLYLINE
  5
4C70
  8
0
 66
     1
 10
0.0
 20
0.0
 30
0.0
 70
   128
  0
VERTEX
  5
5237
  8
0
 10
73.4999999999990621
 20
90.0
 30
0.0
  0
VERTEX
  5
5238
  8
0
 10
73.5981230436911034
 20
92.5218060414662489
 30
0.0
  0
VERTEX
  5
5239
  8
0
 10
73.8523410167818213
 20
94.9074772881118349
 30
0.0
  0
SEQEND
  5
523A
  8
0
  0
POLYLINE
  5
4C71
  8
0
 66
     1
 10
0.0
 20
0.0
 30
0.0
 70
   128
  0
VERTEX
  5
523B
  8
0
 10
78.4999999999990621
 20
90.0
 30
0.0
  0
VERTEX
  5
523C
  8
0
 10
78.4018769563070634
 20
87.4781939585337796
 30
0.0
  0
VERTEX
  5
523D
  8
0
 10
78.1476589832163597
 20
85.0925227118881651
 30
0.0
  0
SEQEND
  5
523E
  8
0
  0
LINE
  5
4C72
  8
0
 10
78.1476589832163597
 20
85.0925227118881651
 30
0.0
 11
73.8523410167818213
 21
85.0925227118881651
 31
0.0
  0
POLYLINE
  5
4C73
  8
0
 66
     1
 10
0.0
 20
0.0
 30
0.0
 70
   128
  0
VERTEX
  5
523F
  8
0
 10
78.1476589832163597
 20
85.0925227118881651
 30
0.0
  0
VERTEX
  5
5240
  8
0
 10
78.4061784590995501
 20
83.8711697246944681
 30
0.0
  0
VERTEX
  5
5241
  8
0
 10
78.4999999999991189
 20
82.6387840678322476
 30
0.0
  0
SEQEND
  5
5242
  8
0
  0
LINE
  5
4C74
  8
0
 10
73.4999999999990621
 20
98.4999999999998863
 30
0.0
 11
73.4999999999990621
 21
81.5000000000001421
 31
0.0
  0
POLYLINE
  5
4C75
  8
0
 66
     1
 10
0.0
 20
0.0
 30
0.0
 70
   128
  0
VERTEX
  5
5243
  8
0
 10
73.8523410167818213
 20
80.1850454237763586
 30
0.0
  0
VERTEX
  5
5244
  8
0
 10
73.5938215408986309
 20
81.4063984109700982
 30
0.0
  0
VERTEX
  5
5245
  8
0
 10
73.4999999999991189
 20
82.6387840678322476
 30
0.0
  0
SEQEND
  5
5246
  8
0
  0
POLYLINE
  5
4C76
  8
0
 66
     1
 10
0.0
 20
0.0
 30
0.0
 70
   128
  0
VERTEX
  5
5247
  8
0
 10
73.4999999999991189
 20
82.6387840678322476
 30
0.0
  0
VERTEX
  5
5248
  8
0
 10
73.5929999390747014
 20
83.8656533898602135
 30
0.0
  0
VERTEX
  5
5249
  8
0
 10
73.8523410167818213
 20
85.0925227118881651
 30
0.0
  0
SEQEND
  5
524A
  8
0
  0
POLYLINE
  5
4C77
  8
0
 66
     1
 10
0.0
 20
0.0
 30
0.0
 70
   128
  0
VERTEX
  5
524B
  8
0
 10
78.4999999999991189
 20
82.6387840678322476
 30
0.0
  0
VERTEX
  5
524C
  8
0
 10
78.4070000609234654
 20
81.4119147458043244
 30
0.0
  0
VERTEX
  5
524D
  8
0
 10
78.1476589832164166
 20
80.1850454237763586
 30
0.0
  0
SEQEND
  5
524E
  8
0
  0
LINE
  5
4C78
  8
0
 10
78.1476589832164166
 20
80.1850454237763586
 30
0.0
 11
73.8523410167818213
 21
80.1850454237763586
 31
0.0
  0
LINE
  5
4C79
  8
0
 10
114.7669999999991006
 20
96.0
 30
0.0
 11
114.7669999999991006
 21
84.0
 31
0.0
  0
LINE
  5
4C7A
  8
0
 10
143.2329999999990946
 20
96.0
 30
0.0
 11
143.2329999999990946
 21
84.0
 31
0.0
  0
LINE
  5
4C7B
  8
0
 10
113.9999999999991047
 20
95.2330000000000467
 30
0.0
 11
113.9999999999991047
 21
84.7669999999999959
 31
0.0
  0
LINE
  5
4C7C
  8
0
 10
69.9999999999991189
 20
93.2878679656440397
 30
0.0
 11
69.9999999999991189
 21
86.7121320343559745
 31
0.0
  0
LINE
  5
4C7D
  8
0
 10
70.2121320343550508
 20
93.4999999999999858
 30
0.0
 11
70.2121320343550508
 21
86.5
 31
0.0
  0
LINE
  5
4C7E
  8
0
 10
99.636945606946
 20
95.1294095225512564
 30
0.0
 11
99.3343212374543612
 21
94.0
 31
0.0
  0
LINE
  5
4C7F
  8
0
 10
97.9629171731893535
 20
85.0181470493002536
 30
0.0
 11
98.2260038784154546
 21
86.0
 31
0.0
  0
POLYLINE
  5
4C80
  8
0
 66
     1
 10
0.0
 20
0.0
 30
0.0
  0
VERTEX
  5
524F
  8
0
 10
99.6370241552870368
 20
95.1293612516352454
 30
0.0
  0
VERTEX
  5
5250
  8
0
 10
99.6296062444119173
 20
95.097539553418585
 30
0.0
  0
VERTEX
  5
5251
  8
0
 10
99.6199999999991235
 20
95.0000000000521538
 30
0.0
  0
VERTEX
  5
5252
  8
0
 10
99.6296062443915673
 20
94.9024604466837047
 30
0.0
  0
VERTEX
  5
5253
  8
0
 10
99.6370310370607939
 20
94.8706130576979376
 30
0.0
  0
SEQEND
  5
5254
  8
0
  0
ARC
  5
4C81
  8
0
 10
97.4799542600448206
 20
85.1475565718515099
 30
0.0
 40
0.5000000000000029
 50
194.9999999999992042
 51
14.9999999999985203
  0
LINE
  5
4C82
  8
0
 10
104.9169456069460011
 20
95.1294095225512564
 30
0.0
 11
104.6143212374544049
 21
94.0
 31
0.0
  0
LINE
  5
4C83
  8
0
 10
103.2429171731892978
 20
85.0181470493002536
 30
0.0
 11
103.5060038784154983
 21
86.0
 31
0.0
  0
POLYLINE
  5
4C84
  8
0
 66
     1
 10
0.0
 20
0.0
 30
0.0
  0
VERTEX
  5
5255
  8
0
 10
104.9170241552869953
 20
95.129361251635288
 30
0.0
  0
VERTEX
  5
5256
  8
0
 10
104.9096062444100994
 20
95.0975395534092911
 30
0.0
  0
VERTEX
  5
5257
  8
0
 10
104.8999999999990962
 20
95.000000000042661
 30
0.0
  0
VERTEX
  5
5258
  8
0
 10
104.9096062443934017
 20
94.902460446674425
 30
0.0
  0
VERTEX
  5
5259
  8
0
 10
104.9170310370606956
 20
94.870613057697966
 30
0.0
  0
SEQEND
  5
525A
  8
0
  0
ARC
  5
4C85
  8
0
 10
102.7599542600447933
 20
85.1475565718515099
 30
0.0
 40
0.5000000000000056
 50
194.9999999999984936
 51
14.9999999999992593
  0
LINE
  5
4C86
  8
0
 10
94.3569456069460273
 20
95.1294095225512564
 30
0.0
 11
94.0543212374543884
 21
94.0
 31
0.0
  0
LINE
  5
4C87
  8
0
 10
92.682917173189395
 20
85.0181470493002536
 30
0.0
 11
92.946003878415496
 21
86.0
 31
0.0
  0
POLYLINE
  5
4C88
  8
0
 66
     1
 10
0.0
 20
0.0
 30
0.0
  0
VERTEX
  5
525B
  8
0
 10
94.3570241552870641
 20
95.1293612516353164
 30
0.0
  0
VERTEX
  5
525C
  8
0
 10
94.3496062444045549
 20
95.0975395533813952
 30
0.0
  0
VERTEX
  5
525D
  8
0
 10
94.3399999999991508
 20
95.0000000000142109
 30
0.0
  0
VERTEX
  5
525E
  8
0
 10
94.3496062443989842
 20
94.9024604466464865
 30
0.0
  0
VERTEX
  5
525F
  8
0
 10
94.357031037060807
 20
94.8706130576979945
 30
0.0
  0
SEQEND
  5
5260
  8
0
  0
ARC
  5
4C89
  8
0
 10
92.1999542600448478
 20
85.1475565718515099
 30
0.0
 40
0.4999999999999988
 50
194.9999999999984936
 51
14.9999999999992593
  0
LINE
  5
4C8A
  8
0
 10
89.0769456069459835
 20
95.1294095225512564
 30
0.0
 11
88.7743212374544157
 21
94.0
 31
0.0
  0
LINE
  5
4C8B
  8
0
 10
87.4029171731893655
 20
85.0181470493002536
 30
0.0
 11
87.6660038784154665
 21
86.0
 31
0.0
  0
POLYLINE
  5
4C8C
  8
0
 66
     1
 10
0.0
 20
0.0
 30
0.0
  0
VERTEX
  5
5261
  8
0
 10
89.0770241552870345
 20
95.1293612516353164
 30
0.0
  0
VERTEX
  5
5262
  8
0
 10
89.0696062444045253
 20
95.0975395533813952
 30
0.0
  0
VERTEX
  5
5263
  8
0
 10
89.059999999999107
 20
95.0000000000142109
 30
0.0
  0
VERTEX
  5
5264
  8
0
 10
89.0696062443990257
 20
94.9024604466464865
 30
0.0
  0
VERTEX
  5
5265
  8
0
 10
89.0770310370607774
 20
94.8706130576979945
 30
0.0
  0
SEQEND
  5
5266
  8
0
  0
ARC
  5
4C8D
  8
0
 10
86.9199542600448041
 20
85.1475565718515099
 30
0.0
 40
0.4999999999999988
 50
194.9999999999984936
 51
14.9999999999992593
  0
LINE
  5
4C8E
  8
0
 10
83.796945606946025
 20
95.1294095225512564
 30
0.0
 11
83.4943212374543862
 21
94.0
 31
0.0
  0
LINE
  5
4C8F
  8
0
 10
82.1229171731893359
 20
85.0181470493002536
 30
0.0
 11
82.3860038784154938
 21
86.0
 31
0.0
  0
POLYLINE
  5
4C90
  8
0
 66
     1
 10
0.0
 20
0.0
 30
0.0
  0
VERTEX
  5
5267
  8
0
 10
83.797024155287005
 20
95.129361251635288
 30
0.0
  0
VERTEX
  5
5268
  8
0
 10
83.789606244407338
 20
95.097539553395336
 30
0.0
  0
VERTEX
  5
5269
  8
0
 10
83.7799999999990916
 20
95.0000000000284501
 30
0.0
  0
VERTEX
  5
526A
  8
0
 10
83.7896062443961966
 20
94.9024604466604558
 30
0.0
  0
VERTEX
  5
526B
  8
0
 10
83.7970310370607478
 20
94.870613057697966
 30
0.0
  0
SEQEND
  5
526C
  8
0
  0
ARC
  5
4C91
  8
0
 10
81.6399542600448456
 20
85.1475565718515099
 30
0.0
 40
0.5000000000000009
 50
194.9999999999992042
 51
14.9999999999985203
  0
LINE
  5
4C92
  8
0
 10
110.1969456069460023
 20
95.1294095225512564
 30
0.0
 11
109.8943212374543066
 21
94.0
 31
0.0
  0
LINE
  5
4C93
  8
0
 10
108.5229171731893985
 20
85.0181470493002536
 30
0.0
 11
108.7860038784154995
 21
86.0
 31
0.0
  0
POLYLINE
  5
4C94
  8
0
 66
     1
 10
0.0
 20
0.0
 30
0.0
  0
VERTEX
  5
526D
  8
0
 10
110.1970241552869965
 20
95.1293612516353164
 30
0.0
  0
VERTEX
  5
526E
  8
0
 10
110.1896062444054962
 20
95.0975395533860421
 30
0.0
  0
VERTEX
  5
526F
  8
0
 10
110.1799999999990973
 20
95.0000000000189431
 30
0.0
  0
VERTEX
  5
5270
  8
0
 10
110.1896062443979929
 20
94.9024604466511619
 30
0.0
  0
VERTEX
  5
5271
  8
0
 10
110.1970310370606967
 20
94.8706130576979945
 30
0.0
  0
SEQEND
  5
5272
  8
0
  0
ARC
  5
4C95
  8
0
 10
108.0399542600447944
 20
85.1475565718515099
 30
0.0
 40
0.5000000000000062
 50
194.9999999999984936
 51
14.9999999999985203
  0
LINE
  5
4C96
  8
0
 10
79.4999999999991189
 20
90.0
 30
0.0
 11
78.4999999999991189
 21
90.0
 31
0.0
  0
LINE
  5
4C97
  8
0
 10
79.4999999999991189
 20
85.0
 30
0.0
 11
79.4999999999991189
 21
90.0
 31
0.0
  0
ARC
  5
4C98
  8
0
 10
78.9999999999991189
 20
85.0
 30
0.0
 40
0.5
 50
180.0
 51
0.0
  0
ARC
  5
4C99
  8
0
 10
78.9999999999991189
 20
95.0000000000001137
 30
0.0
 40
0.4999999999999993
 50
14.9999999999866205
 51
195.0000000000111129
  0
POLYLINE
  5
4C9A
  8
0
 66
     1
 10
0.0
 20
0.0
 30
0.0
  0
VERTEX
  5
5273
  8
0
 10
100.1199542600970034
 20
95.4999999979078353
 30
0.0
  0
VERTEX
  5
5274
  8
0
 10
100.0224155859149988
 20
95.4903848306461498
 30
0.0
  0
VERTEX
  5
5275
  8
0
 10
99.9286265906593769
 20
95.4619266372462931
 30
0.0
  0
VERTEX
  5
5276
  8
0
 10
99.8421911143729233
 20
95.4157189231525535
 30
0.0
  0
VERTEX
  5
5277
  8
0
 10
99.7664304382966236
 20
95.3535372187443357
 30
0.0
  0
VERTEX
  5
5278
  8
0
 10
99.7042556647125195
 20
95.2777708546214228
 30
0.0
  0
VERTEX
  5
5279
  8
0
 10
99.6580558579035198
 20
95.1913311516287592
 30
0.0
  0
VERTEX
  5
527A
  8
0
 10
99.6370241552870368
 20
95.1293612516352454
 30
0.0
  0
SEQEND
  5
527B
  8
0
  0
POLYLINE
  5
4C9B
  8
0
 66
     1
 10
0.0
 20
0.0
 30
0.0
  0
VERTEX
  5
527C
  8
0
 10
100.1199542600970034
 20
95.4999999979078353
 30
0.0
  0
VERTEX
  5
527D
  8
0
 10
100.2174929342769047
 20
95.4903848306257856
 30
0.0
  0
VERTEX
  5
527E
  8
0
 10
100.3112819295266007
 20
95.4619266372064033
 30
0.0
  0
VERTEX
  5
527F
  8
0
 10
100.3977174058034052
 20
95.4157189230946159
 30
0.0
  0
VERTEX
  5
5280
  8
0
 10
100.4734780818668014
 20
95.353537218670624
 30
0.0
  0
VERTEX
  5
5281
  8
0
 10
100.535652855435103
 20
95.277770854534694
 30
0.0
  0
VERTEX
  5
5282
  8
0
 10
100.5818526622259981
 20
95.1913311515324096
 30
0.0
  0
VERTEX
  5
5283
  8
0
 10
100.6028843648026054
 20
95.1293612516353875
 30
0.0
  0
SEQEND
  5
5284
  8
0
  0
LINE
  5
4C9C
  8
0
 10
103.2429171731892978
 20
85.2769660944027379
 30
0.0
 11
100.6029629131436991
 21
95.1294095225512422
 31
0.0
  0
LINE
  5
4C9D
  8
0
 10
99.6370370868545763
 20
94.8705904774487294
 30
0.0
 11
102.2769913469002034
 21
85.0181470493002536
 31
0.0
  0
POLYLINE
  5
4C9E
  8
0
 66
     1
 10
0.0
 20
0.0
 30
0.0
  0
VERTEX
  5
5285
  8
0
 10
110.6799542600637949
 20
95.4999999979078353
 30
0.0
  0
VERTEX
  5
5286
  8
0
 10
110.5824155858825009
 20
95.4903848306396981
 30
0.0
  0
VERTEX
  5
5287
  8
0
 10
110.488626590628698
 20
95.4619266372336313
 30
0.0
  0
VERTEX
  5
5288
  8
0
 10
110.4021911143452996
 20
95.4157189231341079
 30
0.0
  0
VERTEX
  5
5289
  8
0
 10
110.3264304382731069
 20
95.3535372187208878
 30
0.0
  0
VERTEX
  5
528A
  8
0
 10
110.2642556646941046
 20
95.2777708545938253
 30
0.0
  0
VERTEX
  5
528B
  8
0
 10
110.2180558578909029
 20
95.1913311515981206
 30
0.0
  0
VERTEX
  5
528C
  8
0
 10
110.1970241552869965
 20
95.1293612516353164
 30
0.0
  0
SEQEND
  5
528D
  8
0
  0
POLYLINE
  5
4C9F
  8
0
 66
     1
 10
0.0
 20
0.0
 30
0.0
  0
VERTEX
  5
528E
  8
0
 10
110.6799542600637949
 20
95.4999999979078353
 30
0.0
  0
VERTEX
  5
528F
  8
0
 10
110.7774929342444068
 20
95.4903848306322658
 30
0.0
  0
VERTEX
  5
5290
  8
0
 10
110.871281929496007
 20
95.4619266372190935
 30
0.0
  0
VERTEX
  5
5291
  8
0
 10
110.9577174057758953
 20
95.4157189231130474
 30
0.0
  0
VERTEX
  5
5292
  8
0
 10
111.0334780818432989
 20
95.3535372186941146
 30
0.0
  0
VERTEX
  5
5293
  8
0
 10
111.0956528554166027
 20
95.2777708545623057
 30
0.0
  0
VERTEX
  5
5294
  8
0
 10
111.1418526622132958
 20
95.1913311515630767
 30
0.0
  0
VERTEX
  5
5295
  8
0
 10
111.1628843648025935
 20
95.1293612516353448
 30
0.0
  0
SEQEND
  5
5296
  8
0
  0
LINE
  5
4CA0
  8
0
 10
113.8029171731893996
 20
85.2769660944027805
 30
0.0
 11
111.1629629131436019
 21
95.1294095225512564
 31
0.0
  0
LINE
  5
4CA1
  8
0
 10
110.1970370868544933
 20
94.8705904774487294
 30
0.0
 11
112.8369913469003052
 21
85.0181470493002536
 31
0.0
  0
ARC
  5
4CA2
  8
0
 10
113.3199542600447955
 20
85.1475565718517657
 30
0.0
 40
0.5000000000000044
 50
195.0000000000308091
 51
14.9999999999691607
  0
POLYLINE
  5
4CA3
  8
0
 66
     1
 10
0.0
 20
0.0
 30
0.0
  0
VERTEX
  5
5297
  8
0
 10
105.3999542600874975
 20
95.4999999979078353
 30
0.0
  0
VERTEX
  5
5298
  8
0
 10
105.3024155859057061
 20
95.4903848306443024
 30
0.0
  0
VERTEX
  5
5299
  8
0
 10
105.2086265906505957
 20
95.4619266372426836
 30
0.0
  0
VERTEX
  5
529A
  8
0
 10
105.1221911143649947
 20
95.4157189231472955
 30
0.0
  0
VERTEX
  5
529B
  8
0
 10
105.046430438289903
 20
95.3535372187376566
 30
0.0
  0
VERTEX
  5
529C
  8
0
 10
104.9842556647072058
 20
95.2777708546135216
 30
0.0
  0
VERTEX
  5
529D
  8
0
 10
104.9380558578998972
 20
95.1913311516200054
 30
0.0
  0
VERTEX
  5
529E
  8
0
 10
104.9170241552869953
 20
95.129361251635288
 30
0.0
  0
SEQEND
  5
529F
  8
0
  0
POLYLINE
  5
4CA4
  8
0
 66
     1
 10
0.0
 20
0.0
 30
0.0
  0
VERTEX
  5
52A0
  8
0
 10
105.3999542600874975
 20
95.4999999979078353
 30
0.0
  0
VERTEX
  5
52A1
  8
0
 10
105.4974929342675978
 20
95.4903848306276757
 30
0.0
  0
VERTEX
  5
52A2
  8
0
 10
105.5912819295178053
 20
95.4619266372100412
 30
0.0
  0
VERTEX
  5
52A3
  8
0
 10
105.6777174057955051
 20
95.4157189230998739
 30
0.0
  0
VERTEX
  5
52A4
  8
0
 10
105.753478081860095
 20
95.3535372186773458
 30
0.0
  0
VERTEX
  5
52A5
  8
0
 10
105.8156528554298035
 20
95.2777708545425952
 30
0.0
  0
VERTEX
  5
52A6
  8
0
 10
105.8618526622224039
 20
95.191331151541192
 30
0.0
  0
VERTEX
  5
52A7
  8
0
 10
105.8828843648026066
 20
95.1293612516353733
 30
0.0
  0
SEQEND
  5
52A8
  8
0
  0
LINE
  5
4CA5
  8
0
 10
108.5229171731893985
 20
85.2769660944027805
 30
0.0
 11
105.8829629131436008
 21
95.1294095225512422
 31
0.0
  0
LINE
  5
4CA6
  8
0
 10
104.9170370868545064
 20
94.8705904774487294
 30
0.0
 11
107.5569913469003041
 21
85.0181470493002536
 31
0.0
  0
LINE
  5
4CA7
  8
0
 10
82.1229171731893359
 20
85.2769660944027805
 30
0.0
 11
79.4829629131436661
 21
95.1294095225512564
 31
0.0
  0
LINE
  5
4CA8
  8
0
 10
78.5170370868545717
 20
94.8705904774487294
 30
0.0
 11
81.1569913469002984
 21
85.0181470493002536
 31
0.0
  0
POLYLINE
  5
4CA9
  8
0
 66
     1
 10
0.0
 20
0.0
 30
0.0
  0
VERTEX
  5
52A9
  8
0
 10
84.2799542600733105
 20
95.4999999979078353
 30
0.0
  0
VERTEX
  5
52AA
  8
0
 10
84.1824155858917749
 20
95.4903848306415455
 30
0.0
  0
VERTEX
  5
52AB
  8
0
 10
84.0886265906374604
 20
95.4619266372372408
 30
0.0
  0
VERTEX
  5
52AC
  8
0
 10
84.0021911143532236
 20
95.4157189231393943
 30
0.0
  0
VERTEX
  5
52AD
  8
0
 10
83.926430438279823
 20
95.3535372187276096
 30
0.0
  0
VERTEX
  5
52AE
  8
0
 10
83.8642556646993569
 20
95.2777708546016981
 30
0.0
  0
VERTEX
  5
52AF
  8
0
 10
83.8180558578945067
 20
95.1913311516068745
 30
0.0
  0
VERTEX
  5
52B0
  8
0
 10
83.797024155287005
 20
95.129361251635288
 30
0.0
  0
SEQEND
  5
52B1
  8
0
  0
POLYLINE
  5
4CAA
  8
0
 66
     1
 10
0.0
 20
0.0
 30
0.0
  0
VERTEX
  5
52B2
  8
0
 10
84.2799542600733105
 20
95.4999999979078353
 30
0.0
  0
VERTEX
  5
52B3
  8
0
 10
84.3774929342536382
 20
95.4903848306304326
 30
0.0
  0
VERTEX
  5
52B4
  8
0
 10
84.4712819295047268
 20
95.4619266372154556
 30
0.0
  0
VERTEX
  5
52B5
  8
0
 10
84.557717405783734
 20
95.4157189231077894
 30
0.0
  0
VERTEX
  5
52B6
  8
0
 10
84.6334780818500292
 20
95.3535372186873929
 30
0.0
  0
VERTEX
  5
52B7
  8
0
 10
84.6956528554219119
 20
95.2777708545544044
 30
0.0
  0
VERTEX
  5
52B8
  8
0
 10
84.741852662216985
 20
95.1913311515543086
 30
0.0
  0
VERTEX
  5
52B9
  8
0
 10
84.762884364802602
 20
95.1293612516353733
 30
0.0
  0
SEQEND
  5
52BA
  8
0
  0
LINE
  5
4CAB
  8
0
 10
87.4029171731893655
 20
85.2769660944027379
 30
0.0
 11
84.7629629131436388
 21
95.1294095225512564
 31
0.0
  0
LINE
  5
4CAC
  8
0
 10
83.7970370868545444
 20
94.8705904774487294
 30
0.0
 11
86.4369913469003279
 21
85.0181470493002536
 31
0.0
  0
POLYLINE
  5
4CAD
  8
0
 66
     1
 10
0.0
 20
0.0
 30
0.0
  0
VERTEX
  5
52BB
  8
0
 10
94.8399542600590451
 20
95.4999999979078353
 30
0.0
  0
VERTEX
  5
52BC
  8
0
 10
94.7424155858778079
 20
95.4903848306387601
 30
0.0
  0
VERTEX
  5
52BD
  8
0
 10
94.6486265906243318
 20
95.4619266372317981
 30
0.0
  0
VERTEX
  5
52BE
  8
0
 10
94.5621911143413456
 20
95.4157189231314788
 30
0.0
  0
VERTEX
  5
52BF
  8
0
 10
94.4864304382698066
 20
95.3535372187175483
 30
0.0
  0
VERTEX
  5
52C0
  8
0
 10
94.4242556646914437
 20
95.2777708545898747
 30
0.0
  0
VERTEX
  5
52C1
  8
0
 10
94.3780558578890663
 20
95.1913311515937437
 30
0.0
  0
VERTEX
  5
52C2
  8
0
 10
94.3570241552870641
 20
95.1293612516353164
 30
0.0
  0
SEQEND
  5
52C3
  8
0
  0
POLYLINE
  5
4CAE
  8
0
 66
     1
 10
0.0
 20
0.0
 30
0.0
  0
VERTEX
  5
52C4
  8
0
 10
94.8399542600590451
 20
95.4999999979078353
 30
0.0
  0
VERTEX
  5
52C5
  8
0
 10
94.9374929342397138
 20
95.4903848306332179
 30
0.0
  0
VERTEX
  5
52C6
  8
0
 10
95.0312819294915982
 20
95.4619266372209268
 30
0.0
  0
VERTEX
  5
52C7
  8
0
 10
95.1177174057719697
 20
95.4157189231156906
 30
0.0
  0
VERTEX
  5
52C8
  8
0
 10
95.1934780818399702
 20
95.3535372186974541
 30
0.0
  0
VERTEX
  5
52C9
  8
0
 10
95.2556528554140129
 20
95.2777708545662279
 30
0.0
  0
VERTEX
  5
52CA
  8
0
 10
95.3018526622114734
 20
95.1913311515674536
 30
0.0
  0
VERTEX
  5
52CB
  8
0
 10
95.3228843648026043
 20
95.1293612516353448
 30
0.0
  0
SEQEND
  5
52CC
  8
0
  0
LINE
  5
4CAF
  8
0
 10
97.9629171731893535
 20
85.2769660944027805
 30
0.0
 11
95.3229629131436553
 21
95.1294095225512564
 31
0.0
  0
LINE
  5
4CB0
  8
0
 10
94.3570370868546036
 20
94.8705904774487294
 30
0.0
 11
96.9969913469002734
 21
85.0181470493002536
 31
0.0
  0
POLYLINE
  5
4CB1
  8
0
 66
     1
 10
0.0
 20
0.0
 30
0.0
  0
VERTEX
  5
52CD
  8
0
 10
89.5599542600590723
 20
95.4999999979078353
 30
0.0
  0
VERTEX
  5
52CE
  8
0
 10
89.4624155858778352
 20
95.4903848306387601
 30
0.0
  0
VERTEX
  5
52CF
  8
0
 10
89.3686265906243591
 20
95.4619266372317981
 30
0.0
  0
VERTEX
  5
52D0
  8
0
 10
89.2821911143413587
 20
95.4157189231314788
 30
0.0
  0
VERTEX
  5
52D1
  8
0
 10
89.2064304382697912
 20
95.3535372187175483
 30
0.0
  0
VERTEX
  5
52D2
  8
0
 10
89.1442556646914284
 20
95.2777708545898747
 30
0.0
  0
VERTEX
  5
52D3
  8
0
 10
89.0980558578890225
 20
95.1913311515937437
 30
0.0
  0
VERTEX
  5
52D4
  8
0
 10
89.0770241552870345
 20
95.1293612516353164
 30
0.0
  0
SEQEND
  5
52D5
  8
0
  0
POLYLINE
  5
4CB2
  8
0
 66
     1
 10
0.0
 20
0.0
 30
0.0
  0
VERTEX
  5
52D6
  8
0
 10
89.5599542600590723
 20
95.4999999979078353
 30
0.0
  0
VERTEX
  5
52D7
  8
0
 10
89.6574929342397269
 20
95.4903848306332179
 30
0.0
  0
VERTEX
  5
52D8
  8
0
 10
89.7512819294915545
 20
95.4619266372209268
 30
0.0
  0
VERTEX
  5
52D9
  8
0
 10
89.8377174057719543
 20
95.4157189231156906
 30
0.0
  0
VERTEX
  5
52DA
  8
0
 10
89.9134780818399264
 20
95.3535372186974257
 30
0.0
  0
VERTEX
  5
52DB
  8
0
 10
89.9756528554139834
 20
95.2777708545662279
 30
0.0
  0
VERTEX
  5
52DC
  8
0
 10
90.0218526622115007
 20
95.1913311515674536
 30
0.0
  0
VERTEX
  5
52DD
  8
0
 10
90.0428843648026458
 20
95.1293612516353448
 30
0.0
  0
SEQEND
  5
52DE
  8
0
  0
LINE
  5
4CB3
  8
0
 10
92.682917173189395
 20
85.2769660944027379
 30
0.0
 11
90.0429629131436116
 21
95.1294095225512564
 31
0.0
  0
LINE
  5
4CB4
  8
0
 10
89.077037086854574
 20
94.8705904774487294
 30
0.0
 11
91.7169913469003006
 21
85.0181470493002536
 31
0.0
  0
LINE
  5
4CB5
  8
0
 10
112.8199542600447955
 20
95.3475565718514844
 30
0.0
 11
112.8199542600447955
 21
90.2475565718515043
 31
0.0
  0
LINE
  5
4CB6
  8
0
 10
113.8199542600447955
 20
90.2475565718515043
 30
0.0
 11
113.8199542600447955
 21
95.3475565718514844
 31
0.0
  0
LINE
  5
4CB7
  8
0
 10
113.8199542600447955
 20
85.1475565718515099
 30
0.0
 11
113.8199542600447955
 21
86.0
 31
0.0
  0
ARC
  5
4CB8
  8
0
 10
113.3199542600447955
 20
95.3475565718514844
 30
0.0
 40
0.5
 50
0.0
 51
180.0
  0
LINE
  5
4CB9
  8
0
 10
112.8199542600447955
 20
90.2475565718515043
 30
0.0
 11
113.8199542600447955
 21
90.2475565718515043
 31
0.0
  0
LINE
  5
4CBA
  8
1
 10
66.9999999999991189
 20
90.0
 30
0.0
 11
159.5999999999989996
 21
90.0
 31
0.0
  0
LINE
  5
4CBB
  8
3
 10
113.9999999999991047
 20
95.0530000000000541
 30
0.0
 11
118.2857142857133965
 21
95.0530000000000257
 31
0.0
  0
LINE
  5
4CBC
  8
3
 10
123.2857142857133965
 20
95.0530000000000257
 30
0.0
 11
133.9999999999990052
 21
95.0529999999999973
 31
0.0
  0
LINE
  5
4CBD
  8
3
 10
138.9999999999990052
 20
95.0529999999999973
 30
0.0
 11
143.9999999999990905
 21
95.0529999999999973
 31
0.0
  0
LINE
  5
4CBE
  8
3
 10
113.9999999999991047
 20
84.9469999999999743
 30
0.0
 11
118.2857142857133965
 21
84.9469999999999743
 31
0.0
  0
LINE
  5
4CBF
  8
3
 10
123.2857142857133965
 20
84.9469999999999459
 30
0.0
 11
133.9999999999990052
 21
84.9469999999999459
 31
0.0
  0
LINE
  5
4CC0
  8
3
 10
138.9999999999990905
 20
84.9469999999999459
 30
0.0
 11
143.9999999999990905
 21
84.9469999999999459
 31
0.0
  0
LINE
  5
4CC1
  8
0
 10
145.9999999999990052
 20
104.9500000000002018
 30
0.0
 11
145.9999999999990052
 21
108.6464466094069934
 31
0.0
  0
LINE
  5
4CC2
  8
0
 10
156.2999999999989882
 20
108.6464466094069934
 30
0.0
 11
156.2999999999989882
 21
104.9500000000003013
 31
0.0
  0
LINE
  5
4CC3
  8
0
 10
145.9999999999990052
 20
108.6464466094069934
 30
0.0
 11
146.3535533905923103
 21
109.0000000000002984
 31
0.0
  0
LINE
  5
4CC4
  8
0
 10
155.9464466094057968
 20
109.0000000000002984
 30
0.0
 11
156.2999999999989882
 21
108.6464466094069934
 31
0.0
  0
LINE
  5
4CC5
  8
0
 10
156.1499999999990109
 20
102.2328427124749055
 30
0.0
 11
155.8671572875244067
 21
101.9500000000003013
 31
0.0
  0
LINE
  5
4CC6
  8
0
 10
146.4328427124737004
 20
101.9500000000002018
 30
0.0
 11
146.1499999999990109
 21
102.2328427124749055
 31
0.0
  0
LINE
  5
4CC7
  8
0
 10
146.1499999999990109
 20
102.2328427124749055
 30
0.0
 11
146.1499999999990109
 21
104.9500000000002018
 31
0.0
  0
LINE
  5
4CC8
  8
0
 10
156.1499999999990109
 20
104.9500000000003013
 30
0.0
 11
156.1499999999990109
 21
102.232842712474806
 31
0.0
  0
LINE
  5
4CC9
  8
0
 10
146.4499999999991076
 20
95.5000000000002558
 30
0.0
 11
146.4499999999991076
 21
96.9500000000002871
 31
0.0
  0
LINE
  5
4CCA
  8
0
 10
155.8499999999991132
 20
96.9500000000003013
 30
0.0
 11
155.8499999999991132
 21
95.5000000000002984
 31
0.0
  0
LINE
  5
4CCB
  8
0
 10
147.1499999999990962
 20
96.9500000000002871
 30
0.0
 11
147.1499999999990962
 21
97.4500000000002728
 31
0.0
  0
LINE
  5
4CCC
  8
0
 10
155.1499999999990962
 20
97.4500000000003155
 30
0.0
 11
155.1499999999990962
 21
96.9500000000003013
 31
0.0
  0
LINE
  5
4CCD
  8
0
 10
147.8999999999990109
 20
100.9500000000002018
 30
0.0
 11
147.8999999999990109
 21
101.9500000000002018
 31
0.0
  0
LINE
  5
4CCE
  8
0
 10
154.3999999999990109
 20
101.9500000000003013
 30
0.0
 11
154.3999999999990109
 21
100.9500000000003013
 31
0.0
  0
LINE
  5
4CCF
  8
0
 10
149.1499999999990109
 20
109.0000000000002984
 30
0.0
 11
149.4179491924301999
 21
110.0000000000002984
 31
0.0
  0
LINE
  5
4CD0
  8
0
 10
152.8820508075679072
 20
110.0000000000002984
 30
0.0
 11
153.1499999999990109
 21
109.0000000000002984
 31
0.0
  0
LINE
  5
4CD1
  8
0
 10
151.1499999999986983
 20
100.7426319813325932
 30
0.0
 11
151.1499999999994088
 21
97.657266847834876
 31
0.0
  0
ARC
  5
4CD2
  8
0
 10
148.6853571125344899
 20
85.442560070486735
 30
0.0
 40
15.4973115423219205
 50
80.8490067264055909
 51
99.6033367921246366
  0
LINE
  5
4CD3
  8
0
 10
146.0999999999991132
 20
100.9500000000002018
 30
0.0
 11
146.0999999999989996
 21
97.4500000000002728
 31
0.0
  0
ARC
  5
4CD4
  8
0
 10
148.6853548694130041
 20
112.9563684613945043
 30
0.0
 40
15.4963539518735196
 50
260.3960725645808907
 51
279.1515720141192105
  0
LINE
  5
4CD5
  8
0
 10
156.0999999999991132
 20
100.9500000000003013
 30
0.0
 11
156.0999999999991132
 21
97.4500000000003155
 31
0.0
  0
POLYLINE
  5
4CD6
  8
0
 66
     1
 10
0.0
 20
0.0
 30
0.0
 70
   128
  0
VERTEX
  5
52DF
  8
0
 10
154.0699710972992023
 20
100.9500000000003013
 30
0.0
  0
VERTEX
  5
52E0
  8
0
 10
155.0857096388845093
 20
100.8834072836437059
 30
0.0
  0
VERTEX
  5
52E1
  8
0
 10
156.0999999999991132
 20
100.7543285060400962
 30
0.0
  0
SEQEND
  5
52E2
  8
0
  0
POLYLINE
  5
4CD7
  8
0
 66
     1
 10
0.0
 20
0.0
 30
0.0
 70
   128
  0
VERTEX
  5
52E3
  8
0
 10
151.1499999999986983
 20
100.7426319813325932
 30
0.0
  0
VERTEX
  5
52E4
  8
0
 10
152.1986274935563017
 20
100.8792977683538936
 30
0.0
  0
VERTEX
  5
52E5
  8
0
 10
153.2557852687237983
 20
100.9500000000003013
 30
0.0
  0
SEQEND
  5
52E6
  8
0
  0
POLYLINE
  5
4CD8
  8
0
 66
     1
 10
0.0
 20
0.0
 30
0.0
 70
   128
  0
VERTEX
  5
52E7
  8
0
 10
153.2550289026991948
 20
97.4499494145837559
 30
0.0
  0
VERTEX
  5
52E8
  8
0
 10
152.2017421896231895
 20
97.5202865980876084
 30
0.0
  0
VERTEX
  5
52E9
  8
0
 10
151.1499999999994088
 20
97.657266847834876
 30
0.0
  0
SEQEND
  5
52EA
  8
0
  0
LINE
  5
4CD9
  8
0
 10
154.0699710972992875
 20
97.4500000000003155
 30
0.0
 11
153.2050289026988992
 21
97.4500000000003155
 31
0.0
  0
POLYLINE
  5
4CDA
  8
0
 66
     1
 10
0.0
 20
0.0
 30
0.0
 70
   128
  0
VERTEX
  5
52EB
  8
0
 10
156.0999999999991132
 20
97.6456714939605206
 30
0.0
  0
VERTEX
  5
52EC
  8
0
 10
155.088550827642905
 20
97.5168730451864292
 30
0.0
  0
VERTEX
  5
52ED
  8
0
 10
154.0699710972992875
 20
97.4500000000003155
 30
0.0
  0
SEQEND
  5
52EE
  8
0
  0
LINE
  5
4CDB
  8
0
 10
146.0999999999988859
 20
97.4500000000002728
 30
0.0
 11
156.0999999999991132
 21
97.4500000000003155
 31
0.0
  0
LINE
  5
4CDC
  8
0
 10
146.0999999999991132
 20
100.9500000000002018
 30
0.0
 11
156.0999999999991132
 21
100.9500000000003013
 31
0.0
  0
LINE
  5
4CDD
  8
0
 10
145.9999999999990052
 20
108.6464466094069934
 30
0.0
 11
156.2999999999989882
 21
108.6464466094069934
 31
0.0
  0
LINE
  5
4CDE
  8
0
 10
145.9999999999990052
 20
104.9500000000002018
 30
0.0
 11
156.2999999999991019
 21
104.9500000000003013
 31
0.0
  0
LINE
  5
4CDF
  8
0
 10
146.3535533905923103
 20
109.0000000000002984
 30
0.0
 11
155.9464466094057968
 21
109.0000000000002984
 31
0.0
  0
LINE
  5
4CE0
  8
0
 10
146.4328427124737004
 20
101.9500000000002018
 30
0.0
 11
155.8671572875244067
 21
101.9500000000003013
 31
0.0
  0
LINE
  5
4CE1
  8
0
 10
146.1499999999990109
 20
102.2328427124749055
 30
0.0
 11
156.1499999999990109
 21
102.232842712475005
 31
0.0
  0
LINE
  5
4CE2
  8
0
 10
146.4499999999991076
 20
96.9500000000002871
 30
0.0
 11
155.8499999999991132
 21
96.9500000000003013
 31
0.0
  0
LINE
  5
4CE3
  8
0
 10
149.4179491924301999
 20
110.0000000000002984
 30
0.0
 11
152.8820508075679072
 21
110.0000000000002984
 31
0.0
  0
LINE
  5
4CE4
  8
1
 10
151.1499999999990962
 20
66.9999999999997016
 30
0.0
 11
151.1499999999990962
 21
113.0000000000002984
 31
0.0
  0
LINE
  5
4EFA
  8
0
 10
145.0999999999991132
 20
45.4999999999999929
 30
0.0
 11
143.9999999999990905
 21
45.4999999999999929
 31
0.0
  0
LINE
  5
4EFB
  8
0
 10
143.9999999999990905
 20
34.5
 30
0.0
 11
145.0999999999991132
 21
34.5
 31
0.0
  0
LINE
  5
4EFC
  8
0
 10
145.5999999999991132
 20
44.2499999999999929
 30
0.0
 11
145.0999999999991132
 21
44.2499999999999929
 31
0.0
  0
LINE
  5
4EFD
  8
0
 10
145.0999999999991132
 20
35.7500000000000071
 30
0.0
 11
145.5999999999991132
 21
35.7500000000000071
 31
0.0
  0
CIRCLE
  5
4EFE
  8
0
 10
151.1499999999990109
 20
39.9999999999998721
 30
0.0
 40
2.0
  0
CIRCLE
  5
4EFF
  8
0
 10
151.1499999999990109
 20
39.9999999999998579
 30
0.0
 40
1.732050807568867
  0
CIRCLE
  5
4F00
  8
0
 10
151.1499999999990109
 20
39.9999999999998579
 30
0.0
 40
1.0
  0
CIRCLE
  5
4F01
  8
0
 10
151.1499999999990109
 20
39.9999999999998721
 30
0.0
 40
5.1499999999999773
  0
CIRCLE
  5
4F02
  8
0
 10
151.1499999999990109
 20
39.9999999999998721
 30
0.0
 40
4.7964466094067291
  0
LINE
  5
4F03
  8
0
 10
156.1499999999990109
 20
42.8867513459480492
 30
0.0
 11
156.1499999999990109
 21
41.2338962679251608
 31
0.0
  0
LINE
  5
4F04
  8
0
 10
154.7185855136571035
 20
43.7131788849594329
 30
0.0
 11
156.1499999999990109
 21
42.8867513459480492
 31
0.0
  0
LINE
  5
4F05
  8
0
 10
156.1499999999990109
 20
37.1132486540518016
 30
0.0
 11
154.7185855136571888
 21
36.2868211150404676
 31
0.0
  0
LINE
  5
4F06
  8
0
 10
156.1499999999990109
 20
38.7661037320743418
 30
0.0
 11
156.1499999999990109
 21
37.1132486540518016
 31
0.0
  0
LINE
  5
4F07
  8
0
 10
151.1499999999990109
 20
34.2264973081036601
 30
0.0
 11
149.7185855136571888
 21
35.052924847115051
 31
0.0
  0
LINE
  5
4F08
  8
0
 10
147.5814144863410036
 20
36.2868211150402971
 30
0.0
 11
146.1499999999990109
 21
37.1132486540518016
 31
0.0
  0
LINE
  5
4F09
  8
0
 10
146.1499999999990109
 20
37.1132486540518016
 30
0.0
 11
146.1499999999990109
 21
38.7661037320749386
 31
0.0
  0
LINE
  5
4F0A
  8
0
 10
146.1499999999990109
 20
41.2338962679250116
 30
0.0
 11
146.1499999999990109
 21
42.8867513459480492
 31
0.0
  0
LINE
  5
4F0B
  8
0
 10
146.1499999999990109
 20
42.8867513459480492
 30
0.0
 11
147.5814144863410888
 21
43.7131788849596532
 31
0.0
  0
LINE
  5
4F0C
  8
0
 10
149.7185855136567909
 20
44.9470751528845867
 30
0.0
 11
151.1499999999990109
 21
45.7735026918961765
 31
0.0
  0
LINE
  5
4F0D
  8
0
 10
152.5814144863406057
 20
35.0529248471149728
 30
0.0
 11
151.1499999999990109
 21
34.2264973081036601
 31
0.0
  0
LINE
  5
4F0E
  8
0
 10
151.1499999999990109
 20
45.7735026918961765
 30
0.0
 11
152.5814144863410888
 21
44.947075152884608
 31
0.0
  0
LINE
  5
4F0F
  8
0
 10
156.5999999999991132
 20
45.4999999999999574
 30
0.0
 11
151.6237205583701098
 21
45.4999999999999574
 31
0.0
  0
LINE
  5
4F10
  8
0
 10
150.6762794416277984
 20
45.4999999999999503
 30
0.0
 11
145.5999999999989996
 21
45.4999999999999574
 31
0.0
  0
LINE
  5
4F11
  8
0
 10
156.5999999999991132
 20
34.4999999999999716
 30
0.0
 11
156.5999999999991985
 21
45.4999999999999574
 31
0.0
  0
LINE
  5
4F12
  8
0
 10
145.5999999999989996
 20
34.4999999999999716
 30
0.0
 11
150.6762794416277131
 21
34.4999999999999716
 31
0.0
  0
LINE
  5
4F13
  8
0
 10
151.6237205583703087
 20
34.4999999999999787
 30
0.0
 11
156.5999999999991132
 21
34.4999999999999716
 31
0.0
  0
LINE
  5
4F14
  8
0
 10
145.5999999999991132
 20
45.4999999999999574
 30
0.0
 11
145.5999999999989996
 21
34.4999999999999716
 31
0.0
  0
LINE
  5
4F15
  8
0
 10
143.9999999999990905
 20
45.4999999999999929
 30
0.0
 11
143.9999999999990905
 21
34.5
 31
0.0
  0
LINE
  5
4F16
  8
0
 10
145.0999999999991132
 20
45.4999999999999929
 30
0.0
 11
145.0999999999991132
 21
34.5
 31
0.0
  0
LINE
  5
4F17
  8
0
 10
114.7669999999991006
 20
45.9999999999998224
 30
0.0
 11
113.9999999999991047
 21
45.2329999999998265
 31
0.0
  0
LINE
  5
4F18
  8
0
 10
113.9999999999990052
 20
34.7669999999998325
 30
0.0
 11
114.7669999999991006
 21
33.9999999999998295
 31
0.0
  0
LINE
  5
4F19
  8
0
 10
143.2329999999990946
 20
45.9999999999997229
 30
0.0
 11
138.9999999999990905
 21
45.9999999999997726
 31
0.0
  0
LINE
  5
4F1A
  8
0
 10
133.9999999999990905
 20
45.9999999999997726
 30
0.0
 11
123.2857142857133965
 21
45.9999999999998224
 31
0.0
  0
LINE
  5
4F1B
  8
0
 10
118.2857142857133965
 20
45.9999999999998224
 30
0.0
 11
114.7669999999991006
 21
45.9999999999998224
 31
0.0
  0
LINE
  5
4F1C
  8
0
 10
114.7669999999991006
 20
33.9999999999998295
 30
0.0
 11
118.2857142857133965
 21
33.9999999999998295
 31
0.0
  0
LINE
  5
4F1D
  8
0
 10
123.2857142857133965
 20
33.9999999999998295
 30
0.0
 11
133.9999999999990052
 21
33.9999999999997726
 31
0.0
  0
LINE
  5
4F1E
  8
0
 10
138.9999999999990052
 20
33.9999999999997726
 30
0.0
 11
143.2329999999990946
 21
33.9999999999997726
 31
0.0
  0
LINE
  5
4F1F
  8
0
 10
143.2329999999990946
 20
33.9999999999997726
 30
0.0
 11
143.9999999999990052
 21
34.7669999999997117
 31
0.0
  0
LINE
  5
4F20
  8
0
 10
143.9999999999990905
 20
45.2329999999997199
 30
0.0
 11
143.2329999999990946
 21
45.9999999999997229
 31
0.0
  0
LINE
  5
4F21
  8
0
 10
113.9999999999991047
 20
43.9999999999998295
 30
0.0
 11
113.8199542600447955
 21
43.9999999999998295
 31
0.0
  0
LINE
  5
4F22
  8
0
 10
112.8199542600447955
 20
43.9999999999998295
 30
0.0
 11
111.4655872826353971
 21
43.9999999999998295
 31
0.0
  0
LINE
  5
4F23
  8
0
 10
110.430311102225204
 20
43.9999999999998295
 30
0.0
 11
106.1855872826352964
 21
43.9999999999998295
 31
0.0
  0
LINE
  5
4F24
  8
0
 10
105.1503111022253023
 20
43.9999999999998792
 30
0.0
 11
100.9055872826351958
 21
43.9999999999998792
 31
0.0
  0
LINE
  5
4F25
  8
0
 10
99.8703111022252017
 20
43.9999999999998792
 30
0.0
 11
95.6255872826353936
 21
43.9999999999998792
 31
0.0
  0
LINE
  5
4F26
  8
0
 10
94.590311102225229
 20
43.9999999999998792
 30
0.0
 11
90.3455872826353072
 21
43.9999999999999432
 31
0.0
  0
LINE
  5
4F27
  8
0
 10
89.3103111022251426
 20
43.9999999999998792
 30
0.0
 11
85.0655872826353345
 21
43.9999999999999432
 31
0.0
  0
LINE
  5
4F28
  8
0
 10
84.0303111022252267
 20
43.9999999999999432
 30
0.0
 11
79.7855872826353618
 21
43.9999999999999432
 31
0.0
  0
LINE
  5
4F29
  8
0
 10
78.7503111022251829
 20
43.9999999999999432
 30
0.0
 11
78.4999999999991189
 21
43.9999999999999432
 31
0.0
  0
LINE
  5
4F2A
  8
0
 10
79.4999999999991189
 20
35.9999999999999432
 30
0.0
 11
80.8939046416741974
 21
35.9999999999999432
 31
0.0
  0
LINE
  5
4F2B
  8
0
 10
81.929180822084362
 20
35.9999999999999432
 30
0.0
 11
86.1739046416742269
 21
35.9999999999999432
 31
0.0
  0
LINE
  5
4F2C
  8
0
 10
87.2091808220842637
 20
35.9999999999999432
 30
0.0
 11
91.4539046416741428
 21
35.9999999999998934
 31
0.0
  0
LINE
  5
4F2D
  8
0
 10
92.4891808220843643
 20
35.9999999999998934
 30
0.0
 11
96.7339046416741866
 21
35.9999999999998934
 31
0.0
  0
LINE
  5
4F2E
  8
0
 10
97.769180822084337
 20
35.9999999999998934
 30
0.0
 11
102.0139046416742019
 21
35.9999999999998934
 31
0.0
  0
LINE
  5
4F2F
  8
0
 10
103.0491808220841961
 20
35.9999999999998934
 30
0.0
 11
107.293904641674203
 21
35.9999999999998934
 31
0.0
  0
LINE
  5
4F30
  8
0
 10
108.3291808220842967
 20
35.9999999999998934
 30
0.0
 11
112.5739046416742042
 21
35.9999999999998295
 31
0.0
  0
LINE
  5
4F31
  8
0
 10
113.6091808220842978
 20
35.9999999999998295
 30
0.0
 11
113.9999999999990052
 21
35.9999999999998295
 31
0.0
  0
LINE
  5
4F32
  8
0
 10
70.2121320343551076
 20
43.5
 30
0.0
 11
69.9999999999991189
 21
43.2878679656440113
 31
0.0
  0
LINE
  5
4F33
  8
0
 10
69.9999999999991189
 20
36.7121320343559887
 30
0.0
 11
70.2121320343550508
 21
36.5
 31
0.0
  0
LINE
  5
4F34
  8
0
 10
73.4999999999991189
 20
43.5
 30
0.0
 11
70.2121320343551076
 21
43.5
 31
0.0
  0
LINE
  5
4F35
  8
0
 10
70.2121320343550508
 20
36.5
 30
0.0
 11
73.4999999999991189
 21
36.4999999999999503
 31
0.0
  0
POLYLINE
  5
4F36
  8
0
 66
     1
 10
0.0
 20
0.0
 30
0.0
 70
   128
  0
VERTEX
  5
52EF
  8
0
 10
134.3937929011092081
 20
39.9999999999997726
 30
0.0
  0
VERTEX
  5
52F0
  8
0
 10
134.1048593692397048
 20
42.3643213604770992
 30
0.0
  0
VERTEX
  5
52F1
  8
0
 10
133.9999999999990905
 20
44.7499999999997726
 30
0.0
  0
SEQEND
  5
52F2
  8
0
  0
POLYLINE
  5
4F37
  8
0
 66
     1
 10
0.0
 20
0.0
 30
0.0
 70
   128
  0
VERTEX
  5
52F3
  8
0
 10
133.9999999999990905
 20
44.7499999999997726
 30
0.0
  0
VERTEX
  5
52F4
  8
0
 10
134.1039411083777111
 20
47.1249999999997726
 30
0.0
  0
VERTEX
  5
52F5
  8
0
 10
134.3937929011092081
 20
49.4999999999997726
 30
0.0
  0
SEQEND
  5
52F6
  8
0
  0
LINE
  5
4F38
  8
0
 10
138.9999999999990905
 20
49.4999999999997726
 30
0.0
 11
133.9999999999990905
 21
49.4999999999997726
 31
0.0
  0
POLYLINE
  5
4F39
  8
0
 66
     1
 10
0.0
 20
0.0
 30
0.0
 70
   128
  0
VERTEX
  5
52F7
  8
0
 10
138.6062070988890014
 20
49.4999999999997726
 30
0.0
  0
VERTEX
  5
52F8
  8
0
 10
138.8951406307585046
 20
47.1356786395223821
 30
0.0
  0
VERTEX
  5
52F9
  8
0
 10
138.9999999999990905
 20
44.7499999999997726
 30
0.0
  0
SEQEND
  5
52FA
  8
0
  0
POLYLINE
  5
4F3A
  8
0
 66
     1
 10
0.0
 20
0.0
 30
0.0
 70
   128
  0
VERTEX
  5
52FB
  8
0
 10
138.9999999999990905
 20
44.7499999999997726
 30
0.0
  0
VERTEX
  5
52FC
  8
0
 10
138.8960588916204131
 20
42.3749999999997087
 30
0.0
  0
VERTEX
  5
52FD
  8
0
 10
138.6062070988890014
 20
39.9999999999997726
 30
0.0
  0
SEQEND
  5
52FE
  8
0
  0
LINE
  5
4F3B
  8
0
 10
138.6062070988890014
 20
39.9999999999997726
 30
0.0
 11
134.3937929011092081
 21
39.9999999999997726
 31
0.0
  0
POLYLINE
  5
4F3C
  8
0
 66
     1
 10
0.0
 20
0.0
 30
0.0
 70
   128
  0
VERTEX
  5
52FF
  8
0
 10
138.6062070988890014
 20
39.9999999999997726
 30
0.0
  0
VERTEX
  5
5300
  8
0
 10
138.8951406307583909
 20
37.6356786395223821
 30
0.0
  0
VERTEX
  5
5301
  8
0
 10
138.9999999999990905
 20
35.2499999999997726
 30
0.0
  0
SEQEND
  5
5302
  8
0
  0
LINE
  5
4F3D
  8
0
 10
138.9999999999990905
 20
49.4999999999997726
 30
0.0
 11
138.9999999999990052
 21
30.4999999999997193
 31
0.0
  0
POLYLINE
  5
4F3E
  8
0
 66
     1
 10
0.0
 20
0.0
 30
0.0
 70
   128
  0
VERTEX
  5
5303
  8
0
 10
133.9999999999990052
 20
35.2499999999997726
 30
0.0
  0
VERTEX
  5
5304
  8
0
 10
134.1039411083777111
 20
37.6249999999997726
 30
0.0
  0
VERTEX
  5
5305
  8
0
 10
134.3937929011092081
 20
39.9999999999997726
 30
0.0
  0
SEQEND
  5
5306
  8
0
  0
LINE
  5
4F3F
  8
0
 10
133.9999999999992042
 20
49.4999999999997726
 30
0.0
 11
133.9999999999990052
 21
30.4999999999997797
 31
0.0
  0
POLYLINE
  5
4F40
  8
0
 66
     1
 10
0.0
 20
0.0
 30
0.0
 70
   128
  0
VERTEX
  5
5307
  8
0
 10
134.3937929011092081
 20
30.4999999999997797
 30
0.0
  0
VERTEX
  5
5308
  8
0
 10
134.1048593692397048
 20
32.8643213604771134
 30
0.0
  0
VERTEX
  5
5309
  8
0
 10
133.9999999999990052
 20
35.2499999999997726
 30
0.0
  0
SEQEND
  5
530A
  8
0
  0
POLYLINE
  5
4F41
  8
0
 66
     1
 10
0.0
 20
0.0
 30
0.0
 70
   128
  0
VERTEX
  5
530B
  8
0
 10
138.9999999999990905
 20
35.2499999999997726
 30
0.0
  0
VERTEX
  5
530C
  8
0
 10
138.8960588916204131
 20
32.8749999999997726
 30
0.0
  0
VERTEX
  5
530D
  8
0
 10
138.6062070988890014
 20
30.4999999999997193
 30
0.0
  0
SEQEND
  5
530E
  8
0
  0
LINE
  5
4F42
  8
0
 10
138.9999999999990052
 20
30.4999999999997193
 30
0.0
 11
133.9999999999988916
 21
30.4999999999997797
 31
0.0
  0
POLYLINE
  5
4F43
  8
0
 66
     1
 10
0.0
 20
0.0
 30
0.0
 70
   128
  0
VERTEX
  5
530F
  8
0
 10
118.6795071868234999
 20
39.9999999999998295
 30
0.0
  0
VERTEX
  5
5310
  8
0
 10
118.3905736549539967
 20
42.3643213604771631
 30
0.0
  0
VERTEX
  5
5311
  8
0
 10
118.2857142857133965
 20
44.7499999999998224
 30
0.0
  0
SEQEND
  5
5312
  8
0
  0
POLYLINE
  5
4F44
  8
0
 66
     1
 10
0.0
 20
0.0
 30
0.0
 70
   128
  0
VERTEX
  5
5313
  8
0
 10
118.2857142857133965
 20
44.7499999999998224
 30
0.0
  0
VERTEX
  5
5314
  8
0
 10
118.3896553940920029
 20
47.1249999999998295
 30
0.0
  0
VERTEX
  5
5315
  8
0
 10
118.6795071868234999
 20
49.4999999999998295
 30
0.0
  0
SEQEND
  5
5316
  8
0
  0
LINE
  5
4F45
  8
0
 10
123.2857142857133965
 20
49.4999999999998295
 30
0.0
 11
118.2857142857133965
 21
49.4999999999997726
 31
0.0
  0
POLYLINE
  5
4F46
  8
0
 66
     1
 10
0.0
 20
0.0
 30
0.0
 70
   128
  0
VERTEX
  5
5317
  8
0
 10
122.8919213846032932
 20
49.4999999999998295
 30
0.0
  0
VERTEX
  5
5318
  8
0
 10
123.1808549164727964
 20
47.135678639522439
 30
0.0
  0
VERTEX
  5
5319
  8
0
 10
123.2857142857133965
 20
44.7499999999998224
 30
0.0
  0
SEQEND
  5
531A
  8
0
  0
POLYLINE
  5
4F47
  8
0
 66
     1
 10
0.0
 20
0.0
 30
0.0
 70
   128
  0
VERTEX
  5
531B
  8
0
 10
123.2857142857133965
 20
44.7499999999998224
 30
0.0
  0
VERTEX
  5
531C
  8
0
 10
123.1817731773347049
 20
42.3749999999997726
 30
0.0
  0
VERTEX
  5
531D
  8
0
 10
122.8919213846032932
 20
39.9999999999998295
 30
0.0
  0
SEQEND
  5
531E
  8
0
  0
LINE
  5
4F48
  8
0
 10
122.8919213846032932
 20
39.9999999999998295
 30
0.0
 11
118.6795071868234999
 21
39.9999999999998295
 31
0.0
  0
POLYLINE
  5
4F49
  8
0
 66
     1
 10
0.0
 20
0.0
 30
0.0
 70
   128
  0
VERTEX
  5
531F
  8
0
 10
118.2857142857133965
 20
35.2499999999998295
 30
0.0
  0
VERTEX
  5
5320
  8
0
 10
118.3896553940920029
 20
37.6249999999998295
 30
0.0
  0
VERTEX
  5
5321
  8
0
 10
118.6795071868234999
 20
39.9999999999998295
 30
0.0
  0
SEQEND
  5
5322
  8
0
  0
LINE
  5
4F4A
  8
0
 10
118.2857142857133965
 20
49.4999999999998295
 30
0.0
 11
118.2857142857133965
 21
30.4999999999998295
 31
0.0
  0
POLYLINE
  5
4F4B
  8
0
 66
     1
 10
0.0
 20
0.0
 30
0.0
 70
   128
  0
VERTEX
  5
5323
  8
0
 10
122.8919213846032932
 20
39.9999999999998295
 30
0.0
  0
VERTEX
  5
5324
  8
0
 10
123.1808549164726969
 20
37.635678639522439
 30
0.0
  0
VERTEX
  5
5325
  8
0
 10
123.2857142857133965
 20
35.2499999999998295
 30
0.0
  0
SEQEND
  5
5326
  8
0
  0
LINE
  5
4F4C
  8
0
 10
123.2857142857133965
 20
49.4999999999998295
 30
0.0
 11
123.2857142857133965
 21
30.4999999999997797
 31
0.0
  0
POLYLINE
  5
4F4D
  8
0
 66
     1
 10
0.0
 20
0.0
 30
0.0
 70
   128
  0
VERTEX
  5
5327
  8
0
 10
118.6795071868234999
 20
30.4999999999998295
 30
0.0
  0
VERTEX
  5
5328
  8
0
 10
118.3905736549539967
 20
32.8643213604771702
 30
0.0
  0
VERTEX
  5
5329
  8
0
 10
118.2857142857133965
 20
35.2499999999998295
 30
0.0
  0
SEQEND
  5
532A
  8
0
  0
POLYLINE
  5
4F4E
  8
0
 66
     1
 10
0.0
 20
0.0
 30
0.0
 70
   128
  0
VERTEX
  5
532B
  8
0
 10
123.2857142857133965
 20
35.2499999999998295
 30
0.0
  0
VERTEX
  5
532C
  8
0
 10
123.1817731773347049
 20
32.8749999999998295
 30
0.0
  0
VERTEX
  5
532D
  8
0
 10
122.8919213846031937
 20
30.4999999999997797
 30
0.0
  0
SEQEND
  5
532E
  8
0
  0
LINE
  5
4F4F
  8
0
 10
123.2857142857133965
 20
30.4999999999997797
 30
0.0
 11
118.2857142857133965
 21
30.4999999999998295
 31
0.0
  0
POLYLINE
  5
4F50
  8
0
 66
     1
 10
0.0
 20
0.0
 30
0.0
 70
   128
  0
VERTEX
  5
532F
  8
0
 10
73.8523410167818213
 20
40.0
 30
0.0
  0
VERTEX
  5
5330
  8
0
 10
73.5938215408986309
 20
42.1154454277955068
 30
0.0
  0
VERTEX
  5
5331
  8
0
 10
73.4999999999991189
 20
44.2499999999999929
 30
0.0
  0
SEQEND
  5
5332
  8
0
  0
POLYLINE
  5
4F51
  8
0
 66
     1
 10
0.0
 20
0.0
 30
0.0
 70
   128
  0
VERTEX
  5
5333
  8
0
 10
73.4999999999991189
 20
44.2499999999999929
 30
0.0
  0
VERTEX
  5
5334
  8
0
 10
73.5929999390747582
 20
46.3749999999999432
 30
0.0
  0
VERTEX
  5
5335
  8
0
 10
73.8523410167818781
 20
48.5
 30
0.0
  0
SEQEND
  5
5336
  8
0
  0
LINE
  5
4F52
  8
0
 10
78.4999999999991189
 20
48.4999999999999432
 30
0.0
 11
73.4999999999991189
 21
48.5
 31
0.0
  0
POLYLINE
  5
4F53
  8
0
 66
     1
 10
0.0
 20
0.0
 30
0.0
 70
   128
  0
VERTEX
  5
5337
  8
0
 10
78.1476589832164166
 20
48.4999999999999432
 30
0.0
  0
VERTEX
  5
5338
  8
0
 10
78.4061784590996069
 20
46.3845545722044221
 30
0.0
  0
VERTEX
  5
5339
  8
0
 10
78.4999999999991189
 20
44.2499999999999432
 30
0.0
  0
SEQEND
  5
533A
  8
0
  0
POLYLINE
  5
4F54
  8
0
 66
     1
 10
0.0
 20
0.0
 30
0.0
 70
   128
  0
VERTEX
  5
533B
  8
0
 10
78.4999999999991189
 20
44.2499999999999432
 30
0.0
  0
VERTEX
  5
533C
  8
0
 10
78.4070000609234654
 20
42.1249999999999432
 30
0.0
  0
VERTEX
  5
533D
  8
0
 10
78.1476589832164166
 20
40.0
 30
0.0
  0
SEQEND
  5
533E
  8
0
  0
LINE
  5
4F55
  8
0
 10
78.1476589832164166
 20
40.0
 30
0.0
 11
73.8523410167818213
 21
40.0
 31
0.0
  0
POLYLINE
  5
4F56
  8
0
 66
     1
 10
0.0
 20
0.0
 30
0.0
 70
   128
  0
VERTEX
  5
533F
  8
0
 10
73.4999999999991189
 20
35.7499999999999432
 30
0.0
  0
VERTEX
  5
5340
  8
0
 10
73.5929999390747582
 20
37.875
 30
0.0
  0
VERTEX
  5
5341
  8
0
 10
73.8523410167818213
 20
40.0
 30
0.0
  0
SEQEND
  5
5342
  8
0
  0
LINE
  5
4F57
  8
0
 10
73.4999999999991189
 20
48.4999999999999432
 30
0.0
 11
73.4999999999990052
 21
31.4999999999999503
 31
0.0
  0
POLYLINE
  5
4F58
  8
0
 66
     1
 10
0.0
 20
0.0
 30
0.0
 70
   128
  0
VERTEX
  5
5343
  8
0
 10
78.1476589832164166
 20
40.0
 30
0.0
  0
VERTEX
  5
5344
  8
0
 10
78.4061784590996069
 20
37.8845545722044221
 30
0.0
  0
VERTEX
  5
5345
  8
0
 10
78.4999999999991189
 20
35.7499999999999432
 30
0.0
  0
SEQEND
  5
5346
  8
0
  0
LINE
  5
4F59
  8
0
 10
78.4999999999991189
 20
48.4999999999999432
 30
0.0
 11
78.4999999999991758
 21
31.4999999999999503
 31
0.0
  0
POLYLINE
  5
4F5A
  8
0
 66
     1
 10
0.0
 20
0.0
 30
0.0
 70
   128
  0
VERTEX
  5
5347
  8
0
 10
73.8523410167818213
 20
31.4999999999999503
 30
0.0
  0
VERTEX
  5
5348
  8
0
 10
73.5938215408986309
 20
33.615445427795521
 30
0.0
  0
VERTEX
  5
5349
  8
0
 10
73.4999999999991189
 20
35.7499999999999432
 30
0.0
  0
SEQEND
  5
534A
  8
0
  0
POLYLINE
  5
4F5B
  8
0
 66
     1
 10
0.0
 20
0.0
 30
0.0
 70
   128
  0
VERTEX
  5
534B
  8
0
 10
78.4999999999991189
 20
35.7499999999999432
 30
0.0
  0
VERTEX
  5
534C
  8
0
 10
78.4070000609234654
 20
33.6249999999999432
 30
0.0
  0
VERTEX
  5
534D
  8
0
 10
78.1476589832163597
 20
31.4999999999999503
 30
0.0
  0
SEQEND
  5
534E
  8
0
  0
LINE
  5
4F5C
  8
0
 10
78.4999999999991758
 20
31.4999999999999503
 30
0.0
 11
73.4999999999990052
 21
31.4999999999999503
 31
0.0
  0
LINE
  5
4F5D
  8
0
 10
113.9999999999991047
 20
45.2329999999998265
 30
0.0
 11
113.9999999999990052
 21
34.7669999999998325
 31
0.0
  0
LINE
  5
4F5E
  8
0
 10
114.7669999999991006
 20
45.9999999999998224
 30
0.0
 11
114.7669999999991006
 21
33.9999999999998295
 31
0.0
  0
LINE
  5
4F5F
  8
0
 10
143.2329999999990946
 20
45.9999999999997229
 30
0.0
 11
143.2329999999990946
 21
33.9999999999997726
 31
0.0
  0
LINE
  5
4F60
  8
0
 10
69.9999999999991189
 20
43.2878679656440113
 30
0.0
 11
69.9999999999991189
 21
36.7121320343559887
 31
0.0
  0
LINE
  5
4F61
  8
0
 10
70.2121320343551076
 20
43.5
 30
0.0
 11
70.2121320343550508
 21
36.5
 31
0.0
  0
LINE
  5
4F62
  8
0
 10
99.636945606946
 20
45.1294095225512706
 30
0.0
 11
99.3343212374543612
 21
44.0
 31
0.0
  0
LINE
  5
4F63
  8
0
 10
97.9629171731893535
 20
35.0181470493002394
 30
0.0
 11
98.2260038784154546
 21
36.0
 31
0.0
  0
POLYLINE
  5
4F64
  8
0
 66
     1
 10
0.0
 20
0.0
 30
0.0
  0
VERTEX
  5
534F
  8
0
 10
99.6370241552870368
 20
45.1293612516352596
 30
0.0
  0
VERTEX
  5
5350
  8
0
 10
99.6296062444119173
 20
45.0975395534185779
 30
0.0
  0
VERTEX
  5
5351
  8
0
 10
99.6199999999991235
 20
45.0000000000521183
 30
0.0
  0
VERTEX
  5
5352
  8
0
 10
99.6296062443915673
 20
44.9024604466836692
 30
0.0
  0
VERTEX
  5
5353
  8
0
 10
99.6370310370607939
 20
44.8706130576979376
 30
0.0
  0
SEQEND
  5
5354
  8
0
  0
ARC
  5
4F65
  8
0
 10
97.4799542600448206
 20
35.1475565718515099
 30
0.0
 40
0.5000000000000029
 50
194.9999999999980957
 51
15.00000000000278
  0
LINE
  5
4F66
  8
0
 10
104.9169456069460011
 20
45.1294095225512706
 30
0.0
 11
104.6143212374544049
 21
44.0
 31
0.0
  0
LINE
  5
4F67
  8
0
 10
103.2429171731892978
 20
35.0181470493002394
 30
0.0
 11
103.5060038784154983
 21
36.0
 31
0.0
  0
POLYLINE
  5
4F68
  8
0
 66
     1
 10
0.0
 20
0.0
 30
0.0
  0
VERTEX
  5
5355
  8
0
 10
104.9170241552869953
 20
45.1293612516352596
 30
0.0
  0
VERTEX
  5
5356
  8
0
 10
104.9096062444100994
 20
45.0975395534092627
 30
0.0
  0
VERTEX
  5
5357
  8
0
 10
104.8999999999990962
 20
45.0000000000426326
 30
0.0
  0
VERTEX
  5
5358
  8
0
 10
104.9096062443934017
 20
44.9024604466744108
 30
0.0
  0
VERTEX
  5
5359
  8
0
 10
104.9170310370606956
 20
44.8706130576979376
 30
0.0
  0
SEQEND
  5
535A
  8
0
  0
ARC
  5
4F69
  8
0
 10
102.7599542600447933
 20
35.1475565718515099
 30
0.0
 40
0.5000000000000056
 50
194.9999999999980957
 51
15.00000000000278
  0
LINE
  5
4F6A
  8
0
 10
94.3569456069460273
 20
45.1294095225512706
 30
0.0
 11
94.0543212374543884
 21
44.0
 31
0.0
  0
LINE
  5
4F6B
  8
0
 10
92.682917173189395
 20
35.0181470493002394
 30
0.0
 11
92.946003878415496
 21
36.0
 31
0.0
  0
POLYLINE
  5
4F6C
  8
0
 66
     1
 10
0.0
 20
0.0
 30
0.0
  0
VERTEX
  5
535B
  8
0
 10
94.3570241552870641
 20
45.1293612516353093
 30
0.0
  0
VERTEX
  5
535C
  8
0
 10
94.3496062444045549
 20
45.0975395533814023
 30
0.0
  0
VERTEX
  5
535D
  8
0
 10
94.3399999999991508
 20
45.0000000000142109
 30
0.0
  0
VERTEX
  5
535E
  8
0
 10
94.3496062443989842
 20
44.9024604466465007
 30
0.0
  0
VERTEX
  5
535F
  8
0
 10
94.357031037060807
 20
44.8706130576979874
 30
0.0
  0
SEQEND
  5
5360
  8
0
  0
ARC
  5
4F6D
  8
0
 10
92.1999542600448478
 20
35.1475565718515099
 30
0.0
 40
0.4999999999999988
 50
194.9999999999980957
 51
15.00000000000278
  0
LINE
  5
4F6E
  8
0
 10
89.0769456069459835
 20
45.1294095225512706
 30
0.0
 11
88.7743212374544157
 21
44.0
 31
0.0
  0
LINE
  5
4F6F
  8
0
 10
87.4029171731893655
 20
35.0181470493002394
 30
0.0
 11
87.6660038784154665
 21
36.0
 31
0.0
  0
POLYLINE
  5
4F70
  8
0
 66
     1
 10
0.0
 20
0.0
 30
0.0
  0
VERTEX
  5
5361
  8
0
 10
89.0770241552870345
 20
45.1293612516353093
 30
0.0
  0
VERTEX
  5
5362
  8
0
 10
89.0696062444045253
 20
45.0975395533814023
 30
0.0
  0
VERTEX
  5
5363
  8
0
 10
89.059999999999107
 20
45.0000000000142109
 30
0.0
  0
VERTEX
  5
5364
  8
0
 10
89.0696062443990257
 20
44.9024604466465007
 30
0.0
  0
VERTEX
  5
5365
  8
0
 10
89.0770310370607774
 20
44.8706130576979874
 30
0.0
  0
SEQEND
  5
5366
  8
0
  0
ARC
  5
4F71
  8
0
 10
86.9199542600448041
 20
35.1475565718515099
 30
0.0
 40
0.4999999999999988
 50
194.9999999999980957
 51
15.00000000000278
  0
LINE
  5
4F72
  8
0
 10
83.796945606946025
 20
45.1294095225512706
 30
0.0
 11
83.4943212374543862
 21
44.0
 31
0.0
  0
LINE
  5
4F73
  8
0
 10
82.1229171731893359
 20
35.0181470493002394
 30
0.0
 11
82.3860038784154938
 21
36.0
 31
0.0
  0
POLYLINE
  5
4F74
  8
0
 66
     1
 10
0.0
 20
0.0
 30
0.0
  0
VERTEX
  5
5367
  8
0
 10
83.797024155287005
 20
45.1293612516353093
 30
0.0
  0
VERTEX
  5
5368
  8
0
 10
83.789606244407338
 20
45.0975395533953289
 30
0.0
  0
VERTEX
  5
5369
  8
0
 10
83.7799999999990916
 20
45.0000000000284217
 30
0.0
  0
VERTEX
  5
536A
  8
0
 10
83.7896062443961966
 20
44.9024604466604274
 30
0.0
  0
VERTEX
  5
536B
  8
0
 10
83.7970310370607478
 20
44.8706130576979874
 30
0.0
  0
SEQEND
  5
536C
  8
0
  0
ARC
  5
4F75
  8
0
 10
81.6399542600448456
 20
35.1475565718515099
 30
0.0
 40
0.5000000000000009
 50
194.9999999999980957
 51
15.00000000000278
  0
LINE
  5
4F76
  8
0
 10
110.1969456069460023
 20
45.1294095225512706
 30
0.0
 11
109.8943212374543066
 21
44.0
 31
0.0
  0
LINE
  5
4F77
  8
0
 10
108.5229171731893985
 20
35.0181470493002394
 30
0.0
 11
108.7860038784154995
 21
36.0
 31
0.0
  0
POLYLINE
  5
4F78
  8
0
 66
     1
 10
0.0
 20
0.0
 30
0.0
  0
VERTEX
  5
536D
  8
0
 10
110.1970241552869965
 20
45.1293612516353093
 30
0.0
  0
VERTEX
  5
536E
  8
0
 10
110.1896062444054962
 20
45.0975395533860066
 30
0.0
  0
VERTEX
  5
536F
  8
0
 10
110.1799999999990973
 20
45.0000000000189786
 30
0.0
  0
VERTEX
  5
5370
  8
0
 10
110.1896062443979929
 20
44.9024604466511619
 30
0.0
  0
VERTEX
  5
5371
  8
0
 10
110.1970310370606967
 20
44.8706130576979874
 30
0.0
  0
SEQEND
  5
5372
  8
0
  0
ARC
  5
4F79
  8
0
 10
108.0399542600447944
 20
35.1475565718515099
 30
0.0
 40
0.5000000000000062
 50
194.9999999999980957
 51
15.00000000000278
  0
LINE
  5
4F7A
  8
0
 10
79.4999999999991189
 20
40.0
 30
0.0
 11
78.4999999999991189
 21
40.0
 31
0.0
  0
LINE
  5
4F7B
  8
0
 10
79.4999999999991189
 20
35.0
 30
0.0
 11
79.4999999999991189
 21
40.0
 31
0.0
  0
ARC
  5
4F7C
  8
0
 10
78.9999999999991189
 20
35.0
 30
0.0
 40
0.5
 50
180.0
 51
0.0
  0
ARC
  5
4F7D
  8
0
 10
78.9999999999991189
 20
45.0000000000001066
 30
0.0
 40
0.4999999999999993
 50
14.9999999999858904
 51
195.0000000000106866
  0
POLYLINE
  5
4F7E
  8
0
 66
     1
 10
0.0
 20
0.0
 30
0.0
  0
VERTEX
  5
5373
  8
0
 10
100.1199542600970034
 20
45.4999999979078211
 30
0.0
  0
VERTEX
  5
5374
  8
0
 10
100.0224155859149988
 20
45.4903848306461214
 30
0.0
  0
VERTEX
  5
5375
  8
0
 10
99.9286265906593769
 20
45.4619266372462718
 30
0.0
  0
VERTEX
  5
5376
  8
0
 10
99.8421911143729233
 20
45.4157189231525535
 30
0.0
  0
VERTEX
  5
5377
  8
0
 10
99.7664304382966236
 20
45.35353721874435
 30
0.0
  0
VERTEX
  5
5378
  8
0
 10
99.7042556647125195
 20
45.2777708546213873
 30
0.0
  0
VERTEX
  5
5379
  8
0
 10
99.6580558579035198
 20
45.1913311516287877
 30
0.0
  0
VERTEX
  5
537A
  8
0
 10
99.6370241552870368
 20
45.1293612516352596
 30
0.0
  0
SEQEND
  5
537B
  8
0
  0
POLYLINE
  5
4F7F
  8
0
 66
     1
 10
0.0
 20
0.0
 30
0.0
  0
VERTEX
  5
537C
  8
0
 10
100.1199542600970034
 20
45.4999999979078211
 30
0.0
  0
VERTEX
  5
537D
  8
0
 10
100.2174929342769047
 20
45.4903848306258283
 30
0.0
  0
VERTEX
  5
537E
  8
0
 10
100.3112819295266007
 20
45.4619266372063819
 30
0.0
  0
VERTEX
  5
537F
  8
0
 10
100.3977174058034052
 20
45.4157189230946301
 30
0.0
  0
VERTEX
  5
5380
  8
0
 10
100.4734780818668014
 20
45.3535372186706169
 30
0.0
  0
VERTEX
  5
5381
  8
0
 10
100.535652855435103
 20
45.2777708545347082
 30
0.0
  0
VERTEX
  5
5382
  8
0
 10
100.5818526622259981
 20
45.1913311515324381
 30
0.0
  0
VERTEX
  5
5383
  8
0
 10
100.6028843648026054
 20
45.1293612516353733
 30
0.0
  0
SEQEND
  5
5384
  8
0
  0
LINE
  5
4F80
  8
0
 10
103.2429171731892978
 20
35.2769660944027805
 30
0.0
 11
100.6029629131436991
 21
45.1294095225512706
 31
0.0
  0
LINE
  5
4F81
  8
0
 10
99.6370370868545763
 20
44.8705904774487294
 30
0.0
 11
102.2769913469002034
 21
35.0181470493002394
 31
0.0
  0
POLYLINE
  5
4F82
  8
0
 66
     1
 10
0.0
 20
0.0
 30
0.0
  0
VERTEX
  5
5385
  8
0
 10
110.6799542600637949
 20
45.4999999979078709
 30
0.0
  0
VERTEX
  5
5386
  8
0
 10
110.5824155858825009
 20
45.490384830639691
 30
0.0
  0
VERTEX
  5
5387
  8
0
 10
110.488626590628698
 20
45.4619266372336028
 30
0.0
  0
VERTEX
  5
5388
  8
0
 10
110.4021911143452996
 20
45.4157189231341292
 30
0.0
  0
VERTEX
  5
5389
  8
0
 10
110.3264304382731069
 20
45.3535372187208665
 30
0.0
  0
VERTEX
  5
538A
  8
0
 10
110.2642556646941046
 20
45.2777708545938324
 30
0.0
  0
VERTEX
  5
538B
  8
0
 10
110.2180558578909029
 20
45.1913311515980922
 30
0.0
  0
VERTEX
  5
538C
  8
0
 10
110.1970241552869965
 20
45.1293612516353093
 30
0.0
  0
SEQEND
  5
538D
  8
0
  0
POLYLINE
  5
4F83
  8
0
 66
     1
 10
0.0
 20
0.0
 30
0.0
  0
VERTEX
  5
538E
  8
0
 10
110.6799542600637949
 20
45.4999999979078709
 30
0.0
  0
VERTEX
  5
538F
  8
0
 10
110.7774929342444068
 20
45.4903848306323013
 30
0.0
  0
VERTEX
  5
5390
  8
0
 10
110.871281929496007
 20
45.4619266372191007
 30
0.0
  0
VERTEX
  5
5391
  8
0
 10
110.9577174057758953
 20
45.4157189231130474
 30
0.0
  0
VERTEX
  5
5392
  8
0
 10
111.0334780818432989
 20
45.3535372186941004
 30
0.0
  0
VERTEX
  5
5393
  8
0
 10
111.0956528554166027
 20
45.2777708545622772
 30
0.0
  0
VERTEX
  5
5394
  8
0
 10
111.1418526622132958
 20
45.1913311515630696
 30
0.0
  0
VERTEX
  5
5395
  8
0
 10
111.1628843648025935
 20
45.1293612516353733
 30
0.0
  0
SEQEND
  5
5396
  8
0
  0
LINE
  5
4F84
  8
0
 10
113.8029171731893996
 20
35.2769660944027805
 30
0.0
 11
111.1629629131436019
 21
45.1294095225512706
 31
0.0
  0
LINE
  5
4F85
  8
0
 10
110.1970370868544933
 20
44.8705904774487294
 30
0.0
 11
112.8369913469003052
 21
35.0181470493002394
 31
0.0
  0
ARC
  5
4F86
  8
0
 10
113.3199542600447955
 20
35.1475565718517373
 30
0.0
 40
0.5000000000000044
 50
195.0000000000314913
 51
14.9999999999691607
  0
POLYLINE
  5
4F87
  8
0
 66
     1
 10
0.0
 20
0.0
 30
0.0
  0
VERTEX
  5
5397
  8
0
 10
105.3999542600874975
 20
45.4999999979078211
 30
0.0
  0
VERTEX
  5
5398
  8
0
 10
105.3024155859057061
 20
45.4903848306443024
 30
0.0
  0
VERTEX
  5
5399
  8
0
 10
105.2086265906505957
 20
45.4619266372426907
 30
0.0
  0
VERTEX
  5
539A
  8
0
 10
105.1221911143649947
 20
45.4157189231472671
 30
0.0
  0
VERTEX
  5
539B
  8
0
 10
105.046430438289903
 20
45.3535372187376424
 30
0.0
  0
VERTEX
  5
539C
  8
0
 10
104.9842556647072058
 20
45.2777708546135429
 30
0.0
  0
VERTEX
  5
539D
  8
0
 10
104.9380558578998972
 20
45.1913311516200267
 30
0.0
  0
VERTEX
  5
539E
  8
0
 10
104.9170241552869953
 20
45.1293612516352596
 30
0.0
  0
SEQEND
  5
539F
  8
0
  0
POLYLINE
  5
4F88
  8
0
 66
     1
 10
0.0
 20
0.0
 30
0.0
  0
VERTEX
  5
53A0
  8
0
 10
105.3999542600874975
 20
45.4999999979078709
 30
0.0
  0
VERTEX
  5
53A1
  8
0
 10
105.4974929342675978
 20
45.4903848306276473
 30
0.0
  0
VERTEX
  5
53A2
  8
0
 10
105.5912819295178053
 20
45.4619266372100128
 30
0.0
  0
VERTEX
  5
53A3
  8
0
 10
105.6777174057955051
 20
45.4157189230998597
 30
0.0
  0
VERTEX
  5
53A4
  8
0
 10
105.753478081860095
 20
45.3535372186773316
 30
0.0
  0
VERTEX
  5
53A5
  8
0
 10
105.8156528554298035
 20
45.2777708545426023
 30
0.0
  0
VERTEX
  5
53A6
  8
0
 10
105.8618526622224039
 20
45.191331151541192
 30
0.0
  0
VERTEX
  5
53A7
  8
0
 10
105.8828843648026066
 20
45.1293612516353733
 30
0.0
  0
SEQEND
  5
53A8
  8
0
  0
LINE
  5
4F89
  8
0
 10
108.5229171731893985
 20
35.2769660944027805
 30
0.0
 11
105.8829629131436008
 21
45.1294095225512706
 31
0.0
  0
LINE
  5
4F8A
  8
0
 10
104.9170370868545064
 20
44.8705904774487294
 30
0.0
 11
107.5569913469003041
 21
35.0181470493002394
 31
0.0
  0
LINE
  5
4F8B
  8
0
 10
82.1229171731893359
 20
35.2769660944027805
 30
0.0
 11
79.4829629131436661
 21
45.1294095225512706
 31
0.0
  0
LINE
  5
4F8C
  8
0
 10
78.5170370868545717
 20
44.8705904774487294
 30
0.0
 11
81.1569913469002984
 21
35.0181470493002394
 31
0.0
  0
POLYLINE
  5
4F8D
  8
0
 66
     1
 10
0.0
 20
0.0
 30
0.0
  0
VERTEX
  5
53A9
  8
0
 10
84.2799542600733105
 20
45.4999999979078709
 30
0.0
  0
VERTEX
  5
53AA
  8
0
 10
84.1824155858917749
 20
45.49038483064151
 30
0.0
  0
VERTEX
  5
53AB
  8
0
 10
84.0886265906374604
 20
45.4619266372372408
 30
0.0
  0
VERTEX
  5
53AC
  8
0
 10
84.0021911143532236
 20
45.4157189231393588
 30
0.0
  0
VERTEX
  5
53AD
  8
0
 10
83.926430438279823
 20
45.3535372187275811
 30
0.0
  0
VERTEX
  5
53AE
  8
0
 10
83.8642556646993569
 20
45.2777708546017195
 30
0.0
  0
VERTEX
  5
53AF
  8
0
 10
83.8180558578945067
 20
45.191331151606839
 30
0.0
  0
VERTEX
  5
53B0
  8
0
 10
83.797024155287005
 20
45.1293612516353093
 30
0.0
  0
SEQEND
  5
53B1
  8
0
  0
POLYLINE
  5
4F8E
  8
0
 66
     1
 10
0.0
 20
0.0
 30
0.0
  0
VERTEX
  5
53B2
  8
0
 10
84.2799542600733105
 20
45.4999999979078709
 30
0.0
  0
VERTEX
  5
53B3
  8
0
 10
84.3774929342536382
 20
45.4903848306304326
 30
0.0
  0
VERTEX
  5
53B4
  8
0
 10
84.4712819295047268
 20
45.4619266372154698
 30
0.0
  0
VERTEX
  5
53B5
  8
0
 10
84.557717405783734
 20
45.4157189231077609
 30
0.0
  0
VERTEX
  5
53B6
  8
0
 10
84.6334780818500292
 20
45.3535372186873929
 30
0.0
  0
VERTEX
  5
53B7
  8
0
 10
84.6956528554219119
 20
45.2777708545544328
 30
0.0
  0
VERTEX
  5
53B8
  8
0
 10
84.741852662216985
 20
45.1913311515543228
 30
0.0
  0
VERTEX
  5
53B9
  8
0
 10
84.762884364802602
 20
45.1293612516353733
 30
0.0
  0
SEQEND
  5
53BA
  8
0
  0
LINE
  5
4F8F
  8
0
 10
87.4029171731893655
 20
35.2769660944027805
 30
0.0
 11
84.7629629131436388
 21
45.1294095225512706
 31
0.0
  0
LINE
  5
4F90
  8
0
 10
83.7970370868545444
 20
44.8705904774487294
 30
0.0
 11
86.4369913469003279
 21
35.0181470493002394
 31
0.0
  0
POLYLINE
  5
4F91
  8
0
 66
     1
 10
0.0
 20
0.0
 30
0.0
  0
VERTEX
  5
53BB
  8
0
 10
94.8399542600590451
 20
45.4999999979078709
 30
0.0
  0
VERTEX
  5
53BC
  8
0
 10
94.7424155858778079
 20
45.4903848306387317
 30
0.0
  0
VERTEX
  5
53BD
  8
0
 10
94.6486265906243318
 20
45.4619266372317767
 30
0.0
  0
VERTEX
  5
53BE
  8
0
 10
94.5621911143413456
 20
45.4157189231314575
 30
0.0
  0
VERTEX
  5
53BF
  8
0
 10
94.4864304382698066
 20
45.3535372187175199
 30
0.0
  0
VERTEX
  5
53C0
  8
0
 10
94.4242556646914437
 20
45.2777708545899031
 30
0.0
  0
VERTEX
  5
53C1
  8
0
 10
94.3780558578890663
 20
45.1913311515937082
 30
0.0
  0
VERTEX
  5
53C2
  8
0
 10
94.3570241552870641
 20
45.1293612516353093
 30
0.0
  0
SEQEND
  5
53C3
  8
0
  0
POLYLINE
  5
4F92
  8
0
 66
     1
 10
0.0
 20
0.0
 30
0.0
  0
VERTEX
  5
53C4
  8
0
 10
94.8399542600590451
 20
45.4999999979078709
 30
0.0
  0
VERTEX
  5
53C5
  8
0
 10
94.9374929342397138
 20
45.4903848306332179
 30
0.0
  0
VERTEX
  5
53C6
  8
0
 10
95.0312819294915982
 20
45.4619266372209196
 30
0.0
  0
VERTEX
  5
53C7
  8
0
 10
95.1177174057719697
 20
45.4157189231156622
 30
0.0
  0
VERTEX
  5
53C8
  8
0
 10
95.1934780818399702
 20
45.353537218697447
 30
0.0
  0
VERTEX
  5
53C9
  8
0
 10
95.2556528554140129
 20
45.2777708545662634
 30
0.0
  0
VERTEX
  5
53CA
  8
0
 10
95.3018526622114734
 20
45.1913311515674465
 30
0.0
  0
VERTEX
  5
53CB
  8
0
 10
95.3228843648026043
 20
45.1293612516353093
 30
0.0
  0
SEQEND
  5
53CC
  8
0
  0
LINE
  5
4F93
  8
0
 10
97.9629171731893535
 20
35.2769660944027805
 30
0.0
 11
95.3229629131436553
 21
45.1294095225512706
 31
0.0
  0
LINE
  5
4F94
  8
0
 10
94.3570370868546036
 20
44.8705904774487294
 30
0.0
 11
96.9969913469002734
 21
35.0181470493002394
 31
0.0
  0
POLYLINE
  5
4F95
  8
0
 66
     1
 10
0.0
 20
0.0
 30
0.0
  0
VERTEX
  5
53CD
  8
0
 10
89.5599542600590723
 20
45.4999999979078709
 30
0.0
  0
VERTEX
  5
53CE
  8
0
 10
89.4624155858778352
 20
45.4903848306387317
 30
0.0
  0
VERTEX
  5
53CF
  8
0
 10
89.3686265906243591
 20
45.4619266372317767
 30
0.0
  0
VERTEX
  5
53D0
  8
0
 10
89.2821911143413587
 20
45.4157189231314575
 30
0.0
  0
VERTEX
  5
53D1
  8
0
 10
89.2064304382697912
 20
45.3535372187175199
 30
0.0
  0
VERTEX
  5
53D2
  8
0
 10
89.1442556646914284
 20
45.2777708545899031
 30
0.0
  0
VERTEX
  5
53D3
  8
0
 10
89.0980558578890225
 20
45.1913311515937082
 30
0.0
  0
VERTEX
  5
53D4
  8
0
 10
89.0770241552870345
 20
45.1293612516353093
 30
0.0
  0
SEQEND
  5
53D5
  8
0
  0
POLYLINE
  5
4F96
  8
0
 66
     1
 10
0.0
 20
0.0
 30
0.0
  0
VERTEX
  5
53D6
  8
0
 10
89.5599542600590723
 20
45.4999999979078709
 30
0.0
  0
VERTEX
  5
53D7
  8
0
 10
89.6574929342397269
 20
45.4903848306332179
 30
0.0
  0
VERTEX
  5
53D8
  8
0
 10
89.7512819294915545
 20
45.4619266372209196
 30
0.0
  0
VERTEX
  5
53D9
  8
0
 10
89.8377174057719543
 20
45.4157189231156622
 30
0.0
  0
VERTEX
  5
53DA
  8
0
 10
89.9134780818399264
 20
45.353537218697447
 30
0.0
  0
VERTEX
  5
53DB
  8
0
 10
89.9756528554139834
 20
45.2777708545662634
 30
0.0
  0
VERTEX
  5
53DC
  8
0
 10
90.0218526622115007
 20
45.1913311515674465
 30
0.0
  0
VERTEX
  5
53DD
  8
0
 10
90.0428843648026458
 20
45.1293612516353093
 30
0.0
  0
SEQEND
  5
53DE
  8
0
  0
LINE
  5
4F97
  8
0
 10
92.682917173189395
 20
35.2769660944027805
 30
0.0
 11
90.0429629131436116
 21
45.1294095225512706
 31
0.0
  0
LINE
  5
4F98
  8
0
 10
89.077037086854574
 20
44.8705904774487294
 30
0.0
 11
91.7169913469003006
 21
35.0181470493002394
 31
0.0
  0
LINE
  5
4F99
  8
0
 10
112.8199542600447955
 20
45.3475565718514986
 30
0.0
 11
112.8199542600447955
 21
40.2475565718514687
 31
0.0
  0
LINE
  5
4F9A
  8
0
 10
113.8199542600447955
 20
40.2475565718514687
 30
0.0
 11
113.8199542600447955
 21
45.3475565718514986
 31
0.0
  0
LINE
  5
4F9B
  8
0
 10
113.8199542600447955
 20
35.1475565718515099
 30
0.0
 11
113.8199542600447955
 21
36.0
 31
0.0
  0
ARC
  5
4F9C
  8
0
 10
113.3199542600447955
 20
45.3475565718514986
 30
0.0
 40
0.5
 50
0.0
 51
180.0
  0
LINE
  5
4F9D
  8
0
 10
112.8199542600447955
 20
40.2475565718514687
 30
0.0
 11
113.8199542600447955
 21
40.2475565718514687
 31
0.0
  0
LINE
  5
4F9E
  8
1
 10
66.9999999999991189
 20
40.0
 30
0.0
 11
159.5999999999991985
 21
39.9999999999999574
 31
0.0
  0
LINE
  5
4F9F
  8
3
 10
113.9999999999990052
 20
45.0529999999998765
 30
0.0
 11
118.2857142857133965
 21
45.0529999999998267
 31
0.0
  0
LINE
  5
4FA0
  8
3
 10
123.285714285713297
 20
45.0529999999998267
 30
0.0
 11
133.9999999999988916
 21
45.0529999999998267
 31
0.0
  0
LINE
  5
4FA1
  8
3
 10
138.9999999999988916
 20
45.0529999999998267
 30
0.0
 11
143.9999999999990052
 21
45.0529999999998267
 31
0.0
  0
LINE
  5
4FA2
  8
3
 10
113.9999999999990052
 20
34.9469999999997825
 30
0.0
 11
118.2857142857133965
 21
34.9469999999997825
 31
0.0
  0
LINE
  5
4FA3
  8
3
 10
123.2857142857133965
 20
34.9469999999997825
 30
0.0
 11
133.9999999999988916
 21
34.9469999999997825
 31
0.0
  0
LINE
  5
4FA4
  8
3
 10
138.9999999999990052
 20
34.9469999999997825
 30
0.0
 11
143.9999999999990052
 21
34.9469999999997825
 31
0.0
  0
ARC
  5
50C8
  8
0
 10
186.5999999999991985
 20
90.0
 30
0.0
 40
6.0
 50
336.4435356909007737
 51
23.5564643091010097
  0
ARC
  5
50C9
  8
0
 10
186.5999999999991985
 20
90.0
 30
0.0
 40
6.0
 50
156.4435356909008874
 51
203.5564643090991126
  0
LINE
  5
50CA
  8
0
 10
177.0999999999991985
 20
95.4848275573014575
 30
0.0
 11
180.851266802605295
 21
97.650622455588163
 31
0.0
  0
LINE
  5
50CB
  8
0
 10
196.0999999999991985
 20
95.4848275573014575
 30
0.0
 11
196.0999999999991985
 21
84.5151724426985425
 31
0.0
  0
LINE
  5
50CC
  8
0
 10
180.851266802605295
 20
82.3493775444118512
 30
0.0
 11
177.0999999999991985
 21
84.5151724426985425
 31
0.0
  0
ARC
  5
50CD
  8
0
 10
186.5999999999991132
 20
90.0
 30
0.0
 40
9.4999999999998863
 50
306.5911626409068163
 51
53.4088373590931909
  0
ARC
  5
50CE
  8
0
 10
186.5999999999991132
 20
90.0
 30
0.0
 40
9.4999999999998863
 50
126.591162640906802
 51
233.4088373590930985
  0
LINE
  5
50CF
  8
0
 10
196.0999999999991985
 20
95.4848275573014575
 30
0.0
 11
192.3487331973931873
 21
97.6506224555881204
 31
0.0
  0
LINE
  5
50D0
  8
0
 10
177.0999999999991985
 20
95.4848275573014575
 30
0.0
 11
177.0999999999991985
 21
84.5151724426985425
 31
0.0
  0
LINE
  5
50D1
  8
0
 10
192.348733197393301
 20
82.3493775444118938
 30
0.0
 11
196.0999999999991985
 21
84.5151724426985425
 31
0.0
  0
LINE
  5
50D2
  8
1
 10
174.0999999999991132
 20
90.0
 30
0.0
 11
199.0999999999991132
 21
90.0
 31
0.0
  0
LINE
  5
50D3
  8
1
 10
186.5999999999991132
 20
113.0
 30
0.0
 11
186.5999999999991132
 21
66.9999999999999432
 31
0.0
  0
LINE
  5
50D4
  8
0
 10
181.4499999999993065
 20
75.0499999999999261
 30
0.0
 11
181.4499999999993065
 21
71.3535533905931914
 31
0.0
  0
LINE
  5
50D5
  8
0
 10
191.7499999999992895
 20
71.3535533905932482
 30
0.0
 11
191.7499999999992042
 21
75.0500000000000114
 31
0.0
  0
LINE
  5
50D6
  8
0
 10
181.4499999999993065
 20
71.3535533905931914
 30
0.0
 11
181.8035533905924979
 21
70.9999999999999147
 31
0.0
  0
LINE
  5
50D7
  8
0
 10
191.3964466094060128
 20
71.0
 30
0.0
 11
191.7499999999992895
 21
71.3535533905932482
 31
0.0
  0
LINE
  5
50D8
  8
0
 10
181.5999999999991985
 20
77.7671572875253219
 30
0.0
 11
181.5999999999991985
 21
75.0499999999999261
 31
0.0
  0
LINE
  5
50D9
  8
0
 10
191.5999999999991985
 20
75.0500000000000114
 30
0.0
 11
191.5999999999991985
 21
77.7671572875253787
 31
0.0
  0
LINE
  5
50DA
  8
0
 10
191.5999999999991985
 20
77.7671572875253787
 30
0.0
 11
191.317157287524509
 21
78.0500000000000114
 31
0.0
  0
LINE
  5
50DB
  8
0
 10
181.8828427124738027
 20
78.0499999999999261
 30
0.0
 11
181.5999999999991985
 21
77.7671572875253219
 31
0.0
  0
LINE
  5
50DC
  8
0
 10
181.8999999999992099
 20
84.4999999999999289
 30
0.0
 11
181.8999999999992099
 21
83.0499999999999261
 31
0.0
  0
LINE
  5
50DD
  8
0
 10
191.2999999999991871
 20
83.0499999999999687
 30
0.0
 11
191.2999999999991871
 21
84.5000000000000142
 31
0.0
  0
LINE
  5
50DE
  8
0
 10
182.5999999999991985
 20
83.0499999999999261
 30
0.0
 11
182.5999999999991985
 21
82.5499999999999261
 31
0.0
  0
LINE
  5
50DF
  8
0
 10
190.5999999999991985
 20
82.5499999999999829
 30
0.0
 11
190.5999999999991985
 21
83.0499999999999687
 31
0.0
  0
LINE
  5
50E0
  8
0
 10
183.3499999999991985
 20
79.0499999999999545
 30
0.0
 11
183.3499999999991985
 21
78.0499999999999545
 31
0.0
  0
LINE
  5
50E1
  8
0
 10
189.8499999999991985
 20
78.0499999999999829
 30
0.0
 11
189.8499999999991985
 21
79.0499999999999829
 31
0.0
  0
LINE
  5
50E2
  8
0
 10
192.3735026918953963
 20
82.3427405783631059
 30
0.0
 11
191.5999999999991985
 21
82.5499999999999829
 31
0.0
  0
LINE
  5
50E3
  8
0
 10
181.5999999999991132
 20
82.5499999999999261
 30
0.0
 11
180.8264973081030007
 21
82.3427405783630206
 31
0.0
  0
LINE
  5
50E4
  8
0
 10
180.8264973081030007
 20
79.2572594216368316
 30
0.0
 11
181.5999999999991985
 21
79.0499999999999261
 31
0.0
  0
LINE
  5
50E5
  8
0
 10
191.5999999999991985
 20
79.0500000000000114
 30
0.0
 11
192.3735026918953963
 21
79.2572594216369168
 31
0.0
  0
LINE
  5
50E6
  8
0
 10
184.5999999999991985
 20
70.9999999999999432
 30
0.0
 11
184.8679491924303875
 21
69.9999999999999432
 31
0.0
  0
LINE
  5
50E7
  8
0
 10
188.3320508075682085
 20
69.9999999999999716
 30
0.0
 11
188.5999999999991985
 21
70.9999999999999716
 31
0.0
  0
LINE
  5
50E8
  8
0
 10
192.0999999999991985
 20
84.5000000000000142
 30
0.0
 11
192.0999999999991132
 21
95.5
 31
0.0
  0
LINE
  5
50E9
  8
0
 10
192.0999999999991985
 20
84.4999999999999716
 30
0.0
 11
181.0999999999991985
 21
84.4999999999999289
 31
0.0
  0
LINE
  5
50EA
  8
0
 10
192.0999999999991132
 20
95.4999999999999716
 30
0.0
 11
181.0999999999991985
 21
95.4999999999999005
 31
0.0
  0
LINE
  5
50EB
  8
0
 10
181.0999999999991985
 20
84.4999999999999147
 30
0.0
 11
181.0999999999991132
 21
95.4999999999999147
 31
0.0
  0
LINE
  5
50EC
  8
0
 10
181.4499999999993065
 20
71.3535533905931914
 30
0.0
 11
191.7499999999992895
 21
71.3535533905932482
 31
0.0
  0
LINE
  5
50ED
  8
0
 10
181.4499999999993065
 20
75.0499999999999261
 30
0.0
 11
191.7499999999992895
 21
75.0500000000000114
 31
0.0
  0
LINE
  5
50EE
  8
0
 10
181.8035533905924979
 20
70.9999999999999147
 30
0.0
 11
191.3964466094060128
 21
71.0
 31
0.0
  0
LINE
  5
50EF
  8
0
 10
181.5999999999991985
 20
77.7671572875253219
 30
0.0
 11
191.5999999999991985
 21
77.7671572875246824
 31
0.0
  0
LINE
  5
50F0
  8
0
 10
192.3735026918953963
 20
79.257317433251103
 30
0.0
 11
192.3735026918953963
 21
82.3426825667488913
 31
0.0
  0
POLYLINE
  5
50F1
  8
0
 66
     1
 10
0.0
 20
0.0
 30
0.0
 70
   128
  0
VERTEX
  5
53DF
  8
0
 10
191.1581636882698945
 20
79.0499999999999829
 30
0.0
  0
VERTEX
  5
53E0
  8
0
 10
191.7662790555980905
 20
79.1203371835038354
 30
0.0
  0
VERTEX
  5
53E1
  8
0
 10
192.3735026918953963
 20
79.257317433251103
 30
0.0
  0
SEQEND
  5
53E2
  8
0
  0
POLYLINE
  5
50F2
  8
0
 66
     1
 10
0.0
 20
0.0
 30
0.0
 70
   128
  0
VERTEX
  5
53E3
  8
0
 10
189.4867513459473969
 20
79.245671493960117
 30
0.0
  0
VERTEX
  5
53E4
  8
0
 10
190.0707117978788006
 20
79.1168730451860824
 30
0.0
  0
VERTEX
  5
53E5
  8
0
 10
190.6587890793836948
 20
79.0499999999999829
 30
0.0
  0
SEQEND
  5
53E6
  8
0
  0
LINE
  5
50F3
  8
0
 10
189.4867513459473969
 20
79.245671493960117
 30
0.0
 11
189.4867513459473116
 21
82.354328506039792
 31
0.0
  0
POLYLINE
  5
50F4
  8
0
 66
     1
 10
0.0
 20
0.0
 30
0.0
 70
   128
  0
VERTEX
  5
53E7
  8
0
 10
190.6587890793836948
 20
82.5499999999999545
 30
0.0
  0
VERTEX
  5
53E8
  8
0
 10
190.0723521589731888
 20
82.4834072836433165
 30
0.0
  0
VERTEX
  5
53E9
  8
0
 10
189.4867513459473116
 20
82.354328506039792
 30
0.0
  0
SEQEND
  5
53EA
  8
0
  0
POLYLINE
  5
50F5
  8
0
 66
     1
 10
0.0
 20
0.0
 30
0.0
 70
   128
  0
VERTEX
  5
53EB
  8
0
 10
192.3735026918953963
 20
82.3426825667488913
 30
0.0
  0
VERTEX
  5
53EC
  8
0
 10
191.7680773262102889
 20
82.4793483537699501
 30
0.0
  0
VERTEX
  5
53ED
  8
0
 10
191.1581636882698092
 20
82.5499999999999829
 30
0.0
  0
SEQEND
  5
53EE
  8
0
  0
POLYLINE
  5
50F6
  8
0
 66
     1
 10
0.0
 20
0.0
 30
0.0
 70
   128
  0
VERTEX
  5
53EF
  8
0
 10
187.3053367989826086
 20
79.0499999999999545
 30
0.0
  0
VERTEX
  5
53F0
  8
0
 10
188.3970469797262126
 20
79.1213030263042185
 30
0.0
  0
VERTEX
  5
53F1
  8
0
 10
189.4867513459473969
 20
79.245671493960117
 30
0.0
  0
SEQEND
  5
53F2
  8
0
  0
LINE
  5
50F7
  8
0
 10
181.5999999999991132
 20
79.0499999999999545
 30
0.0
 11
191.5999999999989996
 21
79.0499999999999403
 31
0.0
  0
POLYLINE
  5
50F8
  8
0
 66
     1
 10
0.0
 20
0.0
 30
0.0
 70
   128
  0
VERTEX
  5
53F3
  8
0
 10
183.7132486540511138
 20
79.245671493960117
 30
0.0
  0
VERTEX
  5
53F4
  8
0
 10
184.8004058479463936
 20
79.1215360780651054
 30
0.0
  0
VERTEX
  5
53F5
  8
0
 10
185.8946632010157884
 20
79.0499999999999545
 30
0.0
  0
SEQEND
  5
53F6
  8
0
  0
LINE
  5
50F9
  8
0
 10
183.7132486540511138
 20
79.245671493960117
 30
0.0
 11
183.7132486540511138
 21
82.3543285060397352
 31
0.0
  0
POLYLINE
  5
50FA
  8
0
 66
     1
 10
0.0
 20
0.0
 30
0.0
 70
   128
  0
VERTEX
  5
53F7
  8
0
 10
185.8946632010157884
 20
82.5499999999999545
 30
0.0
  0
VERTEX
  5
53F8
  8
0
 10
184.8029530202722128
 20
82.4786969736956905
 30
0.0
  0
VERTEX
  5
53F9
  8
0
 10
183.7132486540511138
 20
82.3543285060397352
 30
0.0
  0
SEQEND
  5
53FA
  8
0
  0
LINE
  5
50FB
  8
0
 10
191.5999999999993122
 20
82.5499999999999545
 30
0.0
 11
181.5999999999991985
 21
82.5499999999999545
 31
0.0
  0
POLYLINE
  5
50FC
  8
0
 66
     1
 10
0.0
 20
0.0
 30
0.0
 70
   128
  0
VERTEX
  5
53FB
  8
0
 10
189.4867513459473116
 20
82.354328506039792
 30
0.0
  0
VERTEX
  5
53FC
  8
0
 10
188.3995941520520034
 20
82.4784639219347753
 30
0.0
  0
VERTEX
  5
53FD
  8
0
 10
187.3053367989826086
 20
82.5499999999999545
 30
0.0
  0
SEQEND
  5
53FE
  8
0
  0
POLYLINE
  5
50FD
  8
0
 66
     1
 10
0.0
 20
0.0
 30
0.0
 70
   128
  0
VERTEX
  5
53FF
  8
0
 10
183.7132486540511138
 20
82.3543285060397352
 30
0.0
  0
VERTEX
  5
5400
  8
0
 10
183.1292882021195965
 20
82.4831269548138266
 30
0.0
  0
VERTEX
  5
5401
  8
0
 10
182.5412109206145885
 20
82.5499999999999261
 30
0.0
  0
SEQEND
  5
5402
  8
0
  0
POLYLINE
  5
50FE
  8
0
 66
     1
 10
0.0
 20
0.0
 30
0.0
 70
   128
  0
VERTEX
  5
5403
  8
0
 10
182.5412109206145885
 20
79.0499999999998977
 30
0.0
  0
VERTEX
  5
5404
  8
0
 10
183.1276478410250945
 20
79.1165927163565641
 30
0.0
  0
VERTEX
  5
5405
  8
0
 10
183.7132486540511138
 20
79.245671493960117
 30
0.0
  0
SEQEND
  5
5406
  8
0
  0
POLYLINE
  5
50FF
  8
0
 66
     1
 10
0.0
 20
0.0
 30
0.0
 70
   128
  0
VERTEX
  5
5407
  8
0
 10
180.8264973081030007
 20
79.2573174332510035
 30
0.0
  0
VERTEX
  5
5408
  8
0
 10
181.4319226737881081
 20
79.1206516462299732
 30
0.0
  0
VERTEX
  5
5409
  8
0
 10
182.0418363117285878
 20
79.0499999999998977
 30
0.0
  0
SEQEND
  5
540A
  8
0
  0
LINE
  5
5100
  8
0
 10
180.8264973081030007
 20
79.2573174332510035
 30
0.0
 11
180.8264973081030007
 21
82.342682566748806
 31
0.0
  0
POLYLINE
  5
5101
  8
0
 66
     1
 10
0.0
 20
0.0
 30
0.0
 70
   128
  0
VERTEX
  5
540B
  8
0
 10
182.0418363117285878
 20
82.5499999999999261
 30
0.0
  0
VERTEX
  5
540C
  8
0
 10
181.4337209444003065
 20
82.4796628164960737
 30
0.0
  0
VERTEX
  5
540D
  8
0
 10
180.8264973081030007
 20
82.342682566748806
 30
0.0
  0
SEQEND
  5
540E
  8
0
  0
LINE
  5
5102
  8
0
 10
181.8828427124738027
 20
78.0499999999999261
 30
0.0
 11
191.317157287524509
 21
78.0500000000000114
 31
0.0
  0
LINE
  5
5103
  8
0
 10
181.8999999999992099
 20
83.0499999999999261
 30
0.0
 11
191.2999999999991871
 21
83.0499999999999687
 31
0.0
  0
LINE
  5
5104
  8
0
 10
184.8679491924303875
 20
69.9999999999999432
 30
0.0
 11
188.3320508075682085
 21
69.9999999999999716
 31
0.0
  0
LINE
  5
5105
  8
0
 10
181.4499999999993065
 20
104.9500000000000028
 30
0.0
 11
181.4499999999993065
 21
108.6464466094067944
 31
0.0
  0
LINE
  5
5106
  8
0
 10
191.7499999999992895
 20
108.646446609406695
 30
0.0
 11
191.7499999999992042
 21
104.9500000000000028
 31
0.0
  0
LINE
  5
5107
  8
0
 10
181.4499999999993065
 20
108.6464466094067944
 30
0.0
 11
181.8035533905924979
 21
109.0000000000000995
 31
0.0
  0
LINE
  5
5108
  8
0
 10
191.3964466094060128
 20
109.0
 30
0.0
 11
191.7499999999992895
 21
108.646446609406695
 31
0.0
  0
LINE
  5
5109
  8
0
 10
181.5999999999991985
 20
102.2328427124747066
 30
0.0
 11
181.5999999999991985
 21
104.9500000000000028
 31
0.0
  0
LINE
  5
510A
  8
0
 10
191.5999999999991985
 20
104.9500000000000028
 30
0.0
 11
191.5999999999991985
 21
102.2328427124746071
 31
0.0
  0
LINE
  5
510B
  8
0
 10
191.5999999999991985
 20
102.2328427124746071
 30
0.0
 11
191.317157287524509
 21
101.9500000000000028
 31
0.0
  0
LINE
  5
510C
  8
0
 10
181.8828427124738027
 20
101.9500000000000028
 30
0.0
 11
181.5999999999991985
 21
102.2328427124747066
 31
0.0
  0
LINE
  5
510D
  8
0
 10
181.8999999999992099
 20
95.5000000000000568
 30
0.0
 11
181.8999999999992099
 21
96.9500000000000739
 31
0.0
  0
LINE
  5
510E
  8
0
 10
191.2999999999991871
 20
96.9500000000000171
 30
0.0
 11
191.2999999999991871
 21
95.5
 31
0.0
  0
LINE
  5
510F
  8
0
 10
182.5999999999991985
 20
96.9500000000000739
 30
0.0
 11
182.5999999999991985
 21
97.4500000000000739
 31
0.0
  0
LINE
  5
5110
  8
0
 10
190.5999999999991985
 20
97.4500000000000171
 30
0.0
 11
190.5999999999991985
 21
96.9500000000000171
 31
0.0
  0
LINE
  5
5111
  8
0
 10
183.3499999999991985
 20
100.9500000000000028
 30
0.0
 11
183.3499999999991985
 21
101.9500000000000028
 31
0.0
  0
LINE
  5
5112
  8
0
 10
189.8499999999991985
 20
101.9500000000000028
 30
0.0
 11
189.8499999999991985
 21
100.9500000000000028
 31
0.0
  0
LINE
  5
5113
  8
0
 10
192.3735026918953963
 20
97.6572594216368941
 30
0.0
 11
191.5999999999991985
 21
97.4500000000000171
 31
0.0
  0
LINE
  5
5114
  8
0
 10
181.5999999999991132
 20
97.4500000000000739
 30
0.0
 11
180.8264973081030007
 21
97.6572594216369652
 31
0.0
  0
LINE
  5
5115
  8
0
 10
180.8264973081030007
 20
100.7427405783630974
 30
0.0
 11
181.5999999999991985
 21
100.9500000000000028
 31
0.0
  0
LINE
  5
5116
  8
0
 10
191.5999999999991985
 20
100.9500000000000028
 30
0.0
 11
192.3735026918953963
 21
100.7427405783629979
 31
0.0
  0
LINE
  5
5117
  8
0
 10
184.5999999999991985
 20
109.0
 30
0.0
 11
184.8679491924303875
 21
110.0
 31
0.0
  0
LINE
  5
5118
  8
0
 10
188.3320508075682085
 20
110.0
 30
0.0
 11
188.5999999999991985
 21
109.0
 31
0.0
  0
LINE
  5
5119
  8
0
 10
181.4499999999993065
 20
108.6464466094067944
 30
0.0
 11
191.7499999999992895
 21
108.646446609406695
 31
0.0
  0
LINE
  5
511A
  8
0
 10
181.4499999999993065
 20
104.9500000000000028
 30
0.0
 11
191.7499999999992895
 21
104.9500000000000028
 31
0.0
  0
LINE
  5
511B
  8
0
 10
181.8035533905924979
 20
109.0000000000000995
 30
0.0
 11
191.3964466094060128
 21
109.0
 31
0.0
  0
LINE
  5
511C
  8
0
 10
181.5999999999991985
 20
102.2328427124747066
 30
0.0
 11
191.5999999999991985
 21
102.2328427124753034
 31
0.0
  0
LINE
  5
511D
  8
0
 10
192.3735026918953963
 20
100.742682566748897
 30
0.0
 11
192.3735026918953963
 21
97.6573174332511229
 31
0.0
  0
POLYLINE
  5
511E
  8
0
 66
     1
 10
0.0
 20
0.0
 30
0.0
 70
   128
  0
VERTEX
  5
540F
  8
0
 10
191.1581636882698945
 20
100.9500000000000028
 30
0.0
  0
VERTEX
  5
5410
  8
0
 10
191.7662790555980905
 20
100.8796628164960936
 30
0.0
  0
VERTEX
  5
5411
  8
0
 10
192.3735026918953963
 20
100.742682566748897
 30
0.0
  0
SEQEND
  5
5412
  8
0
  0
POLYLINE
  5
511F
  8
0
 66
     1
 10
0.0
 20
0.0
 30
0.0
 70
   128
  0
VERTEX
  5
5413
  8
0
 10
189.4867513459473969
 20
100.7543285060398972
 30
0.0
  0
VERTEX
  5
5414
  8
0
 10
190.0707117978788006
 20
100.8831269548139034
 30
0.0
  0
VERTEX
  5
5415
  8
0
 10
190.6587890793836948
 20
100.9500000000000028
 30
0.0
  0
SEQEND
  5
5416
  8
0
  0
LINE
  5
5120
  8
0
 10
189.4867513459473969
 20
100.7543285060398972
 30
0.0
 11
189.4867513459473116
 21
97.6456714939602222
 31
0.0
  0
POLYLINE
  5
5121
  8
0
 66
     1
 10
0.0
 20
0.0
 30
0.0
 70
   128
  0
VERTEX
  5
5417
  8
0
 10
190.6587890793836948
 20
97.4500000000000455
 30
0.0
  0
VERTEX
  5
5418
  8
0
 10
190.0723521589731888
 20
97.5165927163566835
 30
0.0
  0
VERTEX
  5
5419
  8
0
 10
189.4867513459473116
 20
97.6456714939602222
 30
0.0
  0
SEQEND
  5
541A
  8
0
  0
POLYLINE
  5
5122
  8
0
 66
     1
 10
0.0
 20
0.0
 30
0.0
 70
   128
  0
VERTEX
  5
541B
  8
0
 10
192.3735026918953963
 20
97.6573174332511229
 30
0.0
  0
VERTEX
  5
541C
  8
0
 10
191.7680773262102889
 20
97.5206516462300357
 30
0.0
  0
VERTEX
  5
541D
  8
0
 10
191.1581636882698092
 20
97.4500000000000171
 30
0.0
  0
SEQEND
  5
541E
  8
0
  0
POLYLINE
  5
5123
  8
0
 66
     1
 10
0.0
 20
0.0
 30
0.0
 70
   128
  0
VERTEX
  5
541F
  8
0
 10
187.3053367989826086
 20
100.9500000000000028
 30
0.0
  0
VERTEX
  5
5420
  8
0
 10
188.3970469797262126
 20
100.8786969736957957
 30
0.0
  0
VERTEX
  5
5421
  8
0
 10
189.4867513459473969
 20
100.7543285060398972
 30
0.0
  0
SEQEND
  5
5422
  8
0
  0
LINE
  5
5124
  8
0
 10
181.5999999999991132
 20
100.9500000000000028
 30
0.0
 11
191.5999999999989996
 21
100.9500000000000028
 31
0.0
  0
POLYLINE
  5
5125
  8
0
 66
     1
 10
0.0
 20
0.0
 30
0.0
 70
   128
  0
VERTEX
  5
5423
  8
0
 10
183.7132486540511138
 20
100.7543285060398972
 30
0.0
  0
VERTEX
  5
5424
  8
0
 10
184.8004058479463936
 20
100.8784639219348946
 30
0.0
  0
VERTEX
  5
5425
  8
0
 10
185.8946632010157884
 20
100.9500000000000028
 30
0.0
  0
SEQEND
  5
5426
  8
0
  0
LINE
  5
5126
  8
0
 10
183.7132486540511138
 20
100.7543285060398972
 30
0.0
 11
183.7132486540511138
 21
97.6456714939602648
 31
0.0
  0
POLYLINE
  5
5127
  8
0
 66
     1
 10
0.0
 20
0.0
 30
0.0
 70
   128
  0
VERTEX
  5
5427
  8
0
 10
185.8946632010157884
 20
97.4500000000000455
 30
0.0
  0
VERTEX
  5
5428
  8
0
 10
184.8029530202722128
 20
97.5213030263043237
 30
0.0
  0
VERTEX
  5
5429
  8
0
 10
183.7132486540511138
 20
97.6456714939602648
 30
0.0
  0
SEQEND
  5
542A
  8
0
  0
LINE
  5
5128
  8
0
 10
191.5999999999993122
 20
97.4500000000000455
 30
0.0
 11
181.5999999999991985
 21
97.4500000000000455
 31
0.0
  0
POLYLINE
  5
5129
  8
0
 66
     1
 10
0.0
 20
0.0
 30
0.0
 70
   128
  0
VERTEX
  5
542B
  8
0
 10
189.4867513459473116
 20
97.6456714939602222
 30
0.0
  0
VERTEX
  5
542C
  8
0
 10
188.3995941520520034
 20
97.5215360780652247
 30
0.0
  0
VERTEX
  5
542D
  8
0
 10
187.3053367989826086
 20
97.4500000000000455
 30
0.0
  0
SEQEND
  5
542E
  8
0
  0
POLYLINE
  5
512A
  8
0
 66
     1
 10
0.0
 20
0.0
 30
0.0
 70
   128
  0
VERTEX
  5
542F
  8
0
 10
183.7132486540511138
 20
97.6456714939602648
 30
0.0
  0
VERTEX
  5
5430
  8
0
 10
183.1292882021195965
 20
97.5168730451861734
 30
0.0
  0
VERTEX
  5
5431
  8
0
 10
182.5412109206145885
 20
97.4500000000000739
 30
0.0
  0
SEQEND
  5
5432
  8
0
  0
POLYLINE
  5
512B
  8
0
 66
     1
 10
0.0
 20
0.0
 30
0.0
 70
   128
  0
VERTEX
  5
5433
  8
0
 10
182.5412109206145885
 20
100.9500000000001023
 30
0.0
  0
VERTEX
  5
5434
  8
0
 10
183.1276478410250945
 20
100.8834072836433933
 30
0.0
  0
VERTEX
  5
5435
  8
0
 10
183.7132486540511138
 20
100.7543285060398972
 30
0.0
  0
SEQEND
  5
5436
  8
0
  0
POLYLINE
  5
512C
  8
0
 66
     1
 10
0.0
 20
0.0
 30
0.0
 70
   128
  0
VERTEX
  5
5437
  8
0
 10
180.8264973081030007
 20
100.7426825667489965
 30
0.0
  0
VERTEX
  5
5438
  8
0
 10
181.4319226737881081
 20
100.8793483537699984
 30
0.0
  0
VERTEX
  5
5439
  8
0
 10
182.0418363117285878
 20
100.9500000000001023
 30
0.0
  0
SEQEND
  5
543A
  8
0
  0
LINE
  5
512D
  8
0
 10
180.8264973081030007
 20
100.7426825667489965
 30
0.0
 11
180.8264973081030007
 21
97.657317433251194
 31
0.0
  0
POLYLINE
  5
512E
  8
0
 66
     1
 10
0.0
 20
0.0
 30
0.0
 70
   128
  0
VERTEX
  5
543B
  8
0
 10
182.0418363117285878
 20
97.4500000000000739
 30
0.0
  0
VERTEX
  5
543C
  8
0
 10
181.4337209444003065
 20
97.5203371835039263
 30
0.0
  0
VERTEX
  5
543D
  8
0
 10
180.8264973081030007
 20
97.657317433251194
 30
0.0
  0
SEQEND
  5
543E
  8
0
  0
LINE
  5
512F
  8
0
 10
181.8828427124738027
 20
101.9500000000000028
 30
0.0
 11
191.317157287524509
 21
101.9500000000000028
 31
0.0
  0
LINE
  5
5130
  8
0
 10
181.8999999999992099
 20
96.9500000000000739
 30
0.0
 11
191.2999999999991871
 21
96.9500000000000171
 31
0.0
  0
LINE
  5
5131
  8
0
 10
184.8679491924303875
 20
110.0
 30
0.0
 11
188.3320508075682085
 21
110.0
 31
0.0
  0
LINE
  5
5142
  8
1
 10
151.1499999999990109
 20
48.7735026918961907
 30
0.0
 11
151.1499999999990109
 21
31.2264973081036494
 31
0.0
  0
VIEWPORT
  5
22
 67
     1
  8
0
 10
261.517699115044195
 20
148.5
 30
0.0
 40
523.0353982300885036
 41
297.0
 68
     1
 69
     1
1001
ACAD
1000
MVIEW
1002
{
1070
    16
1010
0.0
1020
0.0
1030
0.0
1010
0.0
1020
0.0
1030
1.0
1040
0.0
1040
297.0
1040
261.517699115044195
1040
148.5
1040
50.0
1040
0.0
1040
0.0
1070
     0
1070
   100
1070
     1
1070
     1
1070
     0
1070
     0
1070
     0
1070
     0
1040
0.0
1040
0.0
1040
0.0
1040
1.0
1040
1.0
1040
10.0
1040
10.0
1070
     0
1002
{
1002
}
1002
}
  0
ENDSEC
  0
EOF
