  0
SECTION
  2
HEADER
  9
$ACADVER
  1
AC1009
  9
$INSBASE
 10
0.0
 20
0.0
 30
0.0
  9
$EXTMIN
 10
0.0
 20
-2.960436562073669
 30
0.0
  9
$EXTMAX
 10
294.99999999999977
 20
224.9999999999998
 30
0.0
  9
$LIMMIN
 10
0.0
 20
0.0
  9
$LIMMAX
 10
375.0
 20
270.0
  9
$ORTHOMODE
 70
     1
  9
$REGENMODE
 70
     1
  9
$FILLMODE
 70
     1
  9
$QTEXTMODE
 70
     0
  9
$MIRRTEXT
 70
     0
  9
$DRAGMODE
 70
     2
  9
$LTSCALE
 40
10.0
  9
$OSMODE
 70
    37
  9
$ATTMODE
 70
     1
  9
$TEXTSIZE
 40
5.0
  9
$TRACEWID
 40
0.05
  9
$TEXTSTYLE
  7
STANDARD
  9
$CLAYER
  8
0
  9
$CELTYPE
  6
BYLAYER
  9
$CECOLOR
 62
   256
  9
$DIMSCALE
 40
1.0
  9
$DIMASZ
 40
3.0
  9
$DIMEXO
 40
2.0
  9
$DIMDLI
 40
0.38
  9
$DIMRND
 40
0.0
  9
$DIMDLE
 40
0.0
  9
$DIMEXE
 40
2.0
  9
$DIMTP
 40
0.0
  9
$DIMTM
 40
0.0
  9
$DIMTXT
 40
3.2000000000000002
  9
$DIMCEN
 40
0.0
  9
$DIMTSZ
 40
0.0
  9
$DIMTOL
 70
     0
  9
$DIMLIM
 70
     0
  9
$DIMTIH
 70
     0
  9
$DIMTOH
 70
     0
  9
$DIMSE1
 70
     0
  9
$DIMSE2
 70
     0
  9
$DIMTAD
 70
     1
  9
$DIMZIN
 70
     8
  9
$DIMBLK
  1

  9
$DIMASO
 70
     1
  9
$DIMSHO
 70
     0
  9
$DIMPOST
  1

  9
$DIMAPOST
  1

  9
$DIMALT
 70
     0
  9
$DIMALTD
 70
     2
  9
$DIMALTF
 40
25.399999999999999
  9
$DIMLFAC
 40
1.0
  9
$DIMTOFL
 70
     1
  9
$DIMTVP
 40
1.6000000000000001
  9
$DIMTIX
 70
     1
  9
$DIMSOXD
 70
     0
  9
$DIMSAH
 70
     0
  9
$DIMBLK1
  1

  9
$DIMBLK2
  1

  9
$DIMSTYLE
  2
STANDARD
  9
$DIMCLRD
 70
     0
  9
$DIMCLRE
 70
     0
  9
$DIMCLRT
 70
     0
  9
$DIMTFAC
 40
1.0
  9
$DIMGAP
 40
0.09
  9
$LUNITS
 70
     2
  9
$LUPREC
 70
     1
  9
$SKETCHINC
 40
0.1
  9
$FILLETRAD
 40
0.0
  9
$AUNITS
 70
     0
  9
$AUPREC
 70
     0
  9
$MENU
  1
E:\r13\win\SUPPORT\ACAD
  9
$ELEVATION
 40
0.0
  9
$PELEVATION
 40
0.0
  9
$THICKNESS
 40
0.0
  9
$LIMCHECK
 70
     0
  9
$BLIPMODE
 70
     0
  9
$CHAMFERA
 40
0.0
  9
$CHAMFERB
 40
0.0
  9
$SKPOLY
 70
     0
  9
$TDCREATE
 40
2449839.7936921301
  9
$TDUPDATE
 40
2459354.7015302321
  9
$TDINDWG
 40
0.0056563426
  9
$TDUSRTIMER
 40
0.0056563426
  9
$USRTIMER
 70
     1
  9
$ANGBASE
 50
0.0
  9
$ANGDIR
 70
     0
  9
$PDMODE
 70
     0
  9
$PDSIZE
 40
0.0
  9
$PLINEWID
 40
0.0
  9
$COORDS
 70
     1
  9
$SPLFRAME
 70
     0
  9
$SPLINETYPE
 70
     6
  9
$SPLINESEGS
 70
     8
  9
$ATTDIA
 70
     0
  9
$ATTREQ
 70
     1
  9
$HANDLING
 70
     1
  9
$HANDSEED
  5
3A3
  9
$SURFTAB1
 70
     6
  9
$SURFTAB2
 70
     6
  9
$SURFTYPE
 70
     6
  9
$SURFU
 70
     6
  9
$SURFV
 70
     6
  9
$UCSNAME
  2

  9
$UCSORG
 10
0.0
 20
0.0
 30
0.0
  9
$UCSXDIR
 10
1.0
 20
0.0
 30
0.0
  9
$UCSYDIR
 10
0.0
 20
1.0
 30
0.0
  9
$PUCSNAME
  2

  9
$PUCSORG
 10
0.0
 20
0.0
 30
0.0
  9
$PUCSXDIR
 10
1.0
 20
0.0
 30
0.0
  9
$PUCSYDIR
 10
0.0
 20
1.0
 30
0.0
  9
$USERI1
 70
     0
  9
$USERI2
 70
     1
  9
$USERI3
 70
     1
  9
$USERI4
 70
     0
  9
$USERI5
 70
     0
  9
$USERR1
 40
0.0
  9
$USERR2
 40
0.0
  9
$USERR3
 40
0.0
  9
$USERR4
 40
0.0
  9
$USERR5
 40
0.0
  9
$WORLDVIEW
 70
     1
  9
$SHADEDGE
 70
     3
  9
$SHADEDIF
 70
    70
  9
$TILEMODE
 70
     1
  9
$MAXACTVP
 70
    16
  9
$PLIMCHECK
 70
     0
  9
$PEXTMIN
 10
1.0000000000000000E+020
 20
1.0000000000000000E+020
 30
1.0000000000000000E+020
  9
$PEXTMAX
 10
-1.0000000000000000E+020
 20
-1.0000000000000000E+020
 30
-1.0000000000000000E+020
  9
$PLIMMIN
 10
0.0
 20
0.0
  9
$PLIMMAX
 10
12.0
 20
9.0
  9
$UNITMODE
 70
     0
  9
$VISRETAIN
 70
     0
  9
$PLINEGEN
 70
     0
  9
$PSLTSCALE
 70
     0
  0
ENDSEC
  0
SECTION
  2
TABLES
  0
TABLE
  2
VPORT
 70
     1
  0
VPORT
  2
*ACTIVE
 70
     0
 10
0.0
 20
0.0
 11
1.0
 21
1.0
 12
390.29363784665583
 22
150.0
 13
0.0
 23
0.0
 14
10.0
 24
10.0
 15
10.0
 25
10.0
 16
0.0
 26
0.0
 36
1.0
 17
0.0
 27
0.0
 37
0.0
 40
300.0
 41
2.6019575856443709
 42
50.0
 43
0.0
 44
0.0
 50
0.0
 51
0.0
 71
     0
 72
   500
 73
     1
 74
     0
 75
     0
 76
     0
 77
     0
 78
     2
  0
ENDTAB
  0
TABLE
  2
LTYPE
 70
     3
  0
LTYPE
  2
CONTINUOUS
 70
     0
  3
Solid Line
 72
    65
 73
     0
 40
0.0
  0
LTYPE
  2
CENTER
 70
     0
  3
____ _ ____ _ ____ _ ____ _ ____ _ ____ _ ____
 72
    65
 73
     4
 40
2.0
 49
1.25
 49
-0.25
 49
0.25
 49
-0.25
  0
LTYPE
  2
PHANTOM2
 70
     0
  3
___ _ _ ___ _ _ ___ _ _ ___ _ _
 72
    65
 73
     6
 40
1.25
 49
0.625
 49
-0.125
 49
0.125
 49
-0.125
 49
0.125
 49
-0.125
  0
ENDTAB
  0
TABLE
  2
LAYER
 70
     3
  0
LAYER
  2
0
 70
     0
 62
     7
  6
CONTINUOUS
  0
LAYER
  2
1
 70
     0
 62
     1
  6
CENTER
  0
LAYER
  2
3
 70
     0
 62
     3
  6
CONTINUOUS
  0
ENDTAB
  0
TABLE
  2
STYLE
 70
     3
  0
STYLE
  2
STANDARD
 70
     0
 40
0.0
 41
1.0
 50
0.0
 71
     0
 42
5.0
  3
TXT
  4
BIGFONT
  0
STYLE
  2
SIM080
 70
     0
 40
0.0
 41
0.8
 50
0.0
 71
     0
 42
2.0
  3
SIMPLEX
  4

  0
STYLE
  2
STANDARD1
 70
     0
 40
0.0
 41
1.0
 50
0.0
 71
     0
 42
3.0
  3
txt
  4

  0
ENDTAB
  0
TABLE
  2
VIEW
 70
     1
  0
VIEW
  2
ALL
 70
     0
 40
270.0
 10
220.99159663865549
 20
135.0
 41
0.0
 11
0.0
 21
0.0
 31
1.0
 12
0.0
 22
0.0
 32
0.0
 42
0.0
 43
0.0
 44
0.0
 50
0.0
 71
     0
  0
ENDTAB
  0
TABLE
  2
UCS
 70
     0
  0
ENDTAB
  0
TABLE
  2
APPID
 70
     6
  0
APPID
  2
ACAD
 70
     0
  0
APPID
  2
ACAD_MLEADERVER
 70
     0
  0
APPID
  2
ACAD_EXEMPT_FROM_CAD_STANDARDS
 70
     0
  0
APPID
  2
ACAD_DSTYLE_DIMJAG
 70
     0
  0
APPID
  2
ACAD_DSTYLE_DIMTALN
 70
     0
  0
APPID
  2
ACAD_NAV_VCDISPLAY
 70
     0
  0
ENDTAB
  0
TABLE
  2
DIMSTYLE
 70
     1
  0
DIMSTYLE
  2
STANDARD
 70
     0
  3

  4

  5

  6

  7

 40
1.0
 41
0.18
 42
0.0625
 43
0.38
 44
0.18
 45
0.0
 46
0.0
 47
0.0
 48
0.0
140
0.18
141
0.09
142
0.0
143
25.399999999999999
144
1.0
145
0.0
146
1.0
147
0.09
 71
     0
 72
     0
 73
     1
 74
     1
 75
     0
 76
     0
 77
     0
 78
     0
170
     0
171
     2
172
     0
173
     0
174
     0
175
     0
176
     0
177
     0
178
     0
  0
ENDTAB
  0
ENDSEC
  0
SECTION
  2
BLOCKS
  0
BLOCK
  8
0
  2
$MODEL_SPACE
 70
     0
 10
0.0
 20
0.0
 30
0.0
  3
$MODEL_SPACE
  1

  0
ENDBLK
  5
1C0
  8
0
  0
BLOCK
 67
     1
  8
0
  2
$PAPER_SPACE
 70
     0
 10
0.0
 20
0.0
 30
0.0
  3
$PAPER_SPACE
  1

  0
ENDBLK
  5
1BE
 67
     1
  8
0
  0
ENDSEC
  0
SECTION
  2
ENTITIES
  0
LINE
  5
35
  8
0
 10
199.3154999999999
 20
42.199999999999967
 30
0.0
 11
199.3154999999999
 21
40.00000000000005
 31
0.0
  0
LINE
  5
36
  8
3
 10
180.6844999999999
 20
48.500000000000171
 30
0.0
 11
180.6844999999999
 21
42.199999999999982
 31
0.0
  0
LINE
  5
37
  8
0
 10
179.52249999999989
 20
42.199999999999982
 30
0.0
 11
200.47749999999991
 21
42.199999999999967
 31
0.0
  0
LINE
  5
38
  8
0
 10
180.68450000000001
 20
40.000000000000057
 30
0.0
 11
199.3154999999999
 21
39.999999999999943
 31
0.0
  0
LINE
  5
39
  8
0
 10
179.52249999999989
 20
48.500000000000171
 30
0.0
 11
179.52249999999989
 21
42.199999999999982
 31
0.0
  0
LINE
  5
3A
  8
0
 10
180.68450000000001
 20
42.199999999999982
 30
0.0
 11
180.68450000000001
 21
40.000000000000057
 31
0.0
  0
LINE
  5
3B
  8
0
 10
200.47749999999991
 20
48.500000000000163
 30
0.0
 11
200.47749999999991
 21
42.199999999999967
 31
0.0
  0
LINE
  5
3C
  8
3
 10
199.3154999999999
 20
48.500000000000163
 30
0.0
 11
199.3154999999999
 21
42.199999999999967
 31
0.0
  0
LINE
  5
3D
  8
0
 10
177.0000000000002
 20
209.9999999999998
 30
0.0
 11
177.0000000000002
 21
211.4999999999998
 31
0.0
  0
LINE
  5
3E
  8
0
 10
202.9999999999998
 20
211.4999999999998
 30
0.0
 11
177.0000000000002
 21
211.4999999999998
 31
0.0
  0
LINE
  5
3F
  8
0
 10
202.9999999999998
 20
209.9999999999998
 30
0.0
 11
202.9999999999998
 21
211.4999999999998
 31
0.0
  0
LINE
  5
40
  8
1
 10
169.5
 20
129.99999999999989
 30
0.0
 11
210.5
 21
129.99999999999989
 31
0.0
  0
LINE
  5
41
  8
1
 10
190.0
 20
150.49999999999989
 30
0.0
 11
190.0
 21
109.4999999999999
 31
0.0
  0
LINE
  5
42
  8
1
 10
190.0
 20
184.49999999999989
 30
0.0
 11
190.0
 21
224.9999999999998
 31
0.0
  0
ARC
  5
43
  8
0
 10
189.99999999999989
 20
129.99999999999989
 30
0.0
 40
15.5
 50
10.963040967183289
 51
34.036959032816007
  0
ARC
  5
44
  8
0
 10
190.0
 20
129.99999999999989
 30
0.0
 40
14.5
 50
349.84473097290021
 51
10.15526902710012
  0
CIRCLE
  5
45
  8
0
 10
190.0
 20
129.99999999999989
 30
0.0
 40
13.0
  0
LINE
  5
46
  8
0
 10
201.90019931856941
 20
138.28463977360079
 30
0.0
 11
202.84448867808061
 21
138.6757772331151
 31
0.0
  0
LINE
  5
47
  8
0
 10
204.27283659923191
 20
132.55658667203039
 30
0.0
 11
205.21712595874331
 21
132.94772413154459
 31
0.0
  0
LINE
  5
48
  8
0
 10
198.28463977360059
 20
141.9001993185683
 30
0.0
 11
198.67577723311479
 21
142.84448867807961
 31
0.0
  0
LINE
  5
49
  8
0
 10
192.55658667203099
 20
144.27283659923279
 30
0.0
 11
192.9477241315451
 21
145.21712595874411
 31
0.0
  0
ARC
  5
4A
  8
0
 10
190.0
 20
129.99999999999989
 30
0.0
 40
15.5
 50
55.963040967183296
 51
79.036959032816014
  0
LINE
  5
4B
  8
0
 10
187.44341332796941
 20
144.27283659923191
 30
0.0
 11
187.05227586845521
 21
145.2171259587434
 31
0.0
  0
LINE
  5
4C
  8
0
 10
181.71536022639901
 20
141.90019931856941
 30
0.0
 11
181.32422276688479
 21
142.84448867808061
 31
0.0
  0
ARC
  5
4D
  8
0
 10
189.99999999999989
 20
130.0
 30
0.0
 40
15.5
 50
100.9630409671833
 51
124.036959032816
  0
LINE
  5
4E
  8
0
 10
178.09980068143159
 20
138.28463977360059
 30
0.0
 11
177.15551132192019
 21
138.67577723311479
 31
0.0
  0
LINE
  5
4F
  8
0
 10
175.72716340076701
 20
132.5565866720309
 30
0.0
 11
174.7828740412557
 21
132.9477241315451
 31
0.0
  0
ARC
  5
50
  8
0
 10
190.0
 20
129.99999999999989
 30
0.0
 40
15.5
 50
145.9630409671833
 51
169.03695903281599
  0
LINE
  5
51
  8
0
 10
175.72716340076789
 20
127.4434133279694
 30
0.0
 11
174.7828740412566
 21
127.0522758684552
 31
0.0
  0
LINE
  5
52
  8
0
 10
178.09980068143051
 20
121.7153602263991
 30
0.0
 11
177.15551132191931
 21
121.3242227668849
 31
0.0
  0
ARC
  5
53
  8
0
 10
190.0
 20
129.99999999999989
 30
0.0
 40
15.5
 50
190.9630409671833
 51
214.03695903281599
  0
LINE
  5
54
  8
0
 10
181.7153602263993
 20
118.0998006814315
 30
0.0
 11
181.3242227668851
 21
117.1555113219202
 31
0.0
  0
LINE
  5
55
  8
0
 10
187.4434133279689
 20
115.7271634007669
 30
0.0
 11
187.05227586845481
 21
114.7828740412557
 31
0.0
  0
ARC
  5
56
  8
0
 10
189.99999999999989
 20
129.99999999999989
 30
0.0
 40
15.5
 50
235.9630409671833
 51
259.03695903281613
  0
LINE
  5
57
  8
0
 10
192.55658667203039
 20
115.72716340076791
 30
0.0
 11
192.94772413154459
 21
114.7828740412566
 31
0.0
  0
LINE
  5
58
  8
0
 10
198.28463977360079
 20
118.09980068143059
 30
0.0
 11
198.6757772331151
 21
117.15551132191931
 31
0.0
  0
ARC
  5
59
  8
0
 10
190.0
 20
129.99999999999989
 30
0.0
 40
15.5
 50
280.9630409671833
 51
304.03695903281601
  0
LINE
  5
5A
  8
0
 10
201.90019931856841
 20
121.7153602263994
 30
0.0
 11
202.84448867807981
 21
121.3242227668851
 31
0.0
  0
LINE
  5
5B
  8
0
 10
204.2728365992329
 20
127.4434133279688
 30
0.0
 11
205.21712595874419
 21
127.0522758684548
 31
0.0
  0
ARC
  5
5C
  8
0
 10
190.0
 20
129.99999999999989
 30
0.0
 40
15.5
 50
325.96304096718342
 51
349.0369590328159
  0
ARC
  5
5D
  8
0
 10
190.0
 20
129.99999999999989
 30
0.0
 40
14.5
 50
34.844730972900273
 51
55.155269027100118
  0
ARC
  5
5E
  8
0
 10
189.99999999999989
 20
130.0
 30
0.0
 40
14.5
 50
79.844730972900265
 51
100.1552690271001
  0
ARC
  5
5F
  8
0
 10
190.0
 20
130.0
 30
0.0
 40
14.5
 50
124.84473097290019
 51
145.1552690271001
  0
ARC
  5
60
  8
0
 10
190.0
 20
129.99999999999989
 30
0.0
 40
14.5
 50
169.84473097290021
 51
190.1552690271001
  0
ARC
  5
61
  8
0
 10
189.9999999999998
 20
129.99999999999989
 30
0.0
 40
14.5
 50
214.84473097290029
 51
235.15526902710019
  0
ARC
  5
62
  8
0
 10
190.0
 20
129.99999999999989
 30
0.0
 40
14.5
 50
259.84473097290032
 51
280.15526902710008
  0
ARC
  5
63
  8
0
 10
190.0
 20
129.99999999999989
 30
0.0
 40
14.5
 50
304.84473097290021
 51
325.15526902710008
  0
TEXT
  5
64
  8
3
 10
200.44514021421551
 20
124.0837980168544
 30
0.0
 40
1.1999999999999991
  1
P
 50
62.0
 41
0.8
  7
SIM080
 72
     1
 11
200.595371114307
 21
124.36634124656931
 31
0.0
  0
TEXT
  5
65
  8
3
 10
201.07190483927539
 20
125.3581609066231
 30
0.0
 40
1.1999999999999991
  1
A
 50
69.000000000000014
 41
0.8
  7
SIM080
 72
     1
 11
201.20296511796619
 21
125.69958460545639
 31
0.0
  0
TEXT
  5
66
  8
3
 10
201.56613370871989
 20
126.7864426203956
 30
0.0
 40
1.1999999999999991
  1
T
 50
75.999999999999986
 41
0.8
  7
SIM080
 72
     1
 11
201.64354871531179
 21
127.0969372528039
 31
0.0
  0
TEXT
  5
67
  8
3
 10
201.90498264971151
 20
128.4921943407775
 30
0.0
 40
1.1999999999999991
  1
.
 50
83.000000000000014
 41
0.8
  7
SIM080
 72
     1
 11
201.91055381969571
 21
128.53756787913821
 31
0.0
  0
TEXT
  5
68
  8
3
 10
201.9999999999998
 20
129.702857142857
 30
0.0
 40
1.1999999999999991
  1
E
 50
89.999999999999986
 41
0.8
  7
SIM080
 72
     1
 11
201.9999999999998
 21
129.99999999999989
 31
0.0
  0
TEXT
  5
69
  8
3
 10
201.9439808396011
 20
131.19019089069721
 30
0.0
 40
1.1999999999999991
  1
L
 50
97.000000000000014
 41
0.8
  7
SIM080
 72
     1
 11
201.91055381969571
 21
131.46243212086159
 31
0.0
  0
TEXT
  5
6A
  8
3
 10
201.7154340785757
 20
132.61474630281671
 30
0.0
 40
1.1999999999999991
  1
E
 50
104.0
 41
0.8
  7
SIM080
 72
     1
 11
201.64354871531179
 21
132.90306274719589
 31
0.0
  0
TEXT
  5
6B
  8
3
 10
201.3176428618207
 20
134.00166965806429
 30
0.0
 40
1.1999999999999991
  1
S
 50
111.0
 41
0.8
  7
SIM080
 72
     1
 11
201.20296511796619
 21
134.30041539454339
 31
0.0
  0
TEXT
  5
6C
  8
3
 10
200.76706357155439
 20
135.31075220518491
 30
0.0
 40
1.1999999999999991
  1
A
 50
118.0
 41
0.8
  7
SIM080
 72
     1
 11
200.595371114307
 21
135.6336587534305
 31
0.0
  0
LINE
  5
6D
  8
0
 10
189.25
 20
120.5
 30
0.0
 11
190.74999999999989
 21
120.5
 31
0.0
  0
LINE
  5
6E
  8
0
 10
189.25
 20
139.49999999999989
 30
0.0
 11
190.74999999999989
 21
139.4999999999998
 31
0.0
  0
LINE
  5
6F
  8
0
 10
190.74999999999989
 20
120.4999999999999
 30
0.0
 11
190.74999999999989
 21
123.5629401626753
 31
0.0
  0
LINE
  5
70
  8
0
 10
189.25
 20
120.4999999999999
 30
0.0
 11
189.25
 21
123.5629401626753
 31
0.0
  0
CIRCLE
  5
71
  8
0
 10
190.0
 20
127.9999999999999
 30
0.0
 40
3.0
  0
ARC
  5
72
  8
0
 10
190.0
 20
127.9999999999999
 30
0.0
 40
4.5
 50
279.5940682268602
 51
260.4059317731394
  0
LINE
  5
73
  8
0
 10
190.75
 20
135.20311901261061
 30
0.0
 11
190.74999999999989
 21
139.49999999999989
 31
0.0
  0
LINE
  5
74
  8
0
 10
196.5
 20
130.37829613334131
 30
0.0
 11
190.75
 21
135.20311901261061
 31
0.0
  0
LINE
  5
75
  8
0
 10
195.53581858547031
 20
129.22922946866271
 30
0.0
 11
190.0
 21
133.87433280199511
 31
0.0
  0
LINE
  5
76
  8
0
 10
196.5
 20
130.37829613334119
 30
0.0
 11
195.53581858547031
 21
129.22922946866271
 31
0.0
  0
LINE
  5
77
  8
0
 10
189.25
 20
135.20311901261061
 30
0.0
 11
189.25
 21
139.49999999999989
 31
0.0
  0
LINE
  5
78
  8
0
 10
184.46418141452969
 20
129.22922946866271
 30
0.0
 11
190.0
 21
133.87433280199511
 31
0.0
  0
LINE
  5
79
  8
0
 10
183.49999999999989
 20
130.37829613334119
 30
0.0
 11
184.46418141452969
 21
129.22922946866271
 31
0.0
  0
LINE
  5
7A
  8
0
 10
183.5
 20
130.37829613334131
 30
0.0
 11
189.25
 21
135.20311901261061
 31
0.0
  0
LINE
  5
7B
  8
0
 10
180.0
 20
205.49999999999989
 30
0.0
 11
180.0
 21
207.4999999999998
 31
0.0
  0
LINE
  5
7C
  8
0
 10
200.0
 20
205.49999999999989
 30
0.0
 11
200.0
 21
207.4999999999998
 31
0.0
  0
LINE
  5
7D
  8
0
 10
204.75
 20
207.4999999999998
 30
0.0
 11
204.75
 21
209.9999999999998
 31
0.0
  0
LINE
  5
7E
  8
0
 10
175.25
 20
207.4999999999998
 30
0.0
 11
175.25
 21
209.9999999999998
 31
0.0
  0
LINE
  5
7F
  8
0
 10
204.75
 20
207.4999999999998
 30
0.0
 11
175.25
 21
207.4999999999998
 31
0.0
  0
LINE
  5
80
  8
0
 10
204.75
 20
209.9999999999998
 30
0.0
 11
175.25
 21
209.9999999999998
 31
0.0
  0
LINE
  5
81
  8
0
 10
176.99999999999949
 20
189.9999999999998
 30
0.0
 11
175.49999999999861
 21
191.5000000000008
 31
0.0
  0
LINE
  5
82
  8
0
 10
187.05227586845481
 20
192.4999999999996
 30
0.0
 11
187.05227586845481
 21
205.49999999999969
 31
0.0
  0
LINE
  5
83
  8
0
 10
181.32422276688359
 20
192.4999999999996
 30
0.0
 11
181.32422276688359
 21
205.49999999999969
 31
0.0
  0
LINE
  5
84
  8
0
 10
177.15551132191879
 20
192.4999999999996
 30
0.0
 11
177.15551132191879
 21
205.49999999999969
 31
0.0
  0
LINE
  5
85
  8
0
 10
174.78287404125379
 20
192.4999999999996
 30
0.0
 11
174.78287404125399
 21
205.49999999999969
 31
0.0
  0
LINE
  5
86
  8
0
 10
187.05227586845481
 20
192.4999999999996
 30
0.0
 11
181.32422276688359
 21
192.4999999999996
 31
0.0
  0
LINE
  5
87
  8
0
 10
177.15551132191879
 20
192.4999999999996
 30
0.0
 11
174.78287404125379
 21
192.4999999999996
 31
0.0
  0
LINE
  5
88
  8
0
 10
187.4434133279693
 20
191.5000000000008
 30
0.0
 11
187.4434133279693
 21
205.49999999999969
 31
0.0
  0
LINE
  5
89
  8
0
 10
187.4434133279693
 20
191.5000000000008
 30
0.0
 11
187.05227586845481
 21
192.4999999999996
 31
0.0
  0
LINE
  5
8A
  8
0
 10
181.7153602263981
 20
191.5000000000008
 30
0.0
 11
181.32422276688359
 21
192.4999999999996
 31
0.0
  0
LINE
  5
8B
  8
0
 10
177.15551132191879
 20
192.4999999999996
 30
0.0
 11
178.09980068143011
 21
191.5000000000008
 31
0.0
  0
LINE
  5
8C
  8
0
 10
178.09980068143011
 20
191.5000000000008
 30
0.0
 11
178.09980068143011
 21
205.49999999999969
 31
0.0
  0
LINE
  5
8D
  8
0
 10
175.72716340076681
 20
191.50000000000091
 30
0.0
 11
174.78287404125399
 21
192.4999999999996
 31
0.0
  0
LINE
  5
8E
  8
0
 10
181.71536022639819
 20
191.5000000000008
 30
0.0
 11
178.09980068143011
 21
191.5000000000008
 31
0.0
  0
LINE
  5
8F
  8
0
 10
175.7271634007669
 20
191.5000000000008
 30
0.0
 11
175.49999999999861
 21
191.5000000000008
 31
0.0
  0
LINE
  5
90
  8
0
 10
204.27283659923251
 20
191.5000000000008
 30
0.0
 11
204.50000000000071
 21
191.5000000000008
 31
0.0
  0
LINE
  5
91
  8
0
 10
198.2846397736011
 20
191.5000000000008
 30
0.0
 11
201.90019931856929
 21
191.5000000000008
 31
0.0
  0
LINE
  5
92
  8
0
 10
204.27283659923251
 20
191.50000000000091
 30
0.0
 11
205.2171259587455
 21
192.4999999999996
 31
0.0
  0
LINE
  5
93
  8
0
 10
201.90019931856929
 20
191.5000000000008
 30
0.0
 11
201.90019931856929
 21
205.49999999999969
 31
0.0
  0
LINE
  5
94
  8
0
 10
202.84448867808061
 20
192.4999999999996
 30
0.0
 11
201.90019931856929
 21
191.5000000000008
 31
0.0
  0
LINE
  5
95
  8
0
 10
198.2846397736011
 20
191.5000000000008
 30
0.0
 11
198.67577723311581
 21
192.4999999999996
 31
0.0
  0
LINE
  5
96
  8
0
 10
192.55658667203011
 20
191.5000000000008
 30
0.0
 11
192.94772413154459
 21
192.4999999999996
 31
0.0
  0
LINE
  5
97
  8
0
 10
192.55658667203011
 20
191.5000000000008
 30
0.0
 11
192.55658667203011
 21
205.49999999999969
 31
0.0
  0
LINE
  5
98
  8
0
 10
202.84448867808061
 20
192.4999999999996
 30
0.0
 11
205.2171259587455
 21
192.4999999999996
 31
0.0
  0
LINE
  5
99
  8
0
 10
192.94772413154459
 20
192.4999999999996
 30
0.0
 11
198.67577723311581
 21
192.4999999999996
 31
0.0
  0
LINE
  5
9A
  8
0
 10
187.4434133279693
 20
191.50000000000091
 30
0.0
 11
192.55658667203011
 21
191.5000000000008
 31
0.0
  0
LINE
  5
9B
  8
0
 10
205.2171259587455
 20
192.4999999999996
 30
0.0
 11
205.2171259587455
 21
205.49999999999969
 31
0.0
  0
LINE
  5
9C
  8
0
 10
202.84448867808061
 20
192.4999999999996
 30
0.0
 11
202.84448867808061
 21
205.49999999999969
 31
0.0
  0
LINE
  5
9D
  8
0
 10
198.67577723311581
 20
192.4999999999996
 30
0.0
 11
198.67577723311581
 21
205.49999999999969
 31
0.0
  0
LINE
  5
9E
  8
0
 10
192.94772413154459
 20
192.4999999999996
 30
0.0
 11
192.94772413154459
 21
205.49999999999969
 31
0.0
  0
LINE
  5
9F
  8
0
 10
196.5
 20
189.49999999999969
 30
0.0
 11
183.49999999999989
 21
189.49999999999969
 31
0.0
  0
LINE
  5
A0
  8
0
 10
202.99999999999989
 20
189.9999999999998
 30
0.0
 11
204.5000000000008
 21
191.5000000000008
 31
0.0
  0
LINE
  5
A1
  8
0
 10
202.99999999999989
 20
189.9999999999998
 30
0.0
 11
176.99999999999969
 21
189.9999999999996
 31
0.0
  0
LINE
  5
A2
  8
0
 10
205.2171259587455
 20
205.49999999999969
 30
0.0
 11
174.78287404125399
 21
205.49999999999969
 31
0.0
  0
LINE
  5
A3
  8
0
 10
275.49999999999972
 20
114.7828740412544
 30
0.0
 11
275.49999999999972
 21
145.21712595874601
 31
0.0
  0
LINE
  5
A4
  8
0
 10
259.99999999999989
 20
117.0000000000001
 30
0.0
 11
259.9999999999996
 21
143.0000000000002
 31
0.0
  0
LINE
  5
A5
  8
0
 10
259.99999999999989
 20
117.0000000000001
 30
0.0
 11
261.50000000000091
 21
115.4999999999992
 31
0.0
  0
LINE
  5
A6
  8
0
 10
259.49999999999977
 20
120.5000000000007
 30
0.0
 11
259.49999999999977
 21
139.5000000000004
 31
0.0
  0
LINE
  5
A7
  8
0
 10
262.4999999999996
 20
127.0522758684553
 30
0.0
 11
275.49999999999972
 21
127.0522758684553
 31
0.0
  0
LINE
  5
A8
  8
0
 10
262.4999999999996
 20
121.3242227668842
 30
0.0
 11
275.49999999999972
 21
121.3242227668842
 31
0.0
  0
LINE
  5
A9
  8
0
 10
262.4999999999996
 20
117.15551132191941
 30
0.0
 11
275.49999999999972
 21
117.15551132191941
 31
0.0
  0
LINE
  5
AA
  8
0
 10
262.4999999999996
 20
114.7828740412544
 30
0.0
 11
275.49999999999972
 21
114.7828740412544
 31
0.0
  0
LINE
  5
AB
  8
0
 10
261.50000000000091
 20
132.55658667203059
 30
0.0
 11
261.50000000000091
 21
127.44341332796991
 31
0.0
  0
LINE
  5
AC
  8
0
 10
262.4999999999996
 20
127.0522758684553
 30
0.0
 11
262.4999999999996
 21
121.3242227668842
 31
0.0
  0
LINE
  5
AD
  8
0
 10
262.4999999999996
 20
117.15551132191931
 30
0.0
 11
262.4999999999996
 21
114.7828740412544
 31
0.0
  0
LINE
  5
AE
  8
0
 10
261.50000000000091
 20
127.44341332796991
 30
0.0
 11
275.49999999999972
 21
127.44341332796991
 31
0.0
  0
LINE
  5
AF
  8
0
 10
261.50000000000091
 20
127.44341332796991
 30
0.0
 11
262.4999999999996
 21
127.0522758684553
 31
0.0
  0
LINE
  5
B0
  8
0
 10
261.50000000000091
 20
121.7153602263988
 30
0.0
 11
262.4999999999996
 21
121.3242227668842
 31
0.0
  0
LINE
  5
B1
  8
0
 10
262.4999999999996
 20
117.15551132191931
 30
0.0
 11
261.50000000000091
 21
118.09980068143069
 31
0.0
  0
LINE
  5
B2
  8
0
 10
261.50000000000091
 20
118.09980068143069
 30
0.0
 11
275.49999999999972
 21
118.09980068143069
 31
0.0
  0
LINE
  5
B3
  8
0
 10
261.50000000000091
 20
115.72716340076749
 30
0.0
 11
262.4999999999996
 21
114.7828740412544
 31
0.0
  0
LINE
  5
B4
  8
0
 10
261.50000000000091
 20
121.7153602263988
 30
0.0
 11
261.50000000000091
 21
118.09980068143069
 31
0.0
  0
LINE
  5
B5
  8
0
 10
261.5000000000008
 20
115.72716340076749
 30
0.0
 11
261.5000000000008
 21
115.4999999999993
 31
0.0
  0
LINE
  5
B6
  8
0
 10
261.5000000000008
 20
144.27283659923299
 30
0.0
 11
261.5000000000008
 21
144.50000000000131
 31
0.0
  0
LINE
  5
B7
  8
0
 10
261.50000000000091
 20
138.2846397736017
 30
0.0
 11
261.50000000000091
 21
141.90019931856989
 31
0.0
  0
LINE
  5
B8
  8
0
 10
261.50000000000091
 20
144.27283659923319
 30
0.0
 11
262.4999999999996
 21
145.21712595874601
 31
0.0
  0
LINE
  5
B9
  8
0
 10
261.50000000000091
 20
141.90019931856989
 30
0.0
 11
275.49999999999972
 21
141.90019931856989
 31
0.0
  0
LINE
  5
BA
  8
0
 10
262.4999999999996
 20
142.84448867808121
 30
0.0
 11
261.50000000000091
 21
141.90019931856989
 31
0.0
  0
LINE
  5
BB
  8
0
 10
261.50000000000091
 20
138.28463977360181
 30
0.0
 11
262.4999999999996
 21
138.67577723311629
 31
0.0
  0
LINE
  5
BC
  8
0
 10
261.50000000000091
 20
132.55658667203059
 30
0.0
 11
262.4999999999996
 21
132.94772413154519
 31
0.0
  0
LINE
  5
BD
  8
0
 10
261.50000000000091
 20
132.55658667203059
 30
0.0
 11
275.49999999999972
 21
132.55658667203059
 31
0.0
  0
LINE
  5
BE
  8
0
 10
262.4999999999996
 20
142.84448867808121
 30
0.0
 11
262.4999999999996
 21
145.2171259587461
 31
0.0
  0
LINE
  5
BF
  8
0
 10
262.4999999999996
 20
132.94772413154519
 30
0.0
 11
262.4999999999996
 21
138.67577723311629
 31
0.0
  0
LINE
  5
C0
  8
0
 10
262.4999999999996
 20
145.2171259587461
 30
0.0
 11
275.49999999999972
 21
145.21712595874601
 31
0.0
  0
LINE
  5
C1
  8
0
 10
262.4999999999996
 20
142.84448867808121
 30
0.0
 11
275.49999999999972
 21
142.84448867808121
 31
0.0
  0
LINE
  5
C2
  8
0
 10
262.4999999999996
 20
138.67577723311629
 30
0.0
 11
275.49999999999972
 21
138.67577723311629
 31
0.0
  0
LINE
  5
C3
  8
0
 10
262.4999999999996
 20
132.94772413154519
 30
0.0
 11
275.49999999999972
 21
132.94772413154519
 31
0.0
  0
LINE
  5
C4
  8
0
 10
259.99999999999989
 20
143.0000000000004
 30
0.0
 11
261.50000000000091
 21
144.50000000000131
 31
0.0
  0
LINE
  5
C5
  8
0
 10
259.49999999999977
 20
139.5000000000004
 30
0.0
 11
259.99999999999972
 21
139.5000000000004
 31
0.0
  0
LINE
  5
C6
  8
0
 10
259.49999999999977
 20
120.5000000000007
 30
0.0
 11
259.99999999999972
 21
120.5000000000007
 31
0.0
  0
LINE
  5
C7
  8
0
 10
279.99999999999977
 20
115.25
 30
0.0
 11
279.99999999999977
 21
144.75
 31
0.0
  0
LINE
  5
C8
  8
0
 10
277.49999999999977
 20
115.25
 30
0.0
 11
277.49999999999977
 21
144.74999999999989
 31
0.0
  0
LINE
  5
C9
  8
0
 10
277.49999999999977
 20
144.74999999999989
 30
0.0
 11
279.99999999999977
 21
144.75
 31
0.0
  0
LINE
  5
CA
  8
0
 10
277.49999999999977
 20
115.25
 30
0.0
 11
279.99999999999977
 21
115.25
 31
0.0
  0
LINE
  5
CB
  8
0
 10
275.49999999999989
 20
120.0
 30
0.0
 11
277.49999999999977
 21
120.0
 31
0.0
  0
LINE
  5
CC
  8
0
 10
275.49999999999989
 20
140.0
 30
0.0
 11
277.49999999999977
 21
140.0
 31
0.0
  0
LINE
  5
CD
  8
1
 10
254.49999999999989
 20
130.0
 30
0.0
 11
294.99999999999977
 21
130.0
 31
0.0
  0
LINE
  5
CE
  8
0
 10
279.99999999999977
 20
117.0
 30
0.0
 11
281.49999999999977
 21
117.0
 31
0.0
  0
LINE
  5
CF
  8
0
 10
281.49999999999977
 20
117.0
 30
0.0
 11
281.49999999999977
 21
143.0
 31
0.0
  0
LINE
  5
D0
  8
0
 10
279.99999999999977
 20
143.0
 30
0.0
 11
281.49999999999977
 21
143.0
 31
0.0
  0
LINE
  5
D1
  8
0
 10
205.2171259587455
 20
54.500000000000313
 30
0.0
 11
174.78287404125399
 21
54.500000000000341
 31
0.0
  0
LINE
  5
D2
  8
0
 10
202.99999999999989
 20
70.000000000000142
 30
0.0
 11
176.99999999999969
 21
70.000000000000313
 31
0.0
  0
LINE
  5
D3
  8
0
 10
202.99999999999989
 20
70.000000000000142
 30
0.0
 11
204.5000000000008
 21
68.499999999999147
 31
0.0
  0
LINE
  5
D4
  8
0
 10
196.5
 20
70.500000000000256
 30
0.0
 11
183.49999999999989
 21
70.500000000000256
 31
0.0
  0
LINE
  5
D5
  8
0
 10
192.94772413154459
 20
67.500000000000369
 30
0.0
 11
192.94772413154459
 21
54.500000000000313
 31
0.0
  0
LINE
  5
D6
  8
0
 10
198.67577723311581
 20
67.500000000000369
 30
0.0
 11
198.67577723311581
 21
54.500000000000313
 31
0.0
  0
LINE
  5
D7
  8
0
 10
202.84448867808061
 20
67.500000000000369
 30
0.0
 11
202.84448867808061
 21
54.500000000000313
 31
0.0
  0
LINE
  5
D8
  8
0
 10
205.2171259587455
 20
67.500000000000369
 30
0.0
 11
205.2171259587455
 21
54.500000000000313
 31
0.0
  0
LINE
  5
D9
  8
0
 10
187.4434133279693
 20
68.499999999999119
 30
0.0
 11
192.55658667203011
 21
68.499999999999147
 31
0.0
  0
LINE
  5
DA
  8
0
 10
192.94772413154459
 20
67.500000000000369
 30
0.0
 11
198.67577723311581
 21
67.500000000000369
 31
0.0
  0
LINE
  5
DB
  8
0
 10
202.84448867808061
 20
67.500000000000369
 30
0.0
 11
205.2171259587455
 21
67.500000000000341
 31
0.0
  0
LINE
  5
DC
  8
0
 10
192.55658667203011
 20
68.499999999999147
 30
0.0
 11
192.55658667203011
 21
54.500000000000313
 31
0.0
  0
LINE
  5
DD
  8
0
 10
192.55658667203011
 20
68.499999999999147
 30
0.0
 11
192.94772413154459
 21
67.500000000000341
 31
0.0
  0
LINE
  5
DE
  8
0
 10
198.2846397736011
 20
68.499999999999147
 30
0.0
 11
198.67577723311581
 21
67.500000000000341
 31
0.0
  0
LINE
  5
DF
  8
0
 10
202.84448867808061
 20
67.500000000000369
 30
0.0
 11
201.90019931856929
 21
68.499999999999147
 31
0.0
  0
LINE
  5
E0
  8
0
 10
201.90019931856929
 20
68.499999999999147
 30
0.0
 11
201.90019931856929
 21
54.500000000000313
 31
0.0
  0
LINE
  5
E1
  8
0
 10
204.27283659923251
 20
68.499999999999119
 30
0.0
 11
205.2171259587455
 21
67.500000000000369
 31
0.0
  0
LINE
  5
E2
  8
0
 10
198.2846397736011
 20
68.499999999999147
 30
0.0
 11
201.90019931856929
 21
68.499999999999147
 31
0.0
  0
LINE
  5
E3
  8
0
 10
204.27283659923251
 20
68.499999999999176
 30
0.0
 11
204.50000000000071
 21
68.499999999999176
 31
0.0
  0
LINE
  5
E4
  8
0
 10
175.7271634007669
 20
68.499999999999176
 30
0.0
 11
175.49999999999861
 21
68.499999999999176
 31
0.0
  0
LINE
  5
E5
  8
0
 10
181.71536022639819
 20
68.499999999999147
 30
0.0
 11
178.09980068143011
 21
68.499999999999147
 31
0.0
  0
LINE
  5
E6
  8
0
 10
175.72716340076681
 20
68.499999999999119
 30
0.0
 11
174.78287404125399
 21
67.500000000000369
 31
0.0
  0
LINE
  5
E7
  8
0
 10
178.09980068143011
 20
68.499999999999147
 30
0.0
 11
178.09980068143011
 21
54.500000000000313
 31
0.0
  0
LINE
  5
E8
  8
0
 10
177.15551132191879
 20
67.500000000000369
 30
0.0
 11
178.09980068143011
 21
68.499999999999147
 31
0.0
  0
LINE
  5
E9
  8
0
 10
181.7153602263981
 20
68.499999999999147
 30
0.0
 11
181.32422276688359
 21
67.500000000000341
 31
0.0
  0
LINE
  5
EA
  8
0
 10
187.4434133279693
 20
68.499999999999147
 30
0.0
 11
187.05227586845481
 21
67.500000000000341
 31
0.0
  0
LINE
  5
EB
  8
0
 10
187.4434133279693
 20
68.499999999999147
 30
0.0
 11
187.4434133279693
 21
54.500000000000313
 31
0.0
  0
LINE
  5
EC
  8
0
 10
177.15551132191879
 20
67.500000000000369
 30
0.0
 11
174.78287404125379
 21
67.500000000000341
 31
0.0
  0
LINE
  5
ED
  8
0
 10
187.05227586845481
 20
67.500000000000369
 30
0.0
 11
181.32422276688359
 21
67.500000000000369
 31
0.0
  0
LINE
  5
EE
  8
0
 10
174.78287404125379
 20
67.500000000000369
 30
0.0
 11
174.78287404125399
 21
54.500000000000313
 31
0.0
  0
LINE
  5
EF
  8
0
 10
177.15551132191879
 20
67.500000000000369
 30
0.0
 11
177.15551132191879
 21
54.500000000000313
 31
0.0
  0
LINE
  5
F0
  8
0
 10
181.32422276688359
 20
67.500000000000369
 30
0.0
 11
181.32422276688359
 21
54.500000000000313
 31
0.0
  0
LINE
  5
F1
  8
0
 10
187.05227586845481
 20
67.500000000000369
 30
0.0
 11
187.05227586845481
 21
54.500000000000313
 31
0.0
  0
LINE
  5
F2
  8
0
 10
176.99999999999949
 20
70.000000000000142
 30
0.0
 11
175.49999999999861
 21
68.499999999999147
 31
0.0
  0
LINE
  5
F3
  8
0
 10
204.75
 20
50.000000000000171
 30
0.0
 11
175.25
 21
50.000000000000171
 31
0.0
  0
LINE
  5
F4
  8
0
 10
204.75
 20
52.500000000000171
 30
0.0
 11
175.25
 21
52.500000000000171
 31
0.0
  0
LINE
  5
F5
  8
0
 10
175.25
 20
52.500000000000171
 30
0.0
 11
175.25
 21
50.000000000000171
 31
0.0
  0
LINE
  5
F6
  8
0
 10
204.75
 20
52.500000000000171
 30
0.0
 11
204.75
 21
50.000000000000171
 31
0.0
  0
LINE
  5
F7
  8
0
 10
200.0
 20
54.500000000000057
 30
0.0
 11
200.0
 21
52.500000000000171
 31
0.0
  0
LINE
  5
F8
  8
0
 10
180.0
 20
54.500000000000057
 30
0.0
 11
180.0
 21
52.500000000000171
 31
0.0
  0
LINE
  5
F9
  8
1
 10
190.0
 20
75.500000000000114
 30
0.0
 11
190.0
 21
35.000000000000227
 31
0.0
  0
LINE
  5
FA
  8
0
 10
202.9999999999998
 20
50.000000000000171
 30
0.0
 11
202.9999999999998
 21
48.500000000000171
 31
0.0
  0
LINE
  5
FB
  8
0
 10
202.9999999999998
 20
48.500000000000171
 30
0.0
 11
177.0000000000002
 21
48.500000000000171
 31
0.0
  0
LINE
  5
FC
  8
0
 10
177.0000000000002
 20
50.000000000000171
 30
0.0
 11
177.0000000000002
 21
48.500000000000171
 31
0.0
  0
LINE
  5
FD
  8
0
 10
259.49999999999977
 20
135.20311901261061
 30
0.0
 11
259.99999999999977
 21
135.20311901261061
 31
0.0
  0
LINE
  5
FE
  8
0
 10
259.49999999999977
 20
130.37829613334131
 30
0.0
 11
259.99999999999977
 21
130.37829613334131
 31
0.0
  0
LINE
  5
FF
  8
0
 10
259.49999999999977
 20
129.22922946866271
 30
0.0
 11
259.99999999999977
 21
129.22922946866271
 31
0.0
  0
LINE
  5
100
  8
0
 10
259.49999999999977
 20
123.56294016267491
 30
0.0
 11
259.99999999999977
 21
123.56294016267491
 31
0.0
  0
LINE
  5
101
  8
0
 10
183.49999999999989
 20
189.49999999999969
 30
0.0
 11
183.49999999999989
 21
189.9999999999998
 31
0.0
  0
LINE
  5
102
  8
0
 10
189.25
 20
189.49999999999969
 30
0.0
 11
189.25
 21
189.9999999999998
 31
0.0
  0
LINE
  5
103
  8
0
 10
190.75
 20
189.49999999999969
 30
0.0
 11
190.75
 21
189.9999999999998
 31
0.0
  0
LINE
  5
104
  8
0
 10
196.5
 20
189.49999999999969
 30
0.0
 11
196.5
 21
189.9999999999998
 31
0.0
  0
LINE
  5
105
  8
0
 10
183.49999999999989
 20
70.500000000000256
 30
0.0
 11
183.49999999999989
 21
70.000000000000185
 31
0.0
  0
LINE
  5
106
  8
0
 10
184.46418141452969
 20
70.500000000000256
 30
0.0
 11
184.46418141452969
 21
70.000000000000185
 31
0.0
  0
LINE
  5
107
  8
0
 10
185.5
 20
70.50000000000027
 30
0.0
 11
185.5
 21
70.000000000000185
 31
0.0
  0
LINE
  5
108
  8
0
 10
189.25
 20
70.500000000000256
 30
0.0
 11
189.25
 21
70.000000000000185
 31
0.0
  0
LINE
  5
109
  8
0
 10
190.74999999999989
 20
70.500000000000256
 30
0.0
 11
190.74999999999989
 21
70.000000000000185
 31
0.0
  0
LINE
  5
10A
  8
0
 10
194.5
 20
70.500000000000256
 30
0.0
 11
194.5
 21
70.000000000000185
 31
0.0
  0
LINE
  5
10B
  8
0
 10
195.53581858547031
 20
70.500000000000256
 30
0.0
 11
195.53581858547031
 21
70.000000000000185
 31
0.0
  0
LINE
  5
10C
  8
0
 10
196.5
 20
70.500000000000256
 30
0.0
 11
196.5
 21
70.000000000000185
 31
0.0
  0
LINE
  5
10D
  8
0
 10
120.5000000000002
 20
123.56294016267491
 30
0.0
 11
120.0000000000002
 21
123.56294016267491
 31
0.0
  0
LINE
  5
10E
  8
0
 10
120.5000000000002
 20
129.22922946866271
 30
0.0
 11
120.0000000000002
 21
129.22922946866271
 31
0.0
  0
LINE
  5
10F
  8
0
 10
120.5000000000002
 20
130.37829613334131
 30
0.0
 11
120.0000000000002
 21
130.37829613334131
 31
0.0
  0
LINE
  5
110
  8
0
 10
120.5000000000002
 20
135.20311901261061
 30
0.0
 11
120.0000000000002
 21
135.20311901261061
 31
0.0
  0
LINE
  5
111
  8
0
 10
100.0000000000001
 20
143.0
 30
0.0
 11
98.500000000000171
 21
143.0
 31
0.0
  0
LINE
  5
112
  8
0
 10
98.500000000000171
 20
117.0
 30
0.0
 11
98.500000000000171
 21
143.0
 31
0.0
  0
LINE
  5
113
  8
0
 10
100.0000000000001
 20
117.0
 30
0.0
 11
98.500000000000171
 21
117.0
 31
0.0
  0
LINE
  5
114
  8
1
 10
125.5000000000001
 20
130.0
 30
0.0
 11
85.000000000000227
 21
130.0
 31
0.0
  0
LINE
  5
115
  8
0
 10
104.5
 20
140.0
 30
0.0
 11
102.5000000000001
 21
140.0
 31
0.0
  0
LINE
  5
116
  8
0
 10
104.5
 20
120.0
 30
0.0
 11
102.5000000000001
 21
120.0
 31
0.0
  0
LINE
  5
117
  8
0
 10
102.5000000000001
 20
115.25
 30
0.0
 11
100.0000000000001
 21
115.25
 31
0.0
  0
LINE
  5
118
  8
0
 10
102.5000000000001
 20
144.74999999999989
 30
0.0
 11
100.0000000000001
 21
144.75
 31
0.0
  0
LINE
  5
119
  8
0
 10
102.5000000000001
 20
115.25
 30
0.0
 11
102.5000000000001
 21
144.74999999999989
 31
0.0
  0
LINE
  5
11A
  8
0
 10
100.0000000000001
 20
115.25
 30
0.0
 11
100.0000000000001
 21
144.75
 31
0.0
  0
LINE
  5
11B
  8
0
 10
120.5000000000002
 20
120.5000000000007
 30
0.0
 11
120.0000000000003
 21
120.5000000000007
 31
0.0
  0
LINE
  5
11C
  8
0
 10
120.5000000000002
 20
139.5000000000004
 30
0.0
 11
120.0000000000003
 21
139.5000000000004
 31
0.0
  0
LINE
  5
11D
  8
0
 10
120.0000000000001
 20
143.0000000000004
 30
0.0
 11
118.4999999999991
 21
144.50000000000131
 31
0.0
  0
LINE
  5
11E
  8
0
 10
117.5000000000004
 20
132.94772413154519
 30
0.0
 11
104.5000000000003
 21
132.94772413154519
 31
0.0
  0
LINE
  5
11F
  8
0
 10
117.5000000000004
 20
138.67577723311629
 30
0.0
 11
104.5000000000003
 21
138.67577723311629
 31
0.0
  0
LINE
  5
120
  8
0
 10
117.5000000000004
 20
142.84448867808121
 30
0.0
 11
104.5000000000003
 21
142.84448867808121
 31
0.0
  0
LINE
  5
121
  8
0
 10
117.5000000000004
 20
145.2171259587461
 30
0.0
 11
104.5000000000003
 21
145.21712595874601
 31
0.0
  0
LINE
  5
122
  8
0
 10
117.5000000000004
 20
132.94772413154519
 30
0.0
 11
117.5000000000004
 21
138.67577723311629
 31
0.0
  0
LINE
  5
123
  8
0
 10
117.5000000000004
 20
142.84448867808121
 30
0.0
 11
117.5000000000003
 21
145.2171259587461
 31
0.0
  0
LINE
  5
124
  8
0
 10
118.4999999999991
 20
132.55658667203059
 30
0.0
 11
104.5000000000003
 21
132.55658667203059
 31
0.0
  0
LINE
  5
125
  8
0
 10
118.4999999999991
 20
132.55658667203059
 30
0.0
 11
117.5000000000003
 21
132.94772413154519
 31
0.0
  0
LINE
  5
126
  8
0
 10
118.4999999999991
 20
138.28463977360181
 30
0.0
 11
117.5000000000003
 21
138.67577723311629
 31
0.0
  0
LINE
  5
127
  8
0
 10
117.5000000000004
 20
142.84448867808121
 30
0.0
 11
118.4999999999991
 21
141.90019931856989
 31
0.0
  0
LINE
  5
128
  8
0
 10
118.4999999999991
 20
141.90019931856989
 30
0.0
 11
104.5000000000003
 21
141.90019931856989
 31
0.0
  0
LINE
  5
129
  8
0
 10
118.4999999999991
 20
144.27283659923319
 30
0.0
 11
117.5000000000004
 21
145.21712595874601
 31
0.0
  0
LINE
  5
12A
  8
0
 10
118.4999999999991
 20
138.2846397736017
 30
0.0
 11
118.4999999999991
 21
141.90019931856989
 31
0.0
  0
LINE
  5
12B
  8
0
 10
118.4999999999992
 20
144.27283659923299
 30
0.0
 11
118.4999999999992
 21
144.50000000000131
 31
0.0
  0
LINE
  5
12C
  8
0
 10
118.4999999999992
 20
115.72716340076749
 30
0.0
 11
118.4999999999992
 21
115.4999999999993
 31
0.0
  0
LINE
  5
12D
  8
0
 10
118.4999999999991
 20
121.7153602263988
 30
0.0
 11
118.4999999999991
 21
118.09980068143069
 31
0.0
  0
LINE
  5
12E
  8
0
 10
118.4999999999991
 20
115.72716340076749
 30
0.0
 11
117.5000000000004
 21
114.7828740412544
 31
0.0
  0
LINE
  5
12F
  8
0
 10
118.4999999999991
 20
118.09980068143069
 30
0.0
 11
104.5000000000003
 21
118.09980068143069
 31
0.0
  0
LINE
  5
130
  8
0
 10
117.5000000000004
 20
117.15551132191931
 30
0.0
 11
118.4999999999991
 21
118.09980068143069
 31
0.0
  0
LINE
  5
131
  8
0
 10
118.4999999999991
 20
121.7153602263988
 30
0.0
 11
117.5000000000003
 21
121.3242227668842
 31
0.0
  0
LINE
  5
132
  8
0
 10
118.4999999999991
 20
127.44341332796991
 30
0.0
 11
117.5000000000003
 21
127.0522758684553
 31
0.0
  0
LINE
  5
133
  8
0
 10
118.4999999999991
 20
127.44341332796991
 30
0.0
 11
104.5000000000003
 21
127.44341332796991
 31
0.0
  0
LINE
  5
134
  8
0
 10
117.5000000000004
 20
117.15551132191931
 30
0.0
 11
117.5000000000003
 21
114.7828740412544
 31
0.0
  0
LINE
  5
135
  8
0
 10
117.5000000000004
 20
127.0522758684553
 30
0.0
 11
117.5000000000004
 21
121.3242227668842
 31
0.0
  0
LINE
  5
136
  8
0
 10
118.4999999999991
 20
132.55658667203059
 30
0.0
 11
118.4999999999991
 21
127.44341332796991
 31
0.0
  0
LINE
  5
137
  8
0
 10
117.5000000000004
 20
114.7828740412544
 30
0.0
 11
104.5000000000003
 21
114.7828740412544
 31
0.0
  0
LINE
  5
138
  8
0
 10
117.5000000000004
 20
117.15551132191941
 30
0.0
 11
104.5000000000003
 21
117.15551132191941
 31
0.0
  0
LINE
  5
139
  8
0
 10
117.5000000000004
 20
121.3242227668842
 30
0.0
 11
104.5000000000003
 21
121.3242227668842
 31
0.0
  0
LINE
  5
13A
  8
0
 10
117.5000000000004
 20
127.0522758684553
 30
0.0
 11
104.5000000000003
 21
127.0522758684553
 31
0.0
  0
LINE
  5
13B
  8
0
 10
120.5000000000002
 20
120.5000000000007
 30
0.0
 11
120.5000000000002
 21
139.5000000000004
 31
0.0
  0
LINE
  5
13C
  8
0
 10
120.0000000000001
 20
117.0000000000001
 30
0.0
 11
118.4999999999991
 21
115.4999999999992
 31
0.0
  0
LINE
  5
13D
  8
0
 10
120.0000000000001
 20
117.0000000000001
 30
0.0
 11
120.0000000000003
 21
143.0000000000002
 31
0.0
  0
LINE
  5
13E
  8
0
 10
104.5000000000003
 20
114.7828740412544
 30
0.0
 11
104.5000000000003
 21
145.21712595874601
 31
0.0
  0
LINE
  5
148
  8
3
 10
281.49999999999977
 20
139.3154999999999
 30
0.0
 11
287.80000000000001
 21
139.3154999999999
 31
0.0
  0
LINE
  5
149
  8
0
 10
281.49999999999977
 20
140.47749999999991
 30
0.0
 11
287.80000000000001
 21
140.47749999999999
 31
0.0
  0
LINE
  5
14A
  8
0
 10
287.80000000000001
 20
120.6845
 30
0.0
 11
290.0
 21
120.6845
 31
0.0
  0
LINE
  5
14B
  8
0
 10
281.49999999999977
 20
119.52249999999989
 30
0.0
 11
287.80000000000001
 21
119.52249999999989
 31
0.0
  0
LINE
  5
14C
  8
0
 10
290.0
 20
120.6845
 30
0.0
 11
290.00000000000011
 21
139.3154999999999
 31
0.0
  0
LINE
  5
14D
  8
0
 10
287.80000000000001
 20
119.52249999999989
 30
0.0
 11
287.80000000000001
 21
140.47749999999999
 31
0.0
  0
LINE
  5
14E
  8
3
 10
281.49999999999977
 20
120.6844999999999
 30
0.0
 11
287.80000000000001
 21
120.6845
 31
0.0
  0
LINE
  5
14F
  8
0
 10
287.80000000000001
 20
139.3154999999999
 30
0.0
 11
290.0
 21
139.3154999999999
 31
0.0
  0
LINE
  5
150
  8
0
 10
92.199999999999974
 20
139.3154999999999
 30
0.0
 11
90.000000000000057
 21
139.3154999999999
 31
0.0
  0
LINE
  5
151
  8
3
 10
98.500000000000171
 20
120.6844999999999
 30
0.0
 11
92.199999999999974
 21
120.6845
 31
0.0
  0
LINE
  5
152
  8
0
 10
90.000000000000057
 20
120.6845
 30
0.0
 11
89.999999999999943
 21
139.3154999999999
 31
0.0
  0
LINE
  5
153
  8
0
 10
92.199999999999974
 20
120.6845
 30
0.0
 11
90.000000000000057
 21
120.6845
 31
0.0
  0
LINE
  5
154
  8
0
 10
98.500000000000171
 20
140.47749999999991
 30
0.0
 11
92.199999999999974
 21
140.47749999999999
 31
0.0
  0
LINE
  5
155
  8
3
 10
98.500000000000171
 20
139.3154999999999
 30
0.0
 11
92.199999999999974
 21
139.3154999999999
 31
0.0
  0
LINE
  5
156
  8
0
 10
98.500000000000171
 20
119.52249999999989
 30
0.0
 11
92.199999999999974
 21
119.52249999999989
 31
0.0
  0
LINE
  5
157
  8
0
 10
92.199999999999974
 20
119.52249999999989
 30
0.0
 11
92.199999999999974
 21
140.47749999999999
 31
0.0
  0
LINE
  5
158
  8
3
 10
199.3154999999999
 20
211.4999999999998
 30
0.0
 11
199.3154999999999
 21
217.80000000000001
 31
0.0
  0
LINE
  5
159
  8
0
 10
180.68450000000001
 20
217.80000000000001
 30
0.0
 11
180.68450000000001
 21
219.99999999999989
 31
0.0
  0
LINE
  5
15A
  8
0
 10
179.52249999999989
 20
211.4999999999998
 30
0.0
 11
179.52249999999989
 21
217.80000000000001
 31
0.0
  0
LINE
  5
15B
  8
0
 10
180.68450000000001
 20
219.99999999999989
 30
0.0
 11
199.3154999999999
 21
220.00000000000011
 31
0.0
  0
LINE
  5
15C
  8
3
 10
180.6844999999999
 20
211.4999999999998
 30
0.0
 11
180.6844999999999
 21
217.80000000000001
 31
0.0
  0
LINE
  5
15D
  8
0
 10
199.3154999999999
 20
217.80000000000001
 30
0.0
 11
199.3154999999999
 21
219.99999999999989
 31
0.0
  0
LINE
  5
15E
  8
0
 10
179.52249999999989
 20
217.80000000000001
 30
0.0
 11
200.47749999999991
 21
217.80000000000001
 31
0.0
  0
LINE
  5
15F
  8
0
 10
200.47749999999991
 20
211.4999999999998
 30
0.0
 11
200.47749999999991
 21
217.80000000000001
 31
0.0
  0
TEXT
  5
2E2
  8
0
 62
     3
 10
0.0
 20
0.0
 30
0.0
 40
10.0
  1
VL-1/2L
  7
STANDARD1
  0
ENDSEC
  0
EOF
