  0
SECTION
  2
HEADER
  9
$ACADVER
  1
AC1009
  9
$INSBASE
 10
0.0
 20
0.0
 30
0.0
  9
$EXTMIN
 10
0.0
 20
-2.960436562073669
 30
0.0
  9
$EXTMAX
 10
107.93997271487039
 20
226.0
 30
0.0
  9
$LIMMIN
 10
0.0
 20
0.0
  9
$LIMMAX
 10
750.0
 20
540.0
  9
$ORTHOMODE
 70
     1
  9
$REGENMODE
 70
     1
  9
$FILLMODE
 70
     1
  9
$QTEXTMODE
 70
     0
  9
$MIRRTEXT
 70
     0
  9
$DRAGMODE
 70
     2
  9
$LTSCALE
 40
5.0
  9
$OSMODE
 70
    37
  9
$ATTMODE
 70
     1
  9
$TEXTSIZE
 40
0.2
  9
$TRACEWID
 40
0.05
  9
$TEXTSTYLE
  7
STANDARD
  9
$CLAYER
  8
0
  9
$CELTYPE
  6
BYLAYER
  9
$CECOLOR
 62
   256
  9
$DIMSCALE
 40
1.0
  9
$DIMASZ
 40
3.0
  9
$DIMEXO
 40
1.0
  9
$DIMDLI
 40
0.38
  9
$DIMRND
 40
0.0
  9
$DIMDLE
 40
0.0
  9
$DIMEXE
 40
1.0
  9
$DIMTP
 40
0.0
  9
$DIMTM
 40
0.0
  9
$DIMTXT
 40
3.0
  9
$DIMCEN
 40
0.0
  9
$DIMTSZ
 40
0.0
  9
$DIMTOL
 70
     0
  9
$DIMLIM
 70
     0
  9
$DIMTIH
 70
     0
  9
$DIMTOH
 70
     0
  9
$DIMSE1
 70
     0
  9
$DIMSE2
 70
     0
  9
$DIMTAD
 70
     1
  9
$DIMZIN
 70
     8
  9
$DIMBLK
  1

  9
$DIMASO
 70
     0
  9
$DIMSHO
 70
     0
  9
$DIMPOST
  1

  9
$DIMAPOST
  1

  9
$DIMALT
 70
     0
  9
$DIMALTD
 70
     2
  9
$DIMALTF
 40
25.399999999999999
  9
$DIMLFAC
 40
1.0
  9
$DIMTOFL
 70
     0
  9
$DIMTVP
 40
1.6000000000000001
  9
$DIMTIX
 70
     0
  9
$DIMSOXD
 70
     0
  9
$DIMSAH
 70
     0
  9
$DIMBLK1
  1

  9
$DIMBLK2
  1

  9
$DIMSTYLE
  2
STANDARD
  9
$DIMCLRD
 70
     0
  9
$DIMCLRE
 70
     0
  9
$DIMCLRT
 70
     0
  9
$DIMTFAC
 40
1.0
  9
$DIMGAP
 40
1.0
  9
$LUNITS
 70
     2
  9
$LUPREC
 70
     1
  9
$SKETCHINC
 40
0.1
  9
$FILLETRAD
 40
0.0
  9
$AUNITS
 70
     0
  9
$AUPREC
 70
     1
  9
$MENU
  1
E:\r13\win\SUPPORT\ACAD
  9
$ELEVATION
 40
0.0
  9
$PELEVATION
 40
0.0
  9
$THICKNESS
 40
0.0
  9
$LIMCHECK
 70
     0
  9
$BLIPMODE
 70
     0
  9
$CHAMFERA
 40
0.0
  9
$CHAMFERB
 40
0.0
  9
$SKPOLY
 70
     0
  9
$TDCREATE
 40
2449840.6227546302
  9
$TDUPDATE
 40
2458232.6390146068
  9
$TDINDWG
 40
1.0785354051
  9
$TDUSRTIMER
 40
1.0785354051
  9
$USRTIMER
 70
     1
  9
$ANGBASE
 50
0.0
  9
$ANGDIR
 70
     0
  9
$PDMODE
 70
     0
  9
$PDSIZE
 40
0.0
  9
$PLINEWID
 40
0.0
  9
$COORDS
 70
     1
  9
$SPLFRAME
 70
     0
  9
$SPLINETYPE
 70
     6
  9
$SPLINESEGS
 70
     8
  9
$ATTDIA
 70
     0
  9
$ATTREQ
 70
     1
  9
$HANDLING
 70
     1
  9
$HANDSEED
  5
9728
  9
$SURFTAB1
 70
     6
  9
$SURFTAB2
 70
     6
  9
$SURFTYPE
 70
     6
  9
$SURFU
 70
     6
  9
$SURFV
 70
     6
  9
$UCSNAME
  2

  9
$UCSORG
 10
0.0
 20
0.0
 30
0.0
  9
$UCSXDIR
 10
1.0
 20
0.0
 30
0.0
  9
$UCSYDIR
 10
0.0
 20
1.0
 30
0.0
  9
$PUCSNAME
  2

  9
$PUCSORG
 10
0.0
 20
0.0
 30
0.0
  9
$PUCSXDIR
 10
1.0
 20
0.0
 30
0.0
  9
$PUCSYDIR
 10
0.0
 20
1.0
 30
0.0
  9
$USERI1
 70
     0
  9
$USERI2
 70
     1
  9
$USERI3
 70
     0
  9
$USERI4
 70
     0
  9
$USERI5
 70
     0
  9
$USERR1
 40
0.0
  9
$USERR2
 40
0.0
  9
$USERR3
 40
0.0
  9
$USERR4
 40
0.0
  9
$USERR5
 40
0.0
  9
$WORLDVIEW
 70
     1
  9
$SHADEDGE
 70
     3
  9
$SHADEDIF
 70
    70
  9
$TILEMODE
 70
     1
  9
$MAXACTVP
 70
    16
  9
$PLIMCHECK
 70
     0
  9
$PEXTMIN
 10
1.0000000000000000E+020
 20
1.0000000000000000E+020
 30
1.0000000000000000E+020
  9
$PEXTMAX
 10
-1.0000000000000000E+020
 20
-1.0000000000000000E+020
 30
-1.0000000000000000E+020
  9
$PLIMMIN
 10
0.0
 20
0.0
  9
$PLIMMAX
 10
12.0
 20
9.0
  9
$UNITMODE
 70
     0
  9
$VISRETAIN
 70
     0
  9
$PLINEGEN
 70
     0
  9
$PSLTSCALE
 70
     0
  0
ENDSEC
  0
SECTION
  2
TABLES
  0
TABLE
  2
VPORT
 70
     1
  0
VPORT
  2
*ACTIVE
 70
     0
 10
0.0
 20
0.0
 11
1.0
 21
1.0
 12
227.02991452991449
 22
125.0
 13
0.0
 23
0.0
 14
20.0
 24
20.0
 15
20.0
 25
20.0
 16
0.0
 26
0.0
 36
1.0
 17
0.0
 27
0.0
 37
0.0
 40
250.0
 41
1.816239316239316
 42
50.0
 43
0.0
 44
0.0
 50
0.0
 51
0.0
 71
     0
 72
   100
 73
     1
 74
     0
 75
     0
 76
     0
 77
     0
 78
     2
  0
ENDTAB
  0
TABLE
  2
LTYPE
 70
     5
  0
LTYPE
  2
CONTINUOUS
 70
     0
  3
Solid Line
 72
    65
 73
     0
 40
0.0
  0
LTYPE
  2
CENTER
 70
     0
  3
____ _ ____ _ ____ _ ____ _ ____ _ ____ _ ____
 72
    65
 73
     4
 40
2.0
 49
1.25
 49
-0.25
 49
0.25
 49
-0.25
  0
LTYPE
  2
HIDDEN
 70
     0
  3
_ _ _ _ _ _ _ _ _ _ _ _ _ _ _ _ _ _ _ _ _ _ _
 72
    65
 73
     2
 40
0.375
 49
0.25
 49
-0.125
  0
LTYPE
  2
PHANTOM2
 70
     0
  3
___ _ _ ___ _ _ ___ _ _ ___ _ _
 72
    65
 73
     6
 40
1.25
 49
0.625
 49
-0.125
 49
0.125
 49
-0.125
 49
0.125
 49
-0.125
  0
LTYPE
  2
PHANTOM
 70
     0
  3
_____ _ _ _____ _ _ _____ _ _ _____ _ _ ____
 72
    65
 73
     6
 40
2.5
 49
1.25
 49
-0.25
 49
0.25
 49
-0.25
 49
0.25
 49
-0.25
  0
ENDTAB
  0
TABLE
  2
LAYER
 70
     6
  0
LAYER
  2
0
 70
     0
 62
     7
  6
CONTINUOUS
  0
LAYER
  2
1
 70
     0
 62
     1
  6
CENTER
  0
LAYER
  2
2
 70
     0
 62
     2
  6
HIDDEN
  0
LAYER
  2
5
 70
     0
 62
     3
  6
PHANTOM
  0
LAYER
  2
DEFPOINTS
 70
     0
 62
     7
  6
CONTINUOUS
  0
LAYER
  2
3
 70
     0
 62
     3
  6
CONTINUOUS
  0
ENDTAB
  0
TABLE
  2
STYLE
 70
     2
  0
STYLE
  2
STANDARD
 70
     0
 40
0.0
 41
1.0
 50
0.0
 71
     0
 42
0.2
  3
TXT
  4
BIGFONT
  0
STYLE
  2
STANDARD1
 70
     0
 40
0.0
 41
1.0
 50
0.0
 71
     0
 42
3.0
  3
txt
  4

  0
ENDTAB
  0
TABLE
  2
VIEW
 70
     1
  0
VIEW
  2
ALL
 70
     0
 40
540.0
 10
441.98319299999991
 20
270.0
 41
0.0
 11
0.0
 21
0.0
 31
1.0
 12
0.0
 22
0.0
 32
0.0
 42
0.0
 43
0.0
 44
0.0
 50
0.0
 71
     0
  0
ENDTAB
  0
TABLE
  2
UCS
 70
     0
  0
ENDTAB
  0
TABLE
  2
APPID
 70
    10
  0
APPID
  2
ACAD
 70
     0
  0
APPID
  2
ACAD_NAV_VCDISPLAY
 70
     0
  0
APPID
  2
ACAD_EXEMPT_FROM_CAD_STANDARDS
 70
     0
  0
APPID
  2
ACAD_DSTYLE_DIMJAG
 70
     0
  0
APPID
  2
ACAD_DSTYLE_DIMTALN
 70
     0
  0
APPID
  2
ACAD_MLEADERVER
 70
     0
  0
APPID
  2
DBPROPERTIES
 70
     0
  0
APPID
  2
ACAD_DSTYLE_DIMRADIAL_EXTENSION
 70
     0
  0
APPID
  2
ACAD_PSEXT
 70
     0
  0
APPID
  2
ACADANNOTATIVE
 70
     0
  0
ENDTAB
  0
TABLE
  2
DIMSTYLE
 70
     1
  0
DIMSTYLE
  2
STANDARD
 70
     0
  3

  4

  5

  6

  7

 40
1.0
 41
0.18
 42
0.0625
 43
0.38
 44
0.18
 45
0.0
 46
0.0
 47
0.0
 48
0.0
140
0.18
141
0.09
142
0.0
143
25.399999999999999
144
1.0
145
0.0
146
1.0
147
0.09
 71
     0
 72
     0
 73
     1
 74
     1
 75
     0
 76
     0
 77
     0
 78
     0
170
     0
171
     2
172
     0
173
     0
174
     0
175
     0
176
     0
177
     0
178
     0
  0
ENDTAB
  0
ENDSEC
  0
SECTION
  2
BLOCKS
  0
BLOCK
  8
0
  2
$MODEL_SPACE
 70
     0
 10
0.0
 20
0.0
 30
0.0
  3
$MODEL_SPACE
  1

  0
ENDBLK
  5
11D
  8
0
  0
BLOCK
 67
     1
  8
0
  2
$PAPER_SPACE
 70
     0
 10
0.0
 20
0.0
 30
0.0
  3
$PAPER_SPACE
  1

  0
ENDBLK
  5
11B
 67
     1
  8
0
  0
ENDSEC
  0
SECTION
  2
ENTITIES
  0
TEXT
  5
8470
  8
0
 62
     3
 10
0.0
 20
0.0
 30
0.0
 40
10.0
  1
VDC2-403250M8
  7
STANDARD1
  0
ARC
  5
912F
  8
0
 10
111.4027777777778
 20
115.0
 30
0.0
 40
45.402777777777779
 50
155.76920529317991
 51
204.23079470682009
  0
ARC
  5
9130
  8
0
 10
-11.40277777777783
 20
115.0
 30
0.0
 40
45.402777777777843
 50
335.76920529317988
 51
24.23079470682007
  0
LINE
  5
9131
  8
0
 10
70.0
 20
90.0
 30
0.0
 11
70.0
 21
96.366100187501729
 31
0.0
  0
LINE
  5
9132
  8
0
 10
30.0
 20
96.366100187501729
 30
0.0
 11
30.0
 21
90.0
 31
0.0
  0
LINE
  5
9133
  8
0
 10
70.0
 20
133.63389981249821
 30
0.0
 11
70.0
 21
140.0
 31
0.0
  0
LINE
  5
9134
  8
0
 10
30.0
 20
140.0
 30
0.0
 11
30.0
 21
133.63389981249821
 31
0.0
  0
LINE
  5
9135
  8
0
 10
54.0
 20
140.0
 30
0.0
 11
54.0
 21
162.233
 31
0.0
  0
LINE
  5
9136
  8
0
 10
46.0
 20
162.233
 30
0.0
 11
46.0
 21
140.0
 31
0.0
  0
LINE
  5
9137
  8
0
 10
54.0
 20
162.233
 30
0.0
 11
53.233000000000061
 21
163.0
 31
0.0
  0
LINE
  5
9138
  8
0
 10
46.767000000000053
 20
163.0
 30
0.0
 11
46.0
 21
162.233
 31
0.0
  0
LINE
  5
9139
  8
0
 10
70.0
 20
133.63389981249821
 30
0.0
 11
30.00000000000011
 21
133.63389981249821
 31
0.0
  0
LINE
  5
913A
  8
0
 10
70.0
 20
96.366100187501729
 30
0.0
 11
30.00000000000011
 21
96.366100187501729
 31
0.0
  0
LINE
  5
913B
  8
0
 10
70.0
 20
90.0
 30
0.0
 11
30.00000000000011
 21
90.0
 31
0.0
  0
LINE
  5
913C
  8
0
 10
70.0
 20
140.0
 30
0.0
 11
30.00000000000011
 21
140.0
 31
0.0
  0
LINE
  5
913D
  8
0
 10
54.0
 20
162.233
 30
0.0
 11
46.0
 21
162.233
 31
0.0
  0
LINE
  5
913E
  8
0
 10
53.233000000000061
 20
163.0
 30
0.0
 11
46.767000000000053
 21
163.0
 31
0.0
  0
LINE
  5
9141
  8
2
 10
53.323500000000081
 20
90.676500000000033
 30
0.0
 11
46.676500000000033
 21
90.676500000000033
 31
0.0
  0
LINE
  5
9142
  8
2
 10
54.0
 20
98.0
 30
0.0
 11
46.0
 21
98.0
 31
0.0
  0
LINE
  5
914B
  8
2
 10
54.0
 20
90.0
 30
0.0
 11
53.323500000000081
 21
90.676500000000033
 31
0.0
  0
LINE
  5
914C
  8
2
 10
46.676500000000033
 20
90.676500000000033
 30
0.0
 11
46.0
 21
90.0
 31
0.0
  0
LINE
  5
914D
  8
2
 10
53.323500000000081
 20
90.676500000000033
 30
0.0
 11
53.323500000000081
 21
98.0
 31
0.0
  0
LINE
  5
914E
  8
2
 10
46.676500000000033
 20
98.0
 30
0.0
 11
46.676500000000033
 21
90.676500000000033
 31
0.0
  0
CIRCLE
  5
914F
  8
3
 10
50.000000000000107
 20
203.0
 30
0.0
 40
3.3235000000000801
  0
CIRCLE
  5
9150
  8
0
 10
50.000000000000107
 20
203.0
 30
0.0
 40
3.9999999999999711
  0
CIRCLE
  5
9152
  8
0
 10
50.000000000000107
 20
203.0
 30
0.0
 40
20.0
  0
CIRCLE
  5
9157
  8
0
 10
50.0
 20
50.0
 30
0.0
 40
20.0
  0
CIRCLE
  5
915A
  8
3
 10
50.0
 20
50.0
 30
0.0
 40
4.0
  0
CIRCLE
  5
915B
  8
0
 10
50.0
 20
50.0
 30
0.0
 40
3.3235000000000019
  0
LINE
  5
91C4
  8
3
 10
46.676500000000033
 20
141.50000000000011
 30
0.0
 11
46.676500000000033
 21
162.90949999999989
 31
0.0
  0
LINE
  5
91C5
  8
3
 10
53.323500000000081
 20
141.5
 30
0.0
 11
53.323500000000081
 21
162.90949999999989
 31
0.0
  0
LINE
  5
91C6
  8
2
 10
46.0
 20
90.0
 30
0.0
 11
46.0
 21
98.0
 31
0.0
  0
LINE
  5
91C7
  8
2
 10
54.0
 20
90.0
 30
0.0
 11
54.0
 21
98.0
 31
0.0
  0
LINE
  5
91C9
  8
3
 10
53.323500000000081
 20
141.5
 30
0.0
 11
54.0
 21
140.3282676286799
 31
0.0
  0
LINE
  5
91CA
  8
3
 10
46.676499999999798
 20
141.5
 30
0.0
 11
46.0
 21
140.3282676286799
 31
0.0
  0
LINE
  5
91CB
  8
0
 10
46.0
 20
141.50000000000011
 30
0.0
 11
54.0
 21
141.5
 31
0.0
  0
LINE
  5
91CC
  8
1
 10
50.000000000000107
 20
226.0
 30
0.0
 11
50.000000000000107
 21
180.0
 31
0.0
  0
LINE
  5
91CD
  8
1
 10
73.0
 20
50.0
 30
0.0
 11
27.0
 21
50.0
 31
0.0
  0
LINE
  5
91CE
  8
1
 10
27.000000000000121
 20
203.0
 30
0.0
 11
73.000000000000114
 21
203.0
 31
0.0
  0
LINE
  5
91D9
  8
1
 10
50.0
 20
73.0
 30
0.0
 11
50.0
 21
27.0
 31
0.0
  0
LINE
  5
91DA
  8
1
 10
49.999999999999893
 20
166.0
 30
0.0
 11
50.0
 21
87.0
 31
0.0
  0
ENDSEC
  0
EOF
