  0
SECTION
  2
HEADER
  9
$ACADVER
  1
AC1009
  9
$INSBASE
 10
0.0
 20
0.0
 30
0.0
  9
$EXTMIN
 10
0.0
 20
-2.960436562073669
 30
0.0
  9
$EXTMAX
 10
102.1240267664197
 20
104.5092430255613
 30
0.0
  9
$LIMMIN
 10
0.0
 20
0.0
  9
$LIMMAX
 10
385.0
 20
270.0
  9
$ORTHOMODE
 70
     1
  9
$REGENMODE
 70
     1
  9
$FILLMODE
 70
     1
  9
$QTEXTMODE
 70
     0
  9
$MIRRTEXT
 70
     0
  9
$DRAGMODE
 70
     2
  9
$LTSCALE
 40
10.0
  9
$OSMODE
 70
    37
  9
$ATTMODE
 70
     1
  9
$TEXTSIZE
 40
0.2
  9
$TRACEWID
 40
0.05
  9
$TEXTSTYLE
  7
STANDARD
  9
$CLAYER
  8
0
  9
$CELTYPE
  6
BYLAYER
  9
$CECOLOR
 62
   256
  9
$DIMSCALE
 40
1.0
  9
$DIMASZ
 40
3.0
  9
$DIMEXO
 40
0.0625
  9
$DIMDLI
 40
0.38
  9
$DIMRND
 40
0.0
  9
$DIMDLE
 40
0.0
  9
$DIMEXE
 40
0.18
  9
$DIMTP
 40
0.0
  9
$DIMTM
 40
0.0
  9
$DIMTXT
 40
3.0
  9
$DIMCEN
 40
0.09
  9
$DIMTSZ
 40
0.0
  9
$DIMTOL
 70
     0
  9
$DIMLIM
 70
     0
  9
$DIMTIH
 70
     0
  9
$DIMTOH
 70
     0
  9
$DIMSE1
 70
     0
  9
$DIMSE2
 70
     0
  9
$DIMTAD
 70
     1
  9
$DIMZIN
 70
     8
  9
$DIMBLK
  1

  9
$DIMASO
 70
     1
  9
$DIMSHO
 70
     1
  9
$DIMPOST
  1

  9
$DIMAPOST
  1

  9
$DIMALT
 70
     0
  9
$DIMALTD
 70
     2
  9
$DIMALTF
 40
25.399999999999999
  9
$DIMLFAC
 40
1.0
  9
$DIMTOFL
 70
     0
  9
$DIMTVP
 40
0.0
  9
$DIMTIX
 70
     0
  9
$DIMSOXD
 70
     0
  9
$DIMSAH
 70
     0
  9
$DIMBLK1
  1

  9
$DIMBLK2
  1

  9
$DIMSTYLE
  2
STANDARD
  9
$DIMCLRD
 70
     0
  9
$DIMCLRE
 70
     0
  9
$DIMCLRT
 70
     0
  9
$DIMTFAC
 40
1.0
  9
$DIMGAP
 40
0.09
  9
$LUNITS
 70
     2
  9
$LUPREC
 70
     1
  9
$SKETCHINC
 40
0.1
  9
$FILLETRAD
 40
0.0
  9
$AUNITS
 70
     0
  9
$AUPREC
 70
     0
  9
$MENU
  1
E:\r13\win\SUPPORT\ACAD
  9
$ELEVATION
 40
0.0
  9
$PELEVATION
 40
0.0
  9
$THICKNESS
 40
0.0
  9
$LIMCHECK
 70
     0
  9
$BLIPMODE
 70
     0
  9
$CHAMFERA
 40
0.0
  9
$CHAMFERB
 40
0.0
  9
$SKPOLY
 70
     0
  9
$TDCREATE
 40
2450365.4483334492
  9
$TDUPDATE
 40
2458837.7113254289
  9
$TDINDWG
 40
0.0065238542
  9
$TDUSRTIMER
 40
0.0065238542
  9
$USRTIMER
 70
     1
  9
$ANGBASE
 50
0.0
  9
$ANGDIR
 70
     0
  9
$PDMODE
 70
     0
  9
$PDSIZE
 40
0.0
  9
$PLINEWID
 40
0.0
  9
$COORDS
 70
     1
  9
$SPLFRAME
 70
     0
  9
$SPLINETYPE
 70
     6
  9
$SPLINESEGS
 70
     8
  9
$ATTDIA
 70
     0
  9
$ATTREQ
 70
     1
  9
$HANDLING
 70
     1
  9
$HANDSEED
  5
36C
  9
$SURFTAB1
 70
     6
  9
$SURFTAB2
 70
     6
  9
$SURFTYPE
 70
     6
  9
$SURFU
 70
     6
  9
$SURFV
 70
     6
  9
$UCSNAME
  2

  9
$UCSORG
 10
0.0
 20
0.0
 30
0.0
  9
$UCSXDIR
 10
1.0
 20
0.0
 30
0.0
  9
$UCSYDIR
 10
0.0
 20
1.0
 30
0.0
  9
$PUCSNAME
  2

  9
$PUCSORG
 10
0.0
 20
0.0
 30
0.0
  9
$PUCSXDIR
 10
1.0
 20
0.0
 30
0.0
  9
$PUCSYDIR
 10
0.0
 20
1.0
 30
0.0
  9
$USERI1
 70
     3
  9
$USERI2
 70
     1
  9
$USERI3
 70
     1
  9
$USERI4
 70
     0
  9
$USERI5
 70
     0
  9
$USERR1
 40
1.0
  9
$USERR2
 40
3.0
  9
$USERR3
 40
3.0
  9
$USERR4
 40
3.0
  9
$USERR5
 40
10.0
  9
$WORLDVIEW
 70
     1
  9
$SHADEDGE
 70
     3
  9
$SHADEDIF
 70
    70
  9
$TILEMODE
 70
     1
  9
$MAXACTVP
 70
    16
  9
$PLIMCHECK
 70
     0
  9
$PEXTMIN
 10
1.0000000000000000E+020
 20
1.0000000000000000E+020
 30
1.0000000000000000E+020
  9
$PEXTMAX
 10
-1.0000000000000000E+020
 20
-1.0000000000000000E+020
 30
-1.0000000000000000E+020
  9
$PLIMMIN
 10
0.0
 20
0.0
  9
$PLIMMAX
 10
12.0
 20
9.0
  9
$UNITMODE
 70
     0
  9
$VISRETAIN
 70
     0
  9
$PLINEGEN
 70
     0
  9
$PSLTSCALE
 70
     0
  0
ENDSEC
  0
SECTION
  2
TABLES
  0
TABLE
  2
VPORT
 70
     1
  0
VPORT
  2
*ACTIVE
 70
     0
 10
0.0
 20
0.0
 11
1.0
 21
1.0
 12
241.56441717791409
 22
100.0
 13
0.0
 23
0.0
 14
5.0
 24
5.0
 15
0.0
 25
0.0
 16
0.0
 26
0.0
 36
1.0
 17
0.0
 27
0.0
 37
0.0
 40
200.0
 41
2.415644171779141
 42
50.0
 43
0.0
 44
0.0
 50
0.0
 51
0.0
 71
     0
 72
   100
 73
     1
 74
     0
 75
     0
 76
     0
 77
     0
 78
     0
  0
ENDTAB
  0
TABLE
  2
LTYPE
 70
     4
  0
LTYPE
  2
CONTINUOUS
 70
     0
  3
Solid Line
 72
    65
 73
     0
 40
0.0
  0
LTYPE
  2
CENTER
 70
     0
  3
____ _ ____ _ ____ _ ____ _ ____ _ ____ _ ____
 72
    65
 73
     4
 40
2.0
 49
1.25
 49
-0.25
 49
0.25
 49
-0.25
  0
LTYPE
  2
HIDDEN
 70
     0
  3
_ _ _ _ _ _ _ _ _ _ _ _ _ _ _ _ _ _ _ _ _ _ _
 72
    65
 73
     2
 40
0.375
 49
0.25
 49
-0.125
  0
LTYPE
  2
PHANTOM2
 70
     0
  3
___ _ _ ___ _ _ ___ _ _ ___ _ _
 72
    65
 73
     6
 40
1.25
 49
0.625
 49
-0.125
 49
0.125
 49
-0.125
 49
0.125
 49
-0.125
  0
ENDTAB
  0
TABLE
  2
LAYER
 70
     4
  0
LAYER
  2
0
 70
     0
 62
     7
  6
CONTINUOUS
  0
LAYER
  2
1
 70
     0
 62
     1
  6
CENTER
  0
LAYER
  2
2
 70
     0
 62
     2
  6
HIDDEN
  0
LAYER
  2
3
 70
     0
 62
     3
  6
CONTINUOUS
  0
ENDTAB
  0
TABLE
  2
STYLE
 70
     2
  0
STYLE
  2
STANDARD
 70
     0
 40
0.0
 41
1.0
 50
0.0
 71
     0
 42
0.2
  3
SIMPLEX
  4
BIGFONT
  0
STYLE
  2
STANDARD1
 70
     0
 40
0.0
 41
1.0
 50
0.0
 71
     0
 42
3.0
  3
txt
  4

  0
ENDTAB
  0
TABLE
  2
VIEW
 70
     0
  0
ENDTAB
  0
TABLE
  2
UCS
 70
     0
  0
ENDTAB
  0
TABLE
  2
APPID
 70
     6
  0
APPID
  2
ACAD
 70
     0
  0
APPID
  2
ACAD_MLEADERVER
 70
     0
  0
APPID
  2
ACAD_EXEMPT_FROM_CAD_STANDARDS
 70
     0
  0
APPID
  2
ACAD_DSTYLE_DIMJAG
 70
     0
  0
APPID
  2
ACAD_DSTYLE_DIMTALN
 70
     0
  0
APPID
  2
ACAD_NAV_VCDISPLAY
 70
     0
  0
ENDTAB
  0
TABLE
  2
DIMSTYLE
 70
     1
  0
DIMSTYLE
  2
STANDARD
 70
     0
  3

  4

  5

  6

  7

 40
1.0
 41
0.18
 42
0.0625
 43
0.38
 44
0.18
 45
0.0
 46
0.0
 47
0.0
 48
0.0
140
0.18
141
0.09
142
0.0
143
25.399999999999999
144
1.0
145
0.0
146
1.0
147
0.09
 71
     0
 72
     0
 73
     1
 74
     1
 75
     0
 76
     0
 77
     0
 78
     0
170
     0
171
     2
172
     0
173
     0
174
     0
175
     0
176
     0
177
     0
178
     0
  0
ENDTAB
  0
ENDSEC
  0
SECTION
  2
BLOCKS
  0
BLOCK
  8
0
  2
$MODEL_SPACE
 70
     0
 10
0.0
 20
0.0
 30
0.0
  3
$MODEL_SPACE
  1

  0
ENDBLK
  5
16F
  8
0
  0
BLOCK
 67
     1
  8
0
  2
$PAPER_SPACE
 70
     0
 10
0.0
 20
0.0
 30
0.0
  3
$PAPER_SPACE
  1

  0
ENDBLK
  5
16D
 67
     1
  8
0
  0
ENDSEC
  0
SECTION
  2
ENTITIES
  0
LINE
  5
2A
  8
0
 10
92.214554766419695
 20
27.877473367067669
 30
0.0
 11
92.214554766419695
 21
27.67747336706767
 31
0.0
  0
LINE
  5
2B
  8
0
 10
85.214554766419724
 20
27.877473367067669
 30
0.0
 11
85.214554766419724
 21
27.67747336706767
 31
0.0
  0
LINE
  5
2C
  8
0
 10
92.214554766419724
 20
27.67747336706767
 30
0.0
 11
85.214554766419724
 21
27.677473367067659
 31
0.0
  0
LINE
  5
2D
  8
1
 10
88.71455476641971
 20
24.67747336706767
 30
0.0
 11
88.714554766419724
 21
48.877473367067608
 31
0.0
  0
LINE
  5
2E
  8
0
 10
82.464554766419724
 20
27.877473367067669
 30
0.0
 11
82.374856861106068
 21
38.155835256395193
 31
0.0
  0
LINE
  5
2F
  8
1
 10
88.714554766419724
 20
77.690299025561345
 30
0.0
 11
88.714554766419724
 21
104.5092430255613
 31
0.0
  0
CIRCLE
  5
30
  8
0
 10
88.714554766419724
 20
91.099771025561338
 30
0.0
 40
8.1000000000000014
  0
LINE
  5
31
  8
0
 10
98.286353368016421
 20
95.190954087861897
 30
0.0
 11
97.898640680598589
 21
94.647219917731505
 31
0.0
  0
LINE
  5
32
  8
0
 10
79.142756164823027
 20
95.190954087861897
 30
0.0
 11
79.530468852240858
 21
94.647219917731505
 31
0.0
  0
CIRCLE
  5
33
  8
0
 10
88.714554766419724
 20
91.099771025561338
 30
0.0
 40
9.8453962704188811
  0
CIRCLE
  5
34
  8
0
 10
88.714554766419724
 20
91.099771025561338
 30
0.0
 40
10.5
  0
LINE
  5
35
  8
1
 10
75.30508276641973
 20
91.099771025561338
 30
0.0
 11
102.1240267664197
 21
91.099771025561338
 31
0.0
  0
LINE
  5
36
  8
0
 10
91.483857861314405
 20
81.065426618107963
 30
0.0
 11
91.667231446959704
 21
81.707565313281876
 31
0.0
  0
LINE
  5
37
  8
0
 10
84.198054132820232
 20
81.721160822259336
 30
0.0
 11
84.132285727576686
 21
82.385722702466083
 31
0.0
  0
LINE
  5
38
  8
0
 10
86.855871769606424
 20
80.857583523072435
 30
0.0
 11
87.299699199562554
 21
81.35656767930449
 31
0.0
  0
LINE
  5
39
  8
0
 10
86.855871769606424
 20
80.857583523072435
 30
0.0
 11
86.615675523250331
 21
81.480699675156885
 31
0.0
  0
LINE
  5
3A
  8
0
 10
85.945251671525156
 20
81.065426618107963
 30
0.0
 11
86.43202097764987
 21
81.522617626732213
 31
0.0
  0
LINE
  5
3B
  8
0
 10
85.945251671525156
 20
81.065426618107963
 30
0.0
 11
85.761878085879857
 21
81.707565313281876
 31
0.0
  0
LINE
  5
3C
  8
0
 10
85.056928373640076
 20
81.354060354213317
 30
0.0
 11
85.582720375696169
 21
81.765777182052574
 31
0.0
  0
LINE
  5
3D
  8
0
 10
85.056928373640076
 20
81.354060354213317
 30
0.0
 11
84.931853864995176
 21
82.010051469274586
 31
0.0
  0
LINE
  5
3E
  8
0
 10
84.198054132820232
 20
81.721160822259336
 30
0.0
 11
84.758635462767813
 21
82.084088567501126
 31
0.0
  0
LINE
  5
3F
  8
0
 10
91.483857861314405
 20
81.065426618107963
 30
0.0
 11
90.997088555189578
 21
81.522617626732213
 31
0.0
  0
LINE
  5
40
  8
0
 10
90.573237763233124
 20
80.857583523072435
 30
0.0
 11
90.813434009589116
 21
81.480699675156885
 31
0.0
  0
LINE
  5
41
  8
0
 10
90.573237763233124
 20
80.857583523072435
 30
0.0
 11
90.129410333276894
 21
81.35656767930449
 31
0.0
  0
LINE
  5
42
  8
0
 10
89.64765264254936
 20
80.732204499498053
 30
0.0
 11
89.942737630673491
 21
81.331281143622974
 31
0.0
  0
LINE
  5
43
  8
0
 10
89.64765264254936
 20
80.732204499498053
 30
0.0
 11
89.250340526261425
 21
81.268964276309831
 31
0.0
  0
LINE
  5
44
  8
0
 10
88.714554766419724
 20
80.690299025561288
 30
0.0
 11
89.062152645494848
 21
81.260512748839361
 31
0.0
  0
LINE
  5
45
  8
0
 10
88.714554766419724
 20
80.690299025561288
 30
0.0
 11
88.366956887344699
 21
81.260512748839361
 31
0.0
  0
LINE
  5
46
  8
0
 10
87.781456890290144
 20
80.732204499498053
 30
0.0
 11
88.178769006578023
 21
81.268964276309717
 31
0.0
  0
LINE
  5
47
  8
0
 10
87.781456890290144
 20
80.732204499498053
 30
0.0
 11
87.486371902165956
 21
81.331281143622974
 31
0.0
  0
LINE
  5
48
  8
0
 10
82.596020640668385
 20
82.678331275091082
 30
0.0
 11
83.212396449246341
 21
82.935330960600382
 31
0.0
  0
LINE
  5
49
  8
0
 10
81.865760021034689
 20
83.260694686197795
 30
0.0
 11
82.502691756016418
 21
83.461408265024104
 31
0.0
  0
LINE
  5
4A
  8
0
 10
81.865760021034689
 20
83.260694686197795
 30
0.0
 11
81.979159667266799
 21
83.918804476420135
 31
0.0
  0
LINE
  5
4B
  8
0
 10
81.190641869664717
 20
83.90617373068666
 30
0.0
 11
81.843001331229857
 21
84.048985175111184
 31
0.0
  0
LINE
  5
4C
  8
0
 10
81.190641869664717
 20
83.90617373068666
 30
0.0
 11
81.362577509038204
 21
84.551469098456678
 31
0.0
  0
LINE
  5
4D
  8
0
 10
80.576101840950287
 20
84.609571390827242
 30
0.0
 11
81.238636614295515
 21
84.693330867070998
 31
0.0
  0
LINE
  5
4E
  8
0
 10
80.576101840950287
 20
84.609571390827242
 30
0.0
 11
80.805189148793374
 21
85.236856797271017
 31
0.0
  0
LINE
  5
4F
  8
0
 10
80.027087849858958
 20
85.365224322251052
 30
0.0
 11
80.694463594553326
 21
85.389257448261233
 31
0.0
  0
LINE
  5
50
  8
0
 10
80.027087849858958
 20
85.365224322251052
 30
0.0
 11
80.311482349870118
 21
85.969449234113895
 31
0.0
  0
LINE
  5
51
  8
0
 10
79.548020234231956
 20
86.167048451871224
 30
0.0
 11
80.214863633189736
 21
86.131161727048266
 31
0.0
  0
LINE
  5
52
  8
0
 10
79.548020234231956
 20
86.167048451871224
 30
0.0
 11
79.88543214911823
 21
86.743348005441035
 31
0.0
  0
LINE
  5
53
  8
0
 10
79.142756164823027
 20
87.008587963260666
 30
0.0
 11
79.803698187093516
 21
86.913070326411926
 31
0.0
  0
LINE
  5
54
  8
0
 10
79.142756164823027
 20
87.008587963260666
 30
0.0
 11
79.530468852240858
 21
87.552322133391044
 31
0.0
  0
LINE
  5
55
  8
0
 10
78.814558589627779
 20
87.883067275091108
 30
0.0
 11
79.464277718675248
 21
87.728687778065151
 31
0.0
  0
LINE
  5
56
  8
0
 10
78.814558589627779
 20
87.883067275091108
 30
0.0
 11
79.249450414989496
 21
88.389858233954683
 31
0.0
  0
LINE
  5
57
  8
0
 10
82.596020640668385
 20
82.678331275091082
 30
0.0
 11
82.649971266485522
 21
83.343956774697304
 31
0.0
  0
LINE
  5
58
  8
0
 10
78.566069962544589
 20
88.783445594129162
 30
0.0
 11
79.044639432584461
 21
89.249212958913304
 31
0.0
  0
LINE
  5
59
  8
0
 10
78.399290967889726
 20
89.702473603563831
 30
0.0
 11
79.011003319628571
 21
89.434563218393123
 31
0.0
  0
LINE
  5
5A
  8
0
 10
78.399290967889726
 20
89.702473603563831
 30
0.0
 11
78.917684922629405
 21
90.123467289313922
 31
0.0
  0
LINE
  5
5B
  8
0
 10
78.31556441206385
 20
90.63275183024281
 30
0.0
 11
78.900798887940255
 21
90.311086501060814
 31
0.0
  0
LINE
  5
5C
  8
0
 10
78.31556441206385
 20
90.63275183024281
 30
0.0
 11
78.869609048190455
 21
91.005582243341706
 31
0.0
  0
LINE
  5
5D
  8
0
 10
78.31556441206385
 20
91.566790220879767
 30
0.0
 11
78.869609048190455
 21
91.193959807780871
 31
0.0
  0
LINE
  5
5E
  8
0
 10
78.31556441206385
 20
91.566790220879767
 30
0.0
 11
78.900798887940255
 21
91.888455550061735
 31
0.0
  0
LINE
  5
5F
  8
0
 10
78.399290967889726
 20
92.497068447558675
 30
0.0
 11
78.917684922629405
 21
92.076074761808584
 31
0.0
  0
LINE
  5
60
  8
0
 10
78.399290967889726
 20
92.497068447558675
 30
0.0
 11
79.011003319628571
 21
92.76497883272954
 31
0.0
  0
LINE
  5
61
  8
0
 10
78.566069962544589
 20
93.416096456993415
 30
0.0
 11
79.044639432584461
 21
92.950329092209373
 31
0.0
  0
LINE
  5
62
  8
0
 10
78.566069962544589
 20
93.416096456993415
 30
0.0
 11
79.199335041970585
 21
93.628094841260364
 31
0.0
  0
LINE
  5
63
  8
0
 10
78.814558589627779
 20
94.316474776031399
 30
0.0
 11
79.249450414989496
 21
93.809683817167993
 31
0.0
  0
LINE
  5
64
  8
0
 10
78.814558589627779
 20
94.316474776031399
 30
0.0
 11
79.464277718675305
 21
94.470854273057427
 31
0.0
  0
LINE
  5
65
  8
0
 10
78.566069962544589
 20
88.783445594129162
 30
0.0
 11
79.199335041970585
 21
88.571447209862185
 31
0.0
  0
LINE
  5
66
  8
0
 10
83.375544099442735
 20
82.163772345128919
 30
0.0
 11
83.966401286029566
 21
82.474988926966745
 31
0.0
  0
LINE
  5
67
  8
0
 10
83.375544099442735
 20
82.163772345128919
 30
0.0
 11
83.369611326128407
 21
82.831554328977646
 31
0.0
  0
LINE
  5
68
  8
0
 10
93.231055400019216
 20
81.721160822259336
 30
0.0
 11
93.296823805262775
 21
82.385722702466083
 31
0.0
  0
LINE
  5
69
  8
0
 10
93.231055400019216
 20
81.721160822259336
 30
0.0
 11
92.670474070071634
 21
82.084088567501126
 31
0.0
  0
LINE
  5
6A
  8
0
 10
92.372181159199386
 20
81.354060354213317
 30
0.0
 11
92.497255667844286
 21
82.010051469274586
 31
0.0
  0
LINE
  5
6B
  8
0
 10
92.372181159199386
 20
81.354060354213317
 30
0.0
 11
91.846389157143278
 21
81.765777182052574
 31
0.0
  0
LINE
  5
6C
  8
0
 10
96.238467663174731
 20
83.90617373068666
 30
0.0
 11
95.586108201609704
 21
84.048985175111184
 31
0.0
  0
LINE
  5
6D
  8
0
 10
96.238467663174731
 20
83.90617373068666
 30
0.0
 11
96.066532023801301
 21
84.551469098456678
 31
0.0
  0
LINE
  5
6E
  8
0
 10
95.563349511804859
 20
83.260694686197795
 30
0.0
 11
95.449949865572748
 21
83.918804476420135
 31
0.0
  0
LINE
  5
6F
  8
0
 10
95.563349511804859
 20
83.260694686197795
 30
0.0
 11
94.926417776823087
 21
83.461408265024104
 31
0.0
  0
LINE
  5
70
  8
0
 10
94.833088892171176
 20
82.678331275091082
 30
0.0
 11
94.779138266353996
 21
83.343956774697304
 31
0.0
  0
LINE
  5
71
  8
0
 10
94.833088892171176
 20
82.678331275091082
 30
0.0
 11
94.216713083593106
 21
82.935330960600382
 31
0.0
  0
LINE
  5
72
  8
0
 10
94.053565433396727
 20
82.163772345128919
 30
0.0
 11
94.059498206711055
 21
82.831554328977646
 31
0.0
  0
LINE
  5
73
  8
0
 10
94.053565433396727
 20
82.163772345128919
 30
0.0
 11
93.462708246809882
 21
82.474988926966745
 31
0.0
  0
LINE
  5
74
  8
0
 10
98.614550943211668
 20
87.883067275091108
 30
0.0
 11
98.179659117850065
 21
88.389858233954683
 31
0.0
  0
LINE
  5
75
  8
0
 10
98.614550943211668
 20
87.883067275091108
 30
0.0
 11
97.964831814164313
 21
87.728687778065151
 31
0.0
  0
LINE
  5
76
  8
0
 10
98.286353368016421
 20
87.008587963260666
 30
0.0
 11
97.898640680598589
 21
87.552322133391044
 31
0.0
  0
LINE
  5
77
  8
0
 10
98.286353368016421
 20
87.008587963260666
 30
0.0
 11
97.625411345745931
 21
86.913070326411926
 31
0.0
  0
LINE
  5
78
  8
0
 10
97.881089298607534
 20
86.167048451871224
 30
0.0
 11
97.543677383721217
 21
86.743348005441035
 31
0.0
  0
LINE
  5
79
  8
0
 10
97.881089298607534
 20
86.167048451871224
 30
0.0
 11
97.214245899649711
 21
86.131161727048266
 31
0.0
  0
LINE
  5
7A
  8
0
 10
97.402021682980603
 20
85.365224322251166
 30
0.0
 11
97.117627182969386
 21
85.969449234113895
 31
0.0
  0
LINE
  5
7B
  8
0
 10
97.402021682980603
 20
85.365224322251166
 30
0.0
 11
96.734645938286235
 21
85.389257448261233
 31
0.0
  0
LINE
  5
7C
  8
0
 10
96.853007691889161
 20
84.609571390827242
 30
0.0
 11
96.623920384046073
 21
85.236856797271145
 31
0.0
  0
LINE
  5
7D
  8
0
 10
96.853007691889161
 20
84.609571390827242
 30
0.0
 11
96.190472918544074
 21
84.693330867070998
 31
0.0
  0
LINE
  5
7E
  8
0
 10
98.614550943211668
 20
94.316474776031399
 30
0.0
 11
97.964831814164313
 21
94.470854273057427
 31
0.0
  0
LINE
  5
7F
  8
0
 10
98.614550943211668
 20
94.316474776031399
 30
0.0
 11
98.179659117850065
 21
93.809683817167993
 31
0.0
  0
LINE
  5
80
  8
0
 10
98.863039570294859
 20
93.416096456993415
 30
0.0
 11
98.229774490868991
 21
93.628094841260364
 31
0.0
  0
LINE
  5
81
  8
0
 10
98.863039570294859
 20
93.416096456993415
 30
0.0
 11
98.384470100254987
 21
92.950329092209373
 31
0.0
  0
LINE
  5
82
  8
0
 10
99.029818564949736
 20
92.497068447558846
 30
0.0
 11
98.418106213211004
 21
92.76497883272954
 31
0.0
  0
LINE
  5
83
  8
0
 10
99.029818564949736
 20
92.497068447558846
 30
0.0
 11
98.511424610210057
 21
92.076074761808584
 31
0.0
  0
LINE
  5
84
  8
0
 10
99.113545120775726
 20
91.566790220879767
 30
0.0
 11
98.528310644899307
 21
91.888455550061735
 31
0.0
  0
LINE
  5
85
  8
0
 10
99.113545120775726
 20
91.566790220879767
 30
0.0
 11
98.559500484649121
 21
91.193959807780871
 31
0.0
  0
LINE
  5
86
  8
0
 10
99.113545120775726
 20
90.63275183024281
 30
0.0
 11
98.559500484649121
 21
91.005582243341706
 31
0.0
  0
LINE
  5
87
  8
0
 10
99.113545120775726
 20
90.63275183024281
 30
0.0
 11
98.528310644899307
 21
90.311086501060814
 31
0.0
  0
LINE
  5
88
  8
0
 10
99.029818564949736
 20
89.702473603563831
 30
0.0
 11
98.511424610210099
 21
90.123467289313922
 31
0.0
  0
LINE
  5
89
  8
0
 10
99.029818564949736
 20
89.702473603563831
 30
0.0
 11
98.418106213211004
 21
89.434563218392967
 31
0.0
  0
LINE
  5
8A
  8
0
 10
98.863039570294859
 20
88.783445594129162
 30
0.0
 11
98.384470100254987
 21
89.249212958913304
 31
0.0
  0
LINE
  5
8B
  8
0
 10
98.863039570294859
 20
88.783445594129162
 30
0.0
 11
98.229774490868991
 21
88.571447209862185
 31
0.0
  0
LINE
  5
8C
  8
0
 10
91.483857861314405
 20
101.1341154330147
 30
0.0
 11
91.667231446959704
 21
100.4919767378407
 31
0.0
  0
LINE
  5
8D
  8
0
 10
82.596020640668385
 20
99.521210776031424
 30
0.0
 11
83.212396449246341
 21
99.264211090522195
 31
0.0
  0
LINE
  5
8E
  8
0
 10
79.142756164823027
 20
95.190954087861897
 30
0.0
 11
79.803698187093516
 21
95.286471724710594
 31
0.0
  0
LINE
  5
8F
  8
0
 10
79.548020234231956
 20
96.032493599251453
 30
0.0
 11
79.88543214911823
 21
95.456194045681485
 31
0.0
  0
LINE
  5
90
  8
0
 10
79.548020234231956
 20
96.032493599251453
 30
0.0
 11
80.214863633189736
 21
96.068380324074283
 31
0.0
  0
LINE
  5
91
  8
0
 10
80.027087849858958
 20
96.834317728871525
 30
0.0
 11
80.311482349870047
 21
96.230092817008654
 31
0.0
  0
LINE
  5
92
  8
0
 10
80.027087849858958
 20
96.834317728871525
 30
0.0
 11
80.694463594553326
 21
96.810284602861344
 31
0.0
  0
LINE
  5
93
  8
0
 10
80.576101840950287
 20
97.589970660295265
 30
0.0
 11
80.805189148793374
 21
96.962685253851546
 31
0.0
  0
LINE
  5
94
  8
0
 10
80.576101840950287
 20
97.589970660295265
 30
0.0
 11
81.238636614295515
 21
97.506211184051509
 31
0.0
  0
LINE
  5
95
  8
0
 10
81.190641869664717
 20
98.293368320435846
 30
0.0
 11
81.362577509038204
 21
97.648072952665984
 31
0.0
  0
LINE
  5
96
  8
0
 10
81.190641869664717
 20
98.293368320435846
 30
0.0
 11
81.843001331229857
 21
98.150556876011365
 31
0.0
  0
LINE
  5
97
  8
0
 10
81.865760021034689
 20
98.938847364924882
 30
0.0
 11
81.979159667266799
 21
98.280737574702371
 31
0.0
  0
LINE
  5
98
  8
0
 10
81.865760021034689
 20
98.938847364924882
 30
0.0
 11
82.502691756016418
 21
98.738133786098402
 31
0.0
  0
LINE
  5
99
  8
0
 10
82.596020640668385
 20
99.521210776031424
 30
0.0
 11
82.649971266485522
 21
98.855585276425217
 31
0.0
  0
LINE
  5
9A
  8
0
 10
89.64765264254936
 20
101.4673375516245
 30
0.0
 11
89.250340526261425
 21
100.9305777748128
 31
0.0
  0
LINE
  5
9B
  8
0
 10
89.64765264254936
 20
101.4673375516245
 30
0.0
 11
89.942737630673605
 21
100.8682609074996
 31
0.0
  0
LINE
  5
9C
  8
0
 10
87.781456890290144
 20
101.4673375516245
 30
0.0
 11
87.486371902165956
 21
100.8682609074996
 31
0.0
  0
LINE
  5
9D
  8
0
 10
87.781456890290144
 20
101.4673375516245
 30
0.0
 11
88.178769006578023
 21
100.9305777748128
 31
0.0
  0
LINE
  5
9E
  8
0
 10
88.714554766419724
 20
101.5092430255612
 30
0.0
 11
89.062152645494848
 21
100.9390293022831
 31
0.0
  0
LINE
  5
9F
  8
0
 10
88.714554766419724
 20
101.5092430255612
 30
0.0
 11
88.366956887344699
 21
100.9390293022831
 31
0.0
  0
LINE
  5
A0
  8
0
 10
86.855871769606424
 20
101.3419585280502
 30
0.0
 11
87.299699199562554
 21
100.8429743718182
 31
0.0
  0
LINE
  5
A1
  8
0
 10
83.375544099442735
 20
100.0357697059937
 30
0.0
 11
83.369611326128407
 21
99.367987722144917
 31
0.0
  0
LINE
  5
A2
  8
0
 10
83.375544099442735
 20
100.0357697059937
 30
0.0
 11
83.966401286029566
 21
99.724553124155833
 31
0.0
  0
LINE
  5
A3
  8
0
 10
84.198054132820232
 20
100.4783812288632
 30
0.0
 11
84.132285727576686
 21
99.813819348656594
 31
0.0
  0
LINE
  5
A4
  8
0
 10
84.198054132820232
 20
100.4783812288632
 30
0.0
 11
84.758635462767813
 21
100.11545348362139
 31
0.0
  0
LINE
  5
A5
  8
0
 10
85.056928373640076
 20
100.8454816969092
 30
0.0
 11
84.931853864995176
 21
100.18949058184791
 31
0.0
  0
LINE
  5
A6
  8
0
 10
85.056928373640076
 20
100.8454816969092
 30
0.0
 11
85.582720375696169
 21
100.4337648690699
 31
0.0
  0
LINE
  5
A7
  8
0
 10
85.945251671525156
 20
101.1341154330147
 30
0.0
 11
85.761878085879857
 21
100.4919767378407
 31
0.0
  0
LINE
  5
A8
  8
0
 10
85.945251671525156
 20
101.1341154330147
 30
0.0
 11
86.43202097764987
 21
100.67692442439029
 31
0.0
  0
LINE
  5
A9
  8
0
 10
86.855871769606424
 20
101.3419585280502
 30
0.0
 11
86.615675523250374
 21
100.71884237596571
 31
0.0
  0
LINE
  5
AA
  8
0
 10
90.573237763233124
 20
101.3419585280502
 30
0.0
 11
90.129410333276894
 21
100.8429743718182
 31
0.0
  0
LINE
  5
AB
  8
0
 10
90.573237763233124
 20
101.3419585280502
 30
0.0
 11
90.813434009589116
 21
100.71884237596571
 31
0.0
  0
LINE
  5
AC
  8
0
 10
91.483857861314405
 20
101.1341154330147
 30
0.0
 11
90.997088555189578
 21
100.67692442439029
 31
0.0
  0
LINE
  5
AD
  8
0
 10
94.964554766419724
 20
27.877473367067662
 30
0.0
 11
82.464554766419724
 21
27.877473367067669
 31
0.0
  0
LINE
  5
AE
  8
0
 10
96.238467663174731
 20
98.293368320435846
 30
0.0
 11
95.586108201609704
 21
98.150556876011365
 31
0.0
  0
LINE
  5
AF
  8
0
 10
96.238467663174731
 20
98.293368320435846
 30
0.0
 11
96.066532023801301
 21
97.648072952665984
 31
0.0
  0
LINE
  5
B0
  8
0
 10
92.372181159199386
 20
100.8454816969092
 30
0.0
 11
91.846389157143278
 21
100.4337648690699
 31
0.0
  0
LINE
  5
B1
  8
0
 10
92.372181159199386
 20
100.8454816969092
 30
0.0
 11
92.497255667844286
 21
100.18949058184791
 31
0.0
  0
LINE
  5
B2
  8
0
 10
93.231055400019216
 20
100.4783812288632
 30
0.0
 11
92.670474070071634
 21
100.11545348362139
 31
0.0
  0
LINE
  5
B3
  8
0
 10
93.231055400019216
 20
100.4783812288632
 30
0.0
 11
93.296823805262775
 21
99.813819348656594
 31
0.0
  0
LINE
  5
B4
  8
0
 10
94.053565433396727
 20
100.0357697059937
 30
0.0
 11
93.462708246809882
 21
99.724553124155833
 31
0.0
  0
LINE
  5
B5
  8
0
 10
94.053565433396727
 20
100.0357697059937
 30
0.0
 11
94.059498206711055
 21
99.367987722144917
 31
0.0
  0
LINE
  5
B6
  8
0
 10
94.833088892171176
 20
99.521210776031424
 30
0.0
 11
94.216713083593106
 21
99.264211090522195
 31
0.0
  0
LINE
  5
B7
  8
0
 10
94.833088892171176
 20
99.521210776031424
 30
0.0
 11
94.779138266353996
 21
98.855585276425217
 31
0.0
  0
LINE
  5
B8
  8
0
 10
95.563349511804859
 20
98.938847364924882
 30
0.0
 11
94.926417776823087
 21
98.738133786098402
 31
0.0
  0
LINE
  5
B9
  8
0
 10
95.563349511804859
 20
98.938847364924882
 30
0.0
 11
95.449949865572748
 21
98.280737574702371
 31
0.0
  0
LINE
  5
BA
  8
0
 10
96.853007691889161
 20
97.589970660295265
 30
0.0
 11
96.190472918544074
 21
97.506211184051509
 31
0.0
  0
LINE
  5
BB
  8
0
 10
96.853007691889161
 20
97.589970660295265
 30
0.0
 11
96.623920384046073
 21
96.962685253851546
 31
0.0
  0
LINE
  5
BC
  8
0
 10
97.402021682980603
 20
96.834317728871525
 30
0.0
 11
96.734645938286235
 21
96.810284602861344
 31
0.0
  0
LINE
  5
BD
  8
0
 10
97.402021682980603
 20
96.834317728871525
 30
0.0
 11
97.117627182969386
 21
96.230092817008654
 31
0.0
  0
LINE
  5
BE
  8
0
 10
97.881089298607534
 20
96.032493599251453
 30
0.0
 11
97.214245899649711
 21
96.068380324074283
 31
0.0
  0
LINE
  5
BF
  8
0
 10
97.881089298607534
 20
96.032493599251453
 30
0.0
 11
97.543677383721217
 21
95.456194045681485
 31
0.0
  0
LINE
  5
C0
  8
0
 10
98.286353368016421
 20
95.190954087861897
 30
0.0
 11
97.625411345745931
 21
95.286471724710594
 31
0.0
  0
ARC
  5
C2
  8
2
 10
88.714554766419724
 20
65.580598367067836
 30
0.0
 40
21.303125000000051
 50
270.0
 51
292.34767648362941
  0
ARC
  5
C5
  8
0
 10
80.214554766419724
 20
41.412127343025617
 30
0.0
 40
2.0
 50
180.0
 51
255.0000000000002
  0
LINE
  5
C6
  8
0
 10
79.696916676214755
 20
39.480275690447492
 30
0.0
 11
81.78194255873666
 21
38.921594689027728
 31
0.0
  0
LINE
  5
C7
  8
0
 10
78.714554766419724
 20
45.877473367067608
 30
0.0
 11
78.214554766419781
 21
45.377473367067658
 31
0.0
  0
LINE
  5
C8
  8
0
 10
78.214554766419781
 20
45.377473367067658
 30
0.0
 11
78.214554766419781
 21
41.412127343025617
 31
0.0
  0
LINE
  5
C9
  8
0
 10
78.914554766419769
 20
45.877473367067608
 30
0.0
 11
78.914554766419769
 21
43.377473367067608
 31
0.0
  0
LINE
  5
CA
  8
0
 10
79.644554766419787
 20
45.877473367067608
 30
0.0
 11
79.644554766419787
 21
43.377473367067608
 31
0.0
  0
LINE
  5
CB
  8
0
 10
80.414554766419755
 20
45.877473367067608
 30
0.0
 11
80.414554766419755
 21
43.377473367067608
 31
0.0
  0
LINE
  5
CC
  8
0
 10
81.214554766419724
 20
45.877473367067608
 30
0.0
 11
81.214554766419724
 21
43.377473367067608
 31
0.0
  0
LINE
  5
CD
  8
0
 10
82.044554766419708
 20
45.877473367067608
 30
0.0
 11
82.044554766419708
 21
43.377473367067608
 31
0.0
  0
LINE
  5
D0
  8
0
 10
82.92455476641976
 20
45.877473367067608
 30
0.0
 11
82.92455476641976
 21
43.377473367067608
 31
0.0
  0
LINE
  5
D1
  8
0
 10
83.844554766419719
 20
45.877473367067608
 30
0.0
 11
83.844554766419719
 21
43.377473367067608
 31
0.0
  0
LINE
  5
D2
  8
0
 10
84.794554766419708
 20
45.877473367067608
 30
0.0
 11
84.794554766419708
 21
43.377473367067608
 31
0.0
  0
LINE
  5
D3
  8
0
 10
85.784554766419774
 20
45.877473367067608
 30
0.0
 11
85.784554766419774
 21
43.377473367067608
 31
0.0
  0
LINE
  5
D4
  8
0
 10
86.794554766419765
 20
45.877473367067608
 30
0.0
 11
86.794554766419765
 21
43.377473367067608
 31
0.0
  0
LINE
  5
D5
  8
0
 10
87.854554766419767
 20
45.877473367067608
 30
0.0
 11
87.854554766419767
 21
43.377473367067608
 31
0.0
  0
LINE
  5
D6
  8
0
 10
98.714554766419724
 20
45.877473367067608
 30
0.0
 11
78.714554766419724
 21
45.877473367067608
 31
0.0
  0
LINE
  5
D7
  8
0
 10
99.214554766419795
 20
45.377473367067658
 30
0.0
 11
99.214554766419795
 21
41.412127343025617
 31
0.0
  0
LINE
  5
D8
  8
0
 10
98.714554766419724
 20
45.877473367067608
 30
0.0
 11
99.214554766419795
 21
45.377473367067658
 31
0.0
  0
ARC
  5
D9
  8
0
 10
81.574887322654661
 20
38.148854027996407
 30
0.0
 40
0.8000000000000002
 50
0.4999999999998545
 51
75.000000000000938
  0
ARC
  5
DA
  8
0
 10
97.214554766419724
 20
41.412127343025617
 30
0.0
 40
2.0
 50
284.99999999999977
 51
0.0
  0
LINE
  5
DB
  8
0
 10
94.964554766419724
 20
27.877473367067669
 30
0.0
 11
95.054252671733494
 21
38.155835256395193
 31
0.0
  0
ARC
  5
DC
  8
0
 10
95.854222210184787
 20
38.148854027996407
 30
0.0
 40
0.8000000000000002
 50
104.99999999999901
 51
179.50000000000011
  0
LINE
  5
DD
  8
0
 10
97.732192856624749
 20
39.480275690447492
 30
0.0
 11
95.647166974102788
 21
38.921594689027728
 31
0.0
  0
LINE
  5
DF
  8
2
 10
92.214554766419724
 20
27.877473367067669
 30
0.0
 11
92.214554766419724
 21
39.877473367067722
 31
0.0
  0
LINE
  5
E1
  8
2
 10
91.214554766419724
 20
40.877473367067608
 30
0.0
 11
92.214554766419724
 21
39.877473367067722
 31
0.0
  0
LINE
  5
E2
  8
2
 10
91.21455476641971
 20
27.67747336706767
 30
0.0
 11
91.21455476641971
 21
37.877473367067672
 31
0.0
  0
LINE
  5
E5
  8
2
 10
90.781554766419916
 20
27.677473367067659
 30
0.0
 11
90.781554766419916
 21
38.861693298914389
 31
0.0
  0
LINE
  5
E7
  8
2
 10
90.781554766419916
 20
38.861693298914389
 30
0.0
 11
88.714554766419724
 21
40.055076305329358
 31
0.0
  0
LINE
  5
E8
  8
3
 10
82.207438981649716
 20
38.638627852023973
 30
0.0
 11
95.221670551189717
 21
38.638627852023973
 31
0.0
  0
CIRCLE
  5
E9
  8
0
 10
88.714554766419724
 20
91.099771025561338
 30
0.0
 40
0.7500000000000001
  0
CIRCLE
  5
EA
  8
0
 10
91.214554766419724
 20
91.099771025561338
 30
0.0
 40
0.7500000000000001
  0
CIRCLE
  5
EB
  8
0
 10
93.714554766419724
 20
91.099771025561338
 30
0.0
 40
0.7500000000000001
  0
CIRCLE
  5
EC
  8
0
 10
86.214554766419724
 20
91.099771025561338
 30
0.0
 40
0.7500000000000001
  0
CIRCLE
  5
ED
  8
0
 10
83.714554766419724
 20
91.099771025561338
 30
0.0
 40
0.7500000000000001
  0
LINE
  5
EE
  8
0
 10
78.214554766419795
 20
43.377473367067601
 30
0.0
 11
99.214554766419795
 21
43.377473367067608
 31
0.0
  0
LINE
  5
EF
  8
0
 10
97.784554766419774
 20
45.877473367067608
 30
0.0
 11
97.784554766419774
 21
43.377473367067608
 31
0.0
  0
LINE
  5
F0
  8
0
 10
97.014554766419806
 20
45.877473367067608
 30
0.0
 11
97.014554766419806
 21
43.377473367067608
 31
0.0
  0
LINE
  5
F1
  8
0
 10
96.214554766419724
 20
45.877473367067608
 30
0.0
 11
96.214554766419724
 21
43.377473367067608
 31
0.0
  0
LINE
  5
F2
  8
0
 10
95.38455476641974
 20
45.877473367067608
 30
0.0
 11
95.38455476641974
 21
43.377473367067608
 31
0.0
  0
LINE
  5
F3
  8
0
 10
98.514554766419806
 20
45.877473367067608
 30
0.0
 11
98.514554766419806
 21
43.377473367067608
 31
0.0
  0
LINE
  5
F4
  8
0
 10
92.634554766419797
 20
45.877473367067608
 30
0.0
 11
92.634554766419797
 21
43.377473367067608
 31
0.0
  0
LINE
  5
F5
  8
0
 10
91.644554766419745
 20
45.877473367067608
 30
0.0
 11
91.644554766419745
 21
43.377473367067608
 31
0.0
  0
LINE
  5
F6
  8
0
 10
90.634554766419754
 20
45.877473367067608
 30
0.0
 11
90.634554766419754
 21
43.377473367067608
 31
0.0
  0
LINE
  5
F7
  8
0
 10
94.504554766419744
 20
45.877473367067608
 30
0.0
 11
94.504554766419744
 21
43.377473367067608
 31
0.0
  0
LINE
  5
F8
  8
0
 10
93.584554766419728
 20
45.877473367067608
 30
0.0
 11
93.584554766419728
 21
43.377473367067608
 31
0.0
  0
LINE
  5
F9
  8
0
 10
89.574554766419794
 20
45.877473367067608
 30
0.0
 11
89.574554766419794
 21
43.377473367067608
 31
0.0
  0
LINE
  5
FA
  8
2
 10
85.214554766419724
 20
27.877473367067669
 30
0.0
 11
85.214554766419724
 21
39.877473367067722
 31
0.0
  0
LINE
  5
FC
  8
2
 10
86.214554766419724
 20
27.677473367067659
 30
0.0
 11
86.214554766419724
 21
37.877473367067672
 31
0.0
  0
LINE
  5
FD
  8
2
 10
86.214554766419724
 20
40.877473367067608
 30
0.0
 11
85.214554766419724
 21
39.877473367067722
 31
0.0
  0
LINE
  5
FE
  8
2
 10
86.647554766419503
 20
38.861693298914389
 30
0.0
 11
88.71455476641971
 21
40.055076305329401
 31
0.0
  0
LINE
  5
FF
  8
2
 10
86.647554766419503
 20
38.861693298914389
 30
0.0
 11
90.781554766419916
 21
38.861693298914389
 31
0.0
  0
LINE
  5
100
  8
2
 10
86.647554766419503
 20
27.677473367067659
 30
0.0
 11
86.647554766419503
 21
38.861693298914389
 31
0.0
  0
LINE
  5
101
  8
2
 10
86.214554766419738
 20
37.877473367067658
 30
0.0
 11
91.214554766419695
 21
37.877473367067672
 31
0.0
  0
LINE
  5
102
  8
2
 10
86.214554766419724
 20
40.877473367067608
 30
0.0
 11
91.214554766419724
 21
40.877473367067608
 31
0.0
  0
ARC
  5
103
  8
2
 10
88.714554766419724
 20
65.580598367067836
 30
0.0
 40
21.303125000000051
 50
247.65232351637059
 51
270.0
  0
TEXT
  5
2CA
  8
0
 62
     3
 10
0.0
 20
0.0
 30
0.0
 40
10.0
  1
VD-EKK21A
  7
STANDARD1
  0
ENDSEC
  0
EOF
