  0
SECTION
  2
HEADER
  9
$ACADVER
  1
AC1009
  9
$INSBASE
 10
0.0
 20
0.0
 30
0.0
  9
$EXTMIN
 10
0.0
 20
-2.960436562073669
 30
0.0
  9
$EXTMAX
 10
362.24658785970269
 20
391.96577417551168
 30
0.0
  9
$LIMMIN
 10
0.0
 20
0.0
  9
$LIMMAX
 10
750.0
 20
540.0
  9
$ORTHOMODE
 70
     0
  9
$REGENMODE
 70
     1
  9
$FILLMODE
 70
     1
  9
$QTEXTMODE
 70
     0
  9
$MIRRTEXT
 70
     1
  9
$DRAGMODE
 70
     2
  9
$LTSCALE
 40
10.0
  9
$OSMODE
 70
    37
  9
$ATTMODE
 70
     1
  9
$TEXTSIZE
 40
0.2
  9
$TRACEWID
 40
0.05
  9
$TEXTSTYLE
  7
STANDARD
  9
$CLAYER
  8
0
  9
$CELTYPE
  6
BYLAYER
  9
$CECOLOR
 62
   256
  9
$DIMSCALE
 40
2.0
  9
$DIMASZ
 40
3.0
  9
$DIMEXO
 40
2.0
  9
$DIMDLI
 40
0.3799999999999999
  9
$DIMRND
 40
0.0
  9
$DIMDLE
 40
0.0
  9
$DIMEXE
 40
2.0
  9
$DIMTP
 40
0.0
  9
$DIMTM
 40
0.0
  9
$DIMTXT
 40
3.0
  9
$DIMCEN
 40
0.09
  9
$DIMTSZ
 40
0.0
  9
$DIMTOL
 70
     0
  9
$DIMLIM
 70
     0
  9
$DIMTIH
 70
     0
  9
$DIMTOH
 70
     0
  9
$DIMSE1
 70
     0
  9
$DIMSE2
 70
     0
  9
$DIMTAD
 70
     1
  9
$DIMZIN
 70
     8
  9
$DIMBLK
  1

  9
$DIMASO
 70
     0
  9
$DIMSHO
 70
     0
  9
$DIMPOST
  1

  9
$DIMAPOST
  1

  9
$DIMALT
 70
     0
  9
$DIMALTD
 70
     2
  9
$DIMALTF
 40
25.399999999999999
  9
$DIMLFAC
 40
1.0
  9
$DIMTOFL
 70
     0
  9
$DIMTVP
 40
1.6000000000000001
  9
$DIMTIX
 70
     1
  9
$DIMSOXD
 70
     0
  9
$DIMSAH
 70
     0
  9
$DIMBLK1
  1

  9
$DIMBLK2
  1

  9
$DIMSTYLE
  2
STANDARD
  9
$DIMCLRD
 70
     0
  9
$DIMCLRE
 70
     0
  9
$DIMCLRT
 70
     0
  9
$DIMTFAC
 40
1.0
  9
$DIMGAP
 40
0.09
  9
$LUNITS
 70
     2
  9
$LUPREC
 70
     4
  9
$SKETCHINC
 40
0.1
  9
$FILLETRAD
 40
10.0
  9
$AUNITS
 70
     0
  9
$AUPREC
 70
     0
  9
$MENU
  1
E:\r13\win\SUPPORT\ACAD
  9
$ELEVATION
 40
0.0
  9
$PELEVATION
 40
0.0
  9
$THICKNESS
 40
0.0
  9
$LIMCHECK
 70
     0
  9
$BLIPMODE
 70
     0
  9
$CHAMFERA
 40
0.0
  9
$CHAMFERB
 40
0.0
  9
$SKPOLY
 70
     0
  9
$TDCREATE
 40
2449840.5967939808
  9
$TDUPDATE
 40
2456776.7140368172
  9
$TDINDWG
 40
0.0308704051
  9
$TDUSRTIMER
 40
0.0308704051
  9
$USRTIMER
 70
     1
  9
$ANGBASE
 50
0.0
  9
$ANGDIR
 70
     0
  9
$PDMODE
 70
     0
  9
$PDSIZE
 40
0.0
  9
$PLINEWID
 40
0.0
  9
$COORDS
 70
     1
  9
$SPLFRAME
 70
     0
  9
$SPLINETYPE
 70
     6
  9
$SPLINESEGS
 70
     8
  9
$ATTDIA
 70
     0
  9
$ATTREQ
 70
     1
  9
$HANDLING
 70
     1
  9
$HANDSEED
  5
12E5
  9
$SURFTAB1
 70
     6
  9
$SURFTAB2
 70
     6
  9
$SURFTYPE
 70
     6
  9
$SURFU
 70
     6
  9
$SURFV
 70
     6
  9
$UCSNAME
  2

  9
$UCSORG
 10
0.0
 20
0.0
 30
0.0
  9
$UCSXDIR
 10
1.0
 20
0.0
 30
0.0
  9
$UCSYDIR
 10
0.0
 20
1.0
 30
0.0
  9
$PUCSNAME
  2

  9
$PUCSORG
 10
0.0
 20
0.0
 30
0.0
  9
$PUCSXDIR
 10
1.0
 20
0.0
 30
0.0
  9
$PUCSYDIR
 10
0.0
 20
1.0
 30
0.0
  9
$USERI1
 70
     0
  9
$USERI2
 70
     1
  9
$USERI3
 70
     1
  9
$USERI4
 70
     0
  9
$USERI5
 70
     0
  9
$USERR1
 40
0.0
  9
$USERR2
 40
0.0
  9
$USERR3
 40
0.0
  9
$USERR4
 40
0.0
  9
$USERR5
 40
0.0
  9
$WORLDVIEW
 70
     1
  9
$SHADEDGE
 70
     3
  9
$SHADEDIF
 70
    70
  9
$TILEMODE
 70
     1
  9
$MAXACTVP
 70
    16
  9
$PLIMCHECK
 70
     0
  9
$PEXTMIN
 10
1.0000000000000000E+020
 20
1.0000000000000000E+020
 30
1.0000000000000000E+020
  9
$PEXTMAX
 10
-1.0000000000000000E+020
 20
-1.0000000000000000E+020
 30
-1.0000000000000000E+020
  9
$PLIMMIN
 10
0.0
 20
0.0
  9
$PLIMMAX
 10
12.0
 20
9.0
  9
$UNITMODE
 70
     0
  9
$VISRETAIN
 70
     0
  9
$PLINEGEN
 70
     0
  9
$PSLTSCALE
 70
     0
  0
ENDSEC
  0
SECTION
  2
TABLES
  0
TABLE
  2
VPORT
 70
     1
  0
VPORT
  2
*ACTIVE
 70
     0
 10
0.0
 20
0.0
 11
1.0
 21
1.0
 12
557.55118267606565
 22
268.5127508573367
 13
0.0
 23
0.0
 14
20.0
 24
20.0
 15
20.0
 25
20.0
 16
0.0
 26
0.0
 36
1.0
 17
0.0
 27
0.0
 37
0.0
 40
547.7514000297723
 41
2.6019575856443709
 42
50.0
 43
0.0
 44
0.0
 50
0.0
 51
0.0
 71
     0
 72
   500
 73
     1
 74
     1
 75
     0
 76
     0
 77
     0
 78
     2
  0
ENDTAB
  0
TABLE
  2
LTYPE
 70
     4
  0
LTYPE
  2
CONTINUOUS
 70
     0
  3
実線
 72
    65
 73
     0
 40
0.0
  0
LTYPE
  2
CENTER
 70
     0
  3
____ _ ____ _ ____ _ ____ _ ____ _ ____ _ ____
 72
    65
 73
     4
 40
2.0
 49
1.25
 49
-0.25
 49
0.25
 49
-0.25
  0
LTYPE
  2
HIDDEN
 70
     0
  3
_ _ _ _ _ _ _ _ _ _ _ _ _ _ _ _ _ _ _ _ _ _ _
 72
    65
 73
     2
 40
0.375
 49
0.25
 49
-0.125
  0
LTYPE
  2
PHANTOM2
 70
     0
  3
___ _ _ ___ _ _ ___ _ _ ___ _ _
 72
    65
 73
     6
 40
1.25
 49
0.625
 49
-0.125
 49
0.125
 49
-0.125
 49
0.125
 49
-0.125
  0
ENDTAB
  0
TABLE
  2
LAYER
 70
     6
  0
LAYER
  2
0
 70
     0
 62
     7
  6
CONTINUOUS
  0
LAYER
  2
1
 70
     0
 62
     1
  6
CENTER
  0
LAYER
  2
2
 70
     0
 62
     2
  6
HIDDEN
  0
LAYER
  2
DEFPOINTS
 70
     0
 62
     7
  6
CONTINUOUS
  0
LAYER
  2
4
 70
     0
 62
     4
  6
CONTINUOUS
  0
LAYER
  2
3
 70
     0
 62
     3
  6
CONTINUOUS
  0
ENDTAB
  0
TABLE
  2
STYLE
 70
     2
  0
STYLE
  2
STANDARD
 70
     0
 40
0.0
 41
1.0
 50
0.0
 71
     0
 42
0.2
  3
C:/r13/com/fonts/Romans
  4
C:/r13/com/fonts/Extfont
  0
STYLE
  2
STANDARD1
 70
     0
 40
0.0
 41
1.0
 50
0.0
 71
     0
 42
3.0
  3
txt
  4

  0
ENDTAB
  0
TABLE
  2
VIEW
 70
     1
  0
VIEW
  2
ALL
 70
     0
 40
540.0
 10
441.98319327731087
 20
270.0
 41
0.0
 11
0.0
 21
0.0
 31
1.0
 12
0.0
 22
0.0
 32
0.0
 42
0.0
 43
0.0
 44
0.0
 50
0.0
 71
     0
  0
ENDTAB
  0
TABLE
  2
UCS
 70
     0
  0
ENDTAB
  0
TABLE
  2
APPID
 70
     4
  0
APPID
  2
ACAD
 70
     0
  0
APPID
  2
ACAD_MLEADERVER
 70
     0
  0
APPID
  2
ACAD_EXEMPT_FROM_CAD_STANDARDS
 70
     0
  0
APPID
  2
ACAD_NAV_VCDISPLAY
 70
     0
  0
ENDTAB
  0
TABLE
  2
DIMSTYLE
 70
     1
  0
DIMSTYLE
  2
STANDARD
 70
     0
  3

  4

  5

  6

  7

 40
1.0
 41
0.18
 42
0.0625
 43
0.38
 44
0.18
 45
0.0
 46
0.0
 47
0.0
 48
0.0
140
0.18
141
0.09
142
0.0
143
25.399999999999999
144
1.0
145
0.0
146
1.0
147
0.09
 71
     0
 72
     0
 73
     1
 74
     1
 75
     0
 76
     0
 77
     0
 78
     0
170
     0
171
     2
172
     0
173
     0
174
     0
175
     0
176
     0
177
     0
178
     0
  0
ENDTAB
  0
ENDSEC
  0
SECTION
  2
BLOCKS
  0
BLOCK
  8
0
  2
$MODEL_SPACE
 70
     0
 10
0.0
 20
0.0
 30
0.0
  3
$MODEL_SPACE
  1

  0
ENDBLK
  5
215
  8
0
  0
BLOCK
 67
     1
  8
0
  2
$PAPER_SPACE
 70
     0
 10
0.0
 20
0.0
 30
0.0
  3
$PAPER_SPACE
  1

  0
ENDBLK
  5
213
 67
     1
  8
0
  0
ENDSEC
  0
SECTION
  2
ENTITIES
  0
LINE
  5
86A
  8
1
 10
262.24658785970217
 20
231.9657741755114
 30
0.0
 11
142.2465878597022
 21
231.9657741755114
 31
0.0
  0
LINE
  5
86B
  8
1
 10
202.2465878597022
 20
171.9657741755114
 30
0.0
 11
202.2465878597022
 21
291.96577417551129
 31
0.0
  0
LINE
  5
86C
  8
1
 10
312.24658785970217
 20
231.9657741755114
 30
0.0
 11
362.24658785970269
 21
231.9657741755114
 31
0.0
  0
LINE
  5
86D
  8
1
 10
202.2465878597022
 20
231.9657741755114
 30
0.0
 11
150.28506363263591
 21
201.96577417551131
 31
0.0
  0
LINE
  5
86E
  8
1
 10
202.2465878597022
 20
231.9657741755114
 30
0.0
 11
254.20811208676861
 21
201.9657741755114
 31
0.0
  0
LINE
  5
870
  8
1
 10
324.74658785970269
 20
171.9657741755114
 30
0.0
 11
324.74658785970269
 21
291.96577417551129
 31
0.0
  0
LINE
  5
871
  8
1
 10
211.4965878597022
 20
271.96577417551129
 30
0.0
 11
192.9965878597022
 21
271.96577417551129
 31
0.0
  0
CIRCLE
  5
874
  8
0
 10
202.2465878597022
 20
231.9657741755114
 30
0.0
 40
50.0
  0
ARC
  5
875
  8
0
 10
202.2465878597022
 20
231.9657741755114
 30
0.0
 40
34.999999999999993
 50
355.56971585336572
 51
64.430284146630314
  0
ARC
  5
876
  8
0
 10
202.2465878597022
 20
231.9657741755114
 30
0.0
 40
42.499999999999993
 50
105.2071049466911
 51
74.79289505330884
  0
ARC
  5
877
  8
0
 10
202.2465878597022
 20
231.9657741755114
 30
0.0
 40
17.0
 50
128.89089562066991
 51
171.1090586999928
  0
LINE
  5
878
  8
0
 10
193.41532476572499
 20
248.65617560294859
 30
0.0
 11
194.27951213399089
 21
258.59445067331791
 31
0.0
  0
LINE
  5
879
  8
0
 10
210.21365589960081
 20
258.59444437326778
 30
0.0
 11
211.0778655107751
 21
248.65615418025999
 31
0.0
  0
LINE
  5
87A
  8
0
 10
212.28526794823441
 20
215.9724752749043
 30
0.0
 11
221.32416031310461
 21
211.75174595426779
 31
0.0
  0
LINE
  5
87B
  8
0
 10
229.29122673990599
 20
225.5511223928643
 30
0.0
 11
221.1165197681666
 21
231.26869496683989
 31
0.0
  0
LINE
  5
87C
  8
0
 10
192.2079077711698
 20
215.9724752749043
 30
0.0
 11
183.16901540629991
 21
211.75174595426779
 31
0.0
  0
LINE
  5
87D
  8
0
 10
175.20194897949841
 20
225.5511223928643
 30
0.0
 11
183.3766559512373
 21
231.2686949668396
 31
0.0
  0
ARC
  5
87E
  8
0
 10
202.2465878597022
 20
271.96577417551129
 30
0.0
 40
7.0
 50
193.0203798447094
 51
346.9796201552906
  0
ARC
  5
87F
  8
0
 10
202.2465878597022
 20
231.9657741755114
 30
0.0
 40
34.999999999999993
 50
235.5697340425674
 51
304.4302659574326
  0
ARC
  5
880
  8
0
 10
202.2465878597022
 20
231.9657741755114
 30
0.0
 40
34.999999999999993
 50
115.5697340425663
 51
184.43028414663431
  0
ARC
  5
881
  8
0
 10
202.2465878597022
 20
231.9657741755114
 30
0.0
 40
17.0
 50
8.8909413000072437
 51
51.109058699989092
  0
ARC
  5
882
  8
0
 10
202.2465878597022
 20
231.9657741755114
 30
0.0
 40
17.0
 50
248.89089562067119
 51
291.10910437932881
  0
ARC
  5
883
  8
0
 10
212.47663274520369
 20
269.60014917551138
 30
0.0
 40
3.5
 50
74.79289505330884
 51
166.97962015529049
  0
ARC
  5
884
  8
0
 10
192.0165429742008
 20
269.60014917551138
 30
0.0
 40
3.5
 50
13.020379844709449
 51
105.2071049466911
  0
ARC
  5
885
  8
0
 10
216.0590679991146
 20
249.0893074673977
 30
0.0
 40
5.0
 50
184.9698006017002
 51
231.10905869998911
  0
ARC
  5
886
  8
0
 10
223.98224276273049
 20
235.3659662195675
 30
0.0
 40
5.0
 50
188.8909413000072
 51
235.03019939830341
  0
ARC
  5
887
  8
0
 10
232.15694973446989
 20
229.64839364559211
 30
0.0
 40
5.0
 50
235.03019939830341
 51
355.56971585336572
  0
ARC
  5
888
  8
0
 10
215.19485838794051
 20
259.02759766040532
 30
0.0
 40
5.0
 50
64.430284146630314
 51
184.9698006017002
  0
ARC
  5
889
  8
0
 10
189.2983087403793
 20
259.02759354982749
 30
0.0
 40
5.0
 50
355.0303191454887
 51
115.5697340425663
  0
ARC
  5
88A
  8
0
 10
188.4341213721132
 20
249.0893184794582
 30
0.0
 40
5.0
 50
308.89089562066999
 51
355.0303191454887
  0
ARC
  5
88B
  8
0
 10
180.51093295667371
 20
235.36596621956741
 30
0.0
 40
5.0
 50
304.96980060169659
 51
351.10905869999272
  0
ARC
  5
88C
  8
0
 10
172.33622598493449
 20
229.64839364559199
 30
0.0
 40
5.0
 50
184.43028414663431
 51
304.96980060169659
  0
ARC
  5
88D
  8
0
 10
185.2845043685802
 20
207.22132583572801
 30
0.0
 40
5.0
 50
115.0303191454862
 51
235.5697340425674
  0
ARC
  5
88E
  8
0
 10
194.3233967334501
 20
211.4420551563644
 30
0.0
 40
5.0
 50
68.890895620671202
 51
115.0303191454862
  0
ARC
  5
88F
  8
0
 10
210.16977898595411
 20
211.4420551563644
 30
0.0
 40
5.0
 50
64.969680854513797
 51
111.1091043793288
  0
ARC
  5
890
  8
0
 10
219.2086713508242
 20
207.22132583572809
 30
0.0
 40
5.0
 50
304.4302659574326
 51
64.969680854513797
  0
LINE
  5
892
  8
0
 10
357.24658785970269
 20
245.9657741755114
 30
0.0
 11
357.24658785970269
 21
217.9657741755114
 31
0.0
  0
ARC
  5
893
  8
0
 10
324.74658785970269
 20
274.46577417551129
 30
0.0
 40
7.5000000000000417
 50
0.0
 51
180.0
  0
LINE
  5
894
  8
0
 10
317.24658785970229
 20
189.4657741755114
 30
0.0
 11
317.24658785970229
 21
274.46577417551129
 31
0.0
  0
LINE
  5
897
  8
0
 10
356.24658785970269
 20
216.9657741755114
 30
0.0
 11
348.24658785970269
 21
216.9657741755114
 31
0.0
  0
LINE
  5
898
  8
0
 10
356.24658785970269
 20
246.9657741755114
 30
0.0
 11
348.24658785970269
 21
246.96577417551131
 31
0.0
  0
LINE
  5
899
  8
0
 10
348.24658785970269
 20
246.96577417551089
 30
0.0
 11
348.24658785970269
 21
216.9657741755114
 31
0.0
  0
CIRCLE
  5
89A
  8
0
 10
202.2465878597022
 20
231.9657741755114
 30
0.0
 40
15.25614630239283
  0
LINE
  5
89D
  8
0
 10
332.24658785970308
 20
274.46577417551129
 30
0.0
 11
332.24658785970308
 21
189.4657741755114
 31
0.0
  0
LINE
  5
89F
  8
0
 10
348.24658785970269
 20
216.9657741755114
 30
0.0
 11
347.66923759051338
 21
215.9657741755116
 31
0.0
  0
LINE
  5
8A0
  8
0
 10
347.66923759051338
 20
215.9657741755116
 30
0.0
 11
347.66923759051338
 21
247.9657741755108
 31
0.0
  0
LINE
  5
8A1
  8
0
 10
348.24658785970269
 20
246.96577417551131
 30
0.0
 11
347.66923759051338
 21
247.96577417551109
 31
0.0
  0
LINE
  5
8A2
  8
0
 10
344.64220749718851
 20
247.96577417551109
 30
0.0
 11
347.66923759051338
 21
247.96577417551109
 31
0.0
  0
ARC
  5
8A6
  8
0
 10
356.24658785970269
 20
245.9657741755114
 30
0.0
 40
1.0
 50
0.0
 51
90.0
  0
ARC
  5
8AC
  8
0
 10
324.74658785970269
 20
189.4657741755114
 30
0.0
 40
7.5000000000000417
 50
180.0
 51
0.0
  0
ARC
  5
94D
  8
0
 10
356.24658785970269
 20
217.9657741755114
 30
0.0
 40
1.0
 50
270.0
 51
0.0
  0
POINT
  5
9DB
  8
4
 10
349.24658785970269
 20
216.9657741755114
 30
0.0
  0
ARC
  5
9F1
  8
2
 10
338.74658785970269
 20
231.9657741755114
 30
0.0
 40
17.0
 50
70.250077204357325
 51
112.16212375419239
  0
LINE
  5
9F3
  8
0
 10
332.24658785970308
 20
252.29910750884429
 30
0.0
 11
332.3257095951364
 21
252.1818901230171
 31
0.0
  0
LINE
  5
9F4
  8
0
 10
333.7216520955763
 20
261.75878902258239
 30
0.0
 11
342.12552448734027
 21
250.16724089601161
 31
0.0
  0
ARC
  5
9F6
  8
0
 10
344.24658785970342
 20
269.38936745157451
 30
0.0
 40
13.0
 50
202.61986494803821
 51
215.94211187138339
  0
ARC
  5
9F7
  8
0
 10
329.42473923587181
 20
250.2237351305134
 30
0.0
 40
3.5
 50
330.60128330146898
 51
34.019349989824029
  0
ARC
  5
9F8
  8
0
 10
348.1976028127981
 20
254.5694976819687
 30
0.0
 40
7.5
 50
215.94211187138339
 51
241.70231010511591
  0
ARC
  5
9FA
  8
2
 10
338.74658785970269
 20
231.9657741755114
 30
0.0
 40
17.0
 50
247.83787624580751
 51
269.76891261834851
  0
LINE
  5
9FF
  8
0
 10
344.49115050624169
 20
215.9657741755116
 30
0.0
 11
347.66923759051338
 21
215.9657741755116
 31
0.0
  0
LINE
  5
A36
  8
0
 10
332.24658785970308
 20
247.2157741755114
 30
0.0
 11
332.4740260571636
 21
248.50564028985559
 31
0.0
  0
LINE
  5
CF3
  8
0
 10
186.9965878597022
 20
361.96577417551219
 30
0.0
 11
185.70672174535821
 21
362.19321237297271
 31
0.0
  0
LINE
  5
CF4
  8
0
 10
217.4965878597022
 20
361.96577417551219
 30
0.0
 11
218.78645397404671
 21
362.19321237297271
 31
0.0
  0
ARC
  5
CF5
  8
0
 10
224.8503113661595
 20
377.91678912860721
 30
0.0
 40
7.5
 50
208.29768989488409
 51
234.05788812861661
  0
LINE
  5
CF6
  8
0
 10
218.2465878597022
 20
374.21033682205069
 30
0.0
 11
218.2465878597022
 21
377.38842390632249
 31
0.0
  0
LINE
  5
CF7
  8
0
 10
234.0741740665986
 20
361.96577417551219
 30
0.0
 11
220.44805458020261
 21
371.84471080314933
 31
0.0
  0
ARC
  5
CF8
  8
0
 10
220.50454881470429
 20
359.14392555168092
 30
0.0
 40
3.5
 50
55.980650010175992
 51
119.398716698531
  0
ARC
  5
CF9
  8
0
 10
202.2465878597022
 20
368.46577417551168
 30
0.0
 40
17.0
 50
337.83787624580748
 51
19.749922795642661
  0
ARC
  5
CFA
  8
0
 10
179.6428643532449
 20
377.91678912860721
 30
0.0
 40
7.5
 50
305.94211187138342
 51
331.70231010511588
  0
ARC
  5
CFB
  8
0
 10
183.98862690470011
 20
359.14392555168092
 30
0.0
 40
3.5
 50
60.601283301468968
 51
124.01934998982399
  0
ARC
  5
CFC
  8
0
 10
164.8229945836392
 20
373.96577417551242
 30
0.0
 40
13.0
 50
292.61986494803818
 51
305.94211187138342
  0
LINE
  5
CFD
  8
0
 10
172.4535730126313
 20
363.4408384113853
 30
0.0
 11
184.04512113920211
 21
371.84471080314933
 31
0.0
  0
LINE
  5
CFE
  8
0
 10
181.9132545263694
 20
361.96577417551219
 30
0.0
 11
182.03047191219659
 21
362.04489591094551
 31
0.0
  0
ARC
  5
CFF
  8
0
 10
202.2465878597022
 20
368.46577417551168
 30
0.0
 40
17.0
 50
160.2500772043573
 51
202.16212375419249
  0
POINT
  5
D00
  8
4
 10
217.24658785970229
 20
378.96577417551168
 30
0.0
  0
ARC
  5
D03
  8
0
 10
216.2465878597022
 20
385.9657741755118
 30
0.0
 40
1.0
 50
0.0
 51
90.0
  0
ARC
  5
D04
  8
0
 10
244.7465878597022
 20
354.46577417551168
 30
0.0
 40
7.5000000000000417
 50
270.0
 51
90.0
  0
ARC
  5
D05
  8
0
 10
188.2465878597022
 20
385.9657741755118
 30
0.0
 40
1.0
 50
90.0
 51
180.0
  0
LINE
  5
D07
  8
0
 10
186.24658785970269
 20
374.21033682205069
 30
0.0
 11
186.24658785970269
 21
377.38842390632249
 31
0.0
  0
LINE
  5
D08
  8
0
 10
187.2465878597024
 20
377.9657741755118
 30
0.0
 11
186.24658785970269
 21
377.38842390632249
 31
0.0
  0
LINE
  5
D09
  8
0
 10
218.2465878597022
 20
377.38842390632249
 30
0.0
 11
186.24658785970291
 21
377.38842390632249
 31
0.0
  0
LINE
  5
D0A
  8
0
 10
217.24658785970229
 20
377.9657741755118
 30
0.0
 11
218.2465878597022
 21
377.38842390632249
 31
0.0
  0
LINE
  5
D0B
  8
0
 10
159.7465878597024
 20
361.96577417551219
 30
0.0
 11
244.7465878597022
 21
361.96577417551219
 31
0.0
  0
LINE
  5
D0C
  8
0
 10
187.24658785970269
 20
377.9657741755118
 30
0.0
 11
217.24658785970229
 21
377.9657741755118
 31
0.0
  0
LINE
  5
D0D
  8
0
 10
187.2465878597022
 20
385.9657741755118
 30
0.0
 11
187.2465878597024
 21
377.9657741755118
 31
0.0
  0
LINE
  5
D0E
  8
0
 10
217.24658785970229
 20
385.9657741755118
 30
0.0
 11
217.24658785970229
 21
377.9657741755118
 31
0.0
  0
LINE
  5
D0F
  8
0
 10
244.7465878597022
 20
346.96577417551129
 30
0.0
 11
159.7465878597024
 21
346.96577417551129
 31
0.0
  0
ARC
  5
D10
  8
0
 10
159.7465878597022
 20
354.46577417551168
 30
0.0
 40
7.5000000000000417
 50
90.0
 51
270.0
  0
LINE
  5
D11
  8
0
 10
188.2465878597022
 20
386.96577417551168
 30
0.0
 11
216.2465878597022
 21
386.96577417551168
 31
0.0
  0
LINE
  5
D12
  8
1
 10
262.24658785970217
 20
354.46577417551168
 30
0.0
 11
142.2465878597022
 21
354.46577417551168
 31
0.0
  0
LINE
  5
D13
  8
1
 10
202.2465878597022
 20
341.96577417551129
 30
0.0
 11
202.2465878597022
 21
391.96577417551168
 31
0.0
  0
POLYLINE
  5
D14
  8
0
 66
     1
 10
0.0
 20
0.0
 30
0.0
 70
   128
  0
VERTEX
  5
122F
  8
0
 10
332.69086061758532
 20
247.71399581858361
 30
0.0
  0
VERTEX
  5
1230
  8
0
 10
332.87012353013642
 20
247.22860018939789
 30
0.0
  0
VERTEX
  5
1231
  8
0
 10
333.2808430004643
 20
246.85374423177021
 30
0.0
  0
VERTEX
  5
1232
  8
0
 10
333.95624148338169
 20
246.54519388288651
 30
0.0
  0
VERTEX
  5
1233
  8
0
 10
334.6907420883449
 20
246.39481803161979
 30
0.0
  0
VERTEX
  5
1234
  8
0
 10
335.25200587146583
 20
246.36395604515269
 30
0.0
  0
SEQEND
  5
1235
  8
0
  0
LINE
  5
D15
  8
0
 10
340.57907531830318
 20
246.36395604551129
 30
0.0
 11
335.25200593099629
 21
246.36395604551129
 31
0.0
  0
POLYLINE
  5
D16
  8
0
 66
     1
 10
0.0
 20
0.0
 30
0.0
 70
   128
  0
VERTEX
  5
1236
  8
0
 10
343.21279606451748
 20
247.44001482894379
 30
0.0
  0
VERTEX
  5
1237
  8
0
 10
343.10711676589608
 20
247.12614551524081
 30
0.0
  0
VERTEX
  5
1238
  8
0
 10
342.76253123632978
 20
246.82054848832971
 30
0.0
  0
VERTEX
  5
1239
  8
0
 10
342.26550687263529
 20
246.59787918656011
 30
0.0
  0
VERTEX
  5
123A
  8
0
 10
341.46516701381688
 20
246.4201990079128
 30
0.0
  0
VERTEX
  5
123B
  8
0
 10
340.57907535954882
 20
246.3639560452921
 30
0.0
  0
SEQEND
  5
123C
  8
0
  0
POLYLINE
  5
D18
  8
0
 66
     1
 10
0.0
 20
0.0
 30
0.0
 70
   128
  0
VERTEX
  5
123D
  8
0
 10
332.24658785970269
 20
211.0150862973729
 30
0.0
  0
VERTEX
  5
123E
  8
0
 10
336.70070836534302
 20
213.7206632868575
 30
0.0
  0
VERTEX
  5
123F
  8
0
 10
341.33250804670752
 20
216.63762168954511
 30
0.0
  0
SEQEND
  5
1240
  8
0
  0
POLYLINE
  5
D19
  8
0
 66
     1
 10
0.0
 20
0.0
 30
0.0
 70
   128
  0
VERTEX
  5
1241
  8
0
 10
341.33257465680208
 20
216.63769198598609
 30
0.0
  0
VERTEX
  5
1242
  8
0
 10
341.89367812877572
 20
216.9604372930103
 30
0.0
  0
VERTEX
  5
1243
  8
0
 10
342.48348665490181
 20
217.23091907641731
 30
0.0
  0
SEQEND
  5
1244
  8
0
  0
POLYLINE
  5
D1A
  8
0
 66
     1
 10
0.0
 20
0.0
 30
0.0
 70
   128
  0
VERTEX
  5
1245
  8
0
 10
343.21279606430249
 20
218.13267918285791
 30
0.0
  0
VERTEX
  5
1246
  8
0
 10
343.107116768038
 20
217.72433069722231
 30
0.0
  0
VERTEX
  5
1247
  8
0
 10
342.76253124124793
 20
217.37935356240411
 30
0.0
  0
VERTEX
  5
1248
  8
0
 10
342.47508789490712
 20
217.24940001711639
 30
0.0
  0
SEQEND
  5
1249
  8
0
  0
LINE
  5
D22
  8
0
 10
335.25200592069399
 20
232.5941521330229
 30
0.0
 11
340.5790753199899
 21
232.5941521330229
 31
0.0
  0
POLYLINE
  5
D28
  8
0
 66
     1
 10
0.0
 20
0.0
 30
0.0
 70
   128
  0
VERTEX
  5
124A
  8
0
 10
332.6908607543383
 20
229.63649293513151
 30
0.0
  0
VERTEX
  5
124B
  8
0
 10
332.87012313810061
 20
230.81777003609619
 30
0.0
  0
VERTEX
  5
124C
  8
0
 10
333.28084424638342
 20
231.628917136947
 30
0.0
  0
VERTEX
  5
124D
  8
0
 10
333.95624500698523
 20
232.24774944901091
 30
0.0
  0
VERTEX
  5
124E
  8
0
 10
334.6907426188377
 20
232.53598220942041
 30
0.0
  0
VERTEX
  5
124F
  8
0
 10
335.25200594256421
 20
232.59415212497291
 30
0.0
  0
SEQEND
  5
1250
  8
0
  0
POLYLINE
  5
D2D
  8
0
 66
     1
 10
0.0
 20
0.0
 30
0.0
 70
   128
  0
VERTEX
  5
1251
  8
0
 10
340.57907533770691
 20
232.59415212484129
 30
0.0
  0
VERTEX
  5
1252
  8
0
 10
341.66350761746389
 20
232.4301724644541
 30
0.0
  0
VERTEX
  5
1253
  8
0
 10
342.37770295871809
 20
232.06686508931111
 30
0.0
  0
VERTEX
  5
1254
  8
0
 10
342.85085413807838
 20
231.5779058816384
 30
0.0
  0
VERTEX
  5
1255
  8
0
 10
343.13286464477602
 20
230.95816728464851
 30
0.0
  0
VERTEX
  5
1256
  8
0
 10
343.22864862457737
 20
230.19898060484601
 30
0.0
  0
SEQEND
  5
1257
  8
0
  0
ARC
  5
D31
  8
0
 10
338.74658785970269
 20
231.9657741755114
 30
0.0
 40
17.0
 50
269.76891261834851
 51
289.74992279564259
  0
LINE
  5
DBA
  8
0
 10
193.3116272344871
 20
369.41587946609337
 30
0.0
 11
193.2082053754695
 21
370.29826168093439
 31
0.0
  0
POLYLINE
  5
DBB
  8
0
 66
     1
 10
0.0
 20
0.0
 30
0.0
 70
   128
  0
VERTEX
  5
1258
  8
0
 10
194.2608521412098
 20
361.96577417551168
 30
0.0
  0
VERTEX
  5
1259
  8
0
 10
194.1317206584888
 20
363.00487174441241
 30
0.0
  0
VERTEX
  5
125A
  8
0
 10
193.94194418078541
 20
364.5201747705118
 30
0.0
  0
VERTEX
  5
125B
  8
0
 10
193.72723505478959
 20
366.2164358987406
 30
0.0
  0
VERTEX
  5
125C
  8
0
 10
193.5161650179088
 20
367.85852450595428
 30
0.0
  0
VERTEX
  5
125D
  8
0
 10
193.31162723363261
 20
369.41587947251168
 30
0.0
  0
SEQEND
  5
125E
  8
0
  0
POLYLINE
  5
DBE
  8
0
 66
     1
 10
0.0
 20
0.0
 30
0.0
 70
   128
  0
VERTEX
  5
125F
  8
0
 10
210.2323233751315
 20
361.96577417551168
 30
0.0
  0
VERTEX
  5
1260
  8
0
 10
210.36147673743969
 20
363.00504780547448
 30
0.0
  0
VERTEX
  5
1261
  8
0
 10
210.55123153861899
 20
364.5201747705118
 30
0.0
  0
VERTEX
  5
1262
  8
0
 10
210.76597516740429
 20
366.21670781452752
 30
0.0
  0
VERTEX
  5
1263
  8
0
 10
210.97702490390199
 20
367.85863117285589
 30
0.0
  0
VERTEX
  5
1264
  8
0
 10
211.1815484857718
 20
369.41587947251168
 30
0.0
  0
SEQEND
  5
1265
  8
0
  0
LINE
  5
DBF
  8
0
 10
211.18154848491741
 20
369.41587946609337
 30
0.0
 11
211.2849703498614
 21
370.2982617363823
 31
0.0
  0
POLYLINE
  5
DCB
  8
0
 66
     1
 10
0.0
 20
0.0
 30
0.0
 70
   128
  0
VERTEX
  5
1266
  8
0
 10
209.2856130904897
 20
372.93198238032659
 30
0.0
  0
VERTEX
  5
1267
  8
0
 10
209.9383458409124
 20
372.82630308170508
 30
0.0
  0
VERTEX
  5
1268
  8
0
 10
210.51312765064449
 20
372.48171755213878
 30
0.0
  0
VERTEX
  5
1269
  8
0
 10
210.90115329914801
 20
371.9846931884444
 30
0.0
  0
VERTEX
  5
126A
  8
0
 10
211.19474983658071
 20
371.18435332962599
 30
0.0
  0
VERTEX
  5
126B
  8
0
 10
211.284970394466
 20
370.29826167535788
 30
0.0
  0
SEQEND
  5
126C
  8
0
  0
POLYLINE
  5
DCC
  8
0
 66
     1
 10
0.0
 20
0.0
 30
0.0
 70
   128
  0
VERTEX
  5
126D
  8
0
 10
193.20820532455619
 20
370.29826165317849
 30
0.0
  0
VERTEX
  5
126E
  8
0
 10
193.34757929270469
 20
371.38269393984001
 30
0.0
  0
VERTEX
  5
126F
  8
0
 10
193.65919084790289
 20
372.09688927636529
 30
0.0
  0
VERTEX
  5
1270
  8
0
 10
194.08470432515441
 20
372.57004045580152
 30
0.0
  0
VERTEX
  5
1271
  8
0
 10
194.63414462863511
 20
372.85205096184097
 30
0.0
  0
VERTEX
  5
1272
  8
0
 10
195.20756262336789
 20
372.93198237354898
 30
0.0
  0
SEQEND
  5
1273
  8
0
  0
LINE
  5
DD3
  8
1
 10
202.2465878597022
 20
121.9657741755115
 30
0.0
 11
202.2465878597022
 21
71.965774175511058
 31
0.0
  0
LINE
  5
DD4
  8
1
 10
262.24658785970217
 20
109.465774175511
 30
0.0
 11
142.2465878597022
 21
109.465774175511
 31
0.0
  0
LINE
  5
DD5
  8
0
 10
188.2465878597022
 20
76.965774175511058
 30
0.0
 11
216.2465878597022
 21
76.965774175511058
 31
0.0
  0
ARC
  5
DD6
  8
0
 10
159.7465878597022
 20
109.465774175511
 30
0.0
 40
7.5000000000000417
 50
90.000000000000028
 51
270.0
  0
LINE
  5
DD7
  8
0
 10
244.7465878597022
 20
116.9657741755115
 30
0.0
 11
159.7465878597024
 21
116.9657741755115
 31
0.0
  0
LINE
  5
DD8
  8
0
 10
217.24658785970229
 20
77.965774175511044
 30
0.0
 11
217.24658785970229
 21
85.965774175511058
 31
0.0
  0
LINE
  5
DD9
  8
0
 10
187.2465878597022
 20
77.965774175511044
 30
0.0
 11
187.2465878597024
 21
85.965774175511058
 31
0.0
  0
LINE
  5
DDA
  8
0
 10
187.24658785970269
 20
85.965774175511058
 30
0.0
 11
217.24658785970229
 21
85.965774175511058
 31
0.0
  0
LINE
  5
DDB
  8
0
 10
159.7465878597024
 20
101.9657741755106
 30
0.0
 11
244.7465878597022
 21
101.9657741755106
 31
0.0
  0
LINE
  5
DDC
  8
0
 10
217.24658785970229
 20
85.965774175511058
 30
0.0
 11
218.2465878597022
 21
86.543124444700354
 31
0.0
  0
LINE
  5
DDD
  8
0
 10
218.2465878597022
 20
86.543124444700354
 30
0.0
 11
186.24658785970291
 21
86.543124444700354
 31
0.0
  0
LINE
  5
DDE
  8
0
 10
187.2465878597024
 20
85.965774175511058
 30
0.0
 11
186.24658785970269
 21
86.543124444700354
 31
0.0
  0
LINE
  5
DDF
  8
0
 10
186.24658785970269
 20
89.570154538025065
 30
0.0
 11
186.24658785970269
 21
86.543124444700354
 31
0.0
  0
ARC
  5
DE1
  8
0
 10
188.2465878597022
 20
77.965774175511044
 30
0.0
 40
1.0
 50
180.0
 51
270.0
  0
ARC
  5
DE2
  8
0
 10
244.7465878597022
 20
109.465774175511
 30
0.0
 40
7.5000000000000417
 50
270.0
 51
90.000000000000028
  0
ARC
  5
DE3
  8
0
 10
216.2465878597022
 20
77.965774175511044
 30
0.0
 40
1.0
 50
270.0
 51
0.0
  0
POINT
  5
DE5
  8
4
 10
217.24658785970229
 20
84.965774175511058
 30
0.0
  0
ARC
  5
DE6
  8
2
 10
202.2465878597022
 20
95.465774175511044
 30
0.0
 40
17.0
 50
157.83787624580751
 51
199.74992279564259
  0
LINE
  5
DE7
  8
0
 10
181.9132545263694
 20
101.9657741755106
 30
0.0
 11
182.03047191219659
 21
101.8866524400773
 31
0.0
  0
LINE
  5
DE8
  8
0
 10
172.4535730126313
 20
100.4907099396375
 30
0.0
 11
184.04512113920211
 21
92.086837547873472
 31
0.0
  0
ARC
  5
DE9
  8
0
 10
164.8229945836392
 20
89.965774175510376
 30
0.0
 40
13.0
 50
54.057888128616597
 51
67.380135051961815
  0
ARC
  5
DEA
  8
0
 10
183.98862690470011
 20
104.7876227993419
 30
0.0
 40
3.5
 50
235.98065001017599
 51
299.39871669853102
  0
ARC
  5
DEB
  8
0
 10
179.6428643532449
 20
86.014759222415648
 30
0.0
 40
7.5
 50
28.297689894884101
 51
54.057888128616597
  0
ARC
  5
DEC
  8
2
 10
202.2465878597022
 20
95.465774175511044
 30
0.0
 40
17.0
 50
340.25007720435741
 51
22.162123754192489
  0
ARC
  5
DED
  8
0
 10
220.50454881470429
 20
104.7876227993419
 30
0.0
 40
3.5
 50
240.60128330146901
 51
304.01934998982398
  0
LINE
  5
DEE
  8
0
 10
234.0741740665986
 20
101.9657741755106
 30
0.0
 11
220.44805458020261
 21
92.086837547873472
 31
0.0
  0
LINE
  5
DEF
  8
0
 10
218.2465878597022
 20
89.570154538025875
 30
0.0
 11
218.2465878597022
 21
86.543124444700354
 31
0.0
  0
ARC
  5
DF0
  8
0
 10
224.8503113661595
 20
86.014759222415648
 30
0.0
 40
7.5
 50
125.9421118713833
 51
151.70231010511591
  0
LINE
  5
DF1
  8
0
 10
217.4965878597022
 20
101.9657741755106
 30
0.0
 11
218.78645397404671
 21
101.7383359780501
 31
0.0
  0
LINE
  5
DF2
  8
0
 10
186.9965878597022
 20
101.9657741755106
 30
0.0
 11
185.70672174535821
 21
101.7383359780501
 31
0.0
  0
LINE
  5
E43
  8
0
 10
210.19658785947439
 20
93.633286716910447
 30
0.0
 11
210.19658785947439
 21
98.960356104217325
 31
0.0
  0
POLYLINE
  5
E4B
  8
0
 66
     1
 10
0.0
 20
0.0
 30
0.0
 70
   128
  0
VERTEX
  5
1274
  8
0
 10
212.68363896001009
 20
101.52150141764891
 30
0.0
  0
VERTEX
  5
1275
  8
0
 10
211.7213843615512
 20
101.3422385085501
 30
0.0
  0
VERTEX
  5
1276
  8
0
 10
211.03664619887579
 20
100.9315190438116
 30
0.0
  0
VERTEX
  5
1277
  8
0
 10
210.5012222117937
 20
100.2561205701014
 30
0.0
  0
VERTEX
  5
1278
  8
0
 10
210.2479904752434
 20
99.521619966272397
 30
0.0
  0
VERTEX
  5
1279
  8
0
 10
210.1965878592184
 20
98.960356163747875
 30
0.0
  0
SEQEND
  5
127A
  8
0
  0
POLYLINE
  5
E4D
  8
0
 66
     1
 10
0.0
 20
0.0
 30
0.0
 70
   128
  0
VERTEX
  5
127B
  8
0
 10
212.11388593807439
 20
91.002087853536267
 30
0.0
  0
VERTEX
  5
127C
  8
0
 10
211.5299755845829
 20
91.105245267175746
 30
0.0
  0
VERTEX
  5
127D
  8
0
 10
210.97792989249069
 20
91.449830793965816
 30
0.0
  0
VERTEX
  5
127E
  8
0
 10
210.591079797063
 20
91.946855150563906
 30
0.0
  0
VERTEX
  5
127F
  8
0
 10
210.29040597741979
 20
92.747195004035007
 30
0.0
  0
VERTEX
  5
1280
  8
0
 10
210.19658785950949
 20
93.633286675665317
 30
0.0
  0
SEQEND
  5
1281
  8
0
  0
POLYLINE
  5
E56
  8
0
 66
     1
 10
0.0
 20
0.0
 30
0.0
 70
   128
  0
VERTEX
  5
1282
  8
0
 10
214.38257547419809
 20
101.31155277753039
 30
0.0
  0
VERTEX
  5
1283
  8
0
 10
213.76390962843629
 20
101.3184738491442
 30
0.0
  0
VERTEX
  5
1284
  8
0
 10
212.68363854308541
 20
101.5215015679088
 30
0.0
  0
SEQEND
  5
1285
  8
0
  0
POLYLINE
  5
10D7
  8
0
  6
CONTINUOUS
 62
     7
 66
     1
 10
0.0
 20
0.0
 30
0.0
 70
   128
  0
VERTEX
  5
1286
  8
0
  6
CONTINUOUS
 62
     7
 10
332.24658785970308
 20
220.55311222071799
 30
0.0
  0
VERTEX
  5
1287
  8
0
  6
CONTINUOUS
 62
     7
 10
334.73127387567229
 20
222.63814305451859
 30
0.0
  0
VERTEX
  5
1288
  8
0
  6
CONTINUOUS
 62
     7
 10
337.22981978534108
 20
224.7740974603781
 30
0.0
  0
VERTEX
  5
1289
  8
0
  6
CONTINUOUS
 62
     7
 10
339.70064509211511
 20
226.94742977544169
 30
0.0
  0
VERTEX
  5
128A
  8
0
  6
CONTINUOUS
 62
     7
 10
343.22864862457737
 20
230.19898060484601
 30
0.0
  0
SEQEND
  5
128B
  8
0
  6
CONTINUOUS
 62
     7
  0
POLYLINE
  5
10D9
  8
0
  6
CONTINUOUS
 62
     7
 66
     1
 10
0.0
 20
0.0
 30
0.0
 70
   128
  0
VERTEX
  5
128C
  8
0
  6
CONTINUOUS
 62
     7
 10
212.11388593807439
 20
91.002087853536267
 30
0.0
  0
VERTEX
  5
128D
  8
0
  6
CONTINUOUS
 62
     7
 10
216.34184675783879
 20
93.98609850638644
 30
0.0
  0
VERTEX
  5
128E
  8
0
  6
CONTINUOUS
 62
     7
 10
219.02312824587321
 20
95.942989289469267
 30
0.0
  0
VERTEX
  5
128F
  8
0
  6
CONTINUOUS
 62
     7
 10
221.69680413084009
 20
97.937840237627086
 30
0.0
  0
VERTEX
  5
1290
  8
0
  6
CONTINUOUS
 62
     7
 10
224.36442905875251
 20
99.958573109235616
 30
0.0
  0
VERTEX
  5
1291
  8
0
  6
CONTINUOUS
 62
     7
 10
227.02727597649761
 20
101.9975985874873
 30
0.0
  0
SEQEND
  5
1292
  8
0
  6
CONTINUOUS
 62
     7
  0
POLYLINE
  5
10DA
  8
0
  6
CONTINUOUS
 62
     7
 66
     1
 10
0.0
 20
0.0
 30
0.0
 70
   128
  0
VERTEX
  5
1293
  8
0
  6
CONTINUOUS
 62
     7
 10
192.37928978133019
 20
91.002087853536338
 30
0.0
  0
VERTEX
  5
1294
  8
0
  6
CONTINUOUS
 62
     7
 10
188.15132896156581
 20
93.986098506386554
 30
0.0
  0
VERTEX
  5
1295
  8
0
  6
CONTINUOUS
 62
     7
 10
185.47004747353139
 20
95.942989289469395
 30
0.0
  0
VERTEX
  5
1296
  8
0
  6
CONTINUOUS
 62
     7
 10
182.79637158856451
 20
97.937840237627228
 30
0.0
  0
VERTEX
  5
1297
  8
0
  6
CONTINUOUS
 62
     7
 10
180.12874666065221
 20
99.958573109235772
 30
0.0
  0
VERTEX
  5
1298
  8
0
  6
CONTINUOUS
 62
     7
 10
177.50746054646029
 20
101.9657741755106
 30
0.0
  0
SEQEND
  5
1299
  8
0
  6
CONTINUOUS
 62
     7
  0
POLYLINE
  5
10DB
  8
0
 66
     1
 10
0.0
 20
0.0
 30
0.0
 70
   128
  0
VERTEX
  5
129A
  8
0
 10
190.11060024520651
 20
101.31155277753049
 30
0.0
  0
VERTEX
  5
129B
  8
0
 10
190.72926609096831
 20
101.3184738491442
 30
0.0
  0
VERTEX
  5
129C
  8
0
 10
191.8095371763192
 20
101.5215015679088
 30
0.0
  0
SEQEND
  5
129D
  8
0
  0
POLYLINE
  5
10DC
  8
0
 66
     1
 10
0.0
 20
0.0
 30
0.0
 70
   128
  0
VERTEX
  5
129E
  8
0
 10
192.37928978133019
 20
91.002087853536338
 30
0.0
  0
VERTEX
  5
129F
  8
0
 10
192.9632001348217
 20
91.105245267175803
 30
0.0
  0
VERTEX
  5
12A0
  8
0
 10
193.5152458269138
 20
91.449830793965873
 30
0.0
  0
VERTEX
  5
12A1
  8
0
 10
193.9020959223416
 20
91.946855150563977
 30
0.0
  0
VERTEX
  5
12A2
  8
0
 10
194.2027697419847
 20
92.747195004035063
 30
0.0
  0
VERTEX
  5
12A3
  8
0
 10
194.29658785989511
 20
93.633286675665374
 30
0.0
  0
SEQEND
  5
12A4
  8
0
  0
POLYLINE
  5
10DD
  8
0
 66
     1
 10
0.0
 20
0.0
 30
0.0
 70
   128
  0
VERTEX
  5
12A5
  8
0
 10
191.8095367593946
 20
101.52150141764891
 30
0.0
  0
VERTEX
  5
12A6
  8
0
 10
192.77179135785349
 20
101.3422385085502
 30
0.0
  0
VERTEX
  5
12A7
  8
0
 10
193.45652952052879
 20
100.9315190438116
 30
0.0
  0
VERTEX
  5
12A8
  8
0
 10
193.99195350761099
 20
100.2561205701014
 30
0.0
  0
VERTEX
  5
12A9
  8
0
 10
194.24518524416129
 20
99.521619966272453
 30
0.0
  0
VERTEX
  5
12AA
  8
0
 10
194.29658786018621
 20
98.960356163747917
 30
0.0
  0
SEQEND
  5
12AB
  8
0
  0
LINE
  5
10DE
  8
0
 10
194.2965878599301
 20
93.633286716910504
 30
0.0
 11
194.2965878599301
 21
98.960356104217411
 31
0.0
  0
TEXT
  5
119F
  8
0
 62
     3
 10
0.0
 20
0.0
 30
0.0
 40
10.0
  1
V100
  7
STANDARD1
  0
LINE
  5
11F4
  8
2
 10
344.49115050624067
 20
247.9657741755114
 30
0.0
 11
344.64220749718879
 21
247.9657741755108
 31
0.0
  0
LINE
  5
11F5
  8
2
 10
218.2465878597022
 20
89.721211528972987
 30
0.0
 11
218.2465878597022
 21
89.570154538025875
 31
0.0
  0
LINE
  5
11F6
  8
2
 10
186.24658785970269
 20
89.570154538025051
 30
0.0
 11
186.2465878597028
 21
89.721211528971523
 31
0.0
  0
CIRCLE
  5
120D
  8
3
 10
202.24658785970379
 20
271.96577417551202
 30
0.0
 40
2.5
  0
CIRCLE
  5
120E
  8
0
 10
202.2465878597022
 20
271.96577417551202
 30
0.0
 40
2.0669999999999988
  0
CIRCLE
  5
120F
  8
0
 10
202.2465878597022
 20
271.96577417551202
 30
0.0
 40
4.25
  0
LINE
  5
1211
  8
1
 10
312.24658785970217
 20
271.96577417551129
 30
0.0
 11
337.2465878597032
 21
271.96577417551129
 31
0.0
  0
ENDSEC
  0
EOF
