  0
SECTION
  2
HEADER
  9
$ACADVER
  1
AC1009
  9
$INSBASE
 10
0.0
 20
0.0
 30
0.0
  9
$EXTMIN
 10
0.0
 20
-2.960436562073669
 30
0.0
  9
$EXTMAX
 10
349.87560999999999
 20
208.224268
 30
0.0
  9
$LIMMIN
 10
0.0
 20
0.0
  9
$LIMMAX
 10
375.0
 20
270.0
  9
$ORTHOMODE
 70
     1
  9
$REGENMODE
 70
     1
  9
$FILLMODE
 70
     1
  9
$QTEXTMODE
 70
     0
  9
$MIRRTEXT
 70
     0
  9
$DRAGMODE
 70
     2
  9
$LTSCALE
 40
10.0
  9
$OSMODE
 70
    55
  9
$ATTMODE
 70
     1
  9
$TEXTSIZE
 40
0.2
  9
$TRACEWID
 40
0.05
  9
$TEXTSTYLE
  7
STANDARD
  9
$CLAYER
  8
0
  9
$CELTYPE
  6
BYLAYER
  9
$CECOLOR
 62
   256
  9
$DIMSCALE
 40
1.0
  9
$DIMASZ
 40
3.0
  9
$DIMEXO
 40
2.0
  9
$DIMDLI
 40
0.38
  9
$DIMRND
 40
0.0
  9
$DIMDLE
 40
0.0
  9
$DIMEXE
 40
2.0
  9
$DIMTP
 40
0.0
  9
$DIMTM
 40
0.0
  9
$DIMTXT
 40
3.2000000000000002
  9
$DIMCEN
 40
0.0
  9
$DIMTSZ
 40
0.0
  9
$DIMTOL
 70
     0
  9
$DIMLIM
 70
     0
  9
$DIMTIH
 70
     0
  9
$DIMTOH
 70
     0
  9
$DIMSE1
 70
     0
  9
$DIMSE2
 70
     0
  9
$DIMTAD
 70
     1
  9
$DIMZIN
 70
     0
  9
$DIMBLK
  1

  9
$DIMASO
 70
     1
  9
$DIMSHO
 70
     0
  9
$DIMPOST
  1

  9
$DIMAPOST
  1

  9
$DIMALT
 70
     0
  9
$DIMALTD
 70
     2
  9
$DIMALTF
 40
25.399999999999999
  9
$DIMLFAC
 40
1.0
  9
$DIMTOFL
 70
     1
  9
$DIMTVP
 40
1.6000000000000001
  9
$DIMTIX
 70
     1
  9
$DIMSOXD
 70
     0
  9
$DIMSAH
 70
     0
  9
$DIMBLK1
  1

  9
$DIMBLK2
  1

  9
$DIMSTYLE
  2
STANDARD
  9
$DIMCLRD
 70
     0
  9
$DIMCLRE
 70
     0
  9
$DIMCLRT
 70
     0
  9
$DIMTFAC
 40
1.0
  9
$DIMGAP
 40
0.09
  9
$LUNITS
 70
     2
  9
$LUPREC
 70
     4
  9
$SKETCHINC
 40
0.1
  9
$FILLETRAD
 40
0.0
  9
$AUNITS
 70
     0
  9
$AUPREC
 70
     4
  9
$MENU
  1
E:\r13\win\SUPPORT\ACAD
  9
$ELEVATION
 40
0.0
  9
$PELEVATION
 40
0.0
  9
$THICKNESS
 40
0.0
  9
$LIMCHECK
 70
     0
  9
$BLIPMODE
 70
     0
  9
$CHAMFERA
 40
0.0
  9
$CHAMFERB
 40
0.0
  9
$SKPOLY
 70
     0
  9
$TDCREATE
 40
2449840.6312037031
  9
$TDUPDATE
 40
2456598.4083103468
  9
$TDINDWG
 40
0.0001614699
  9
$TDUSRTIMER
 40
0.0001614699
  9
$USRTIMER
 70
     1
  9
$ANGBASE
 50
0.0
  9
$ANGDIR
 70
     0
  9
$PDMODE
 70
     0
  9
$PDSIZE
 40
0.0
  9
$PLINEWID
 40
0.0
  9
$COORDS
 70
     1
  9
$SPLFRAME
 70
     0
  9
$SPLINETYPE
 70
     6
  9
$SPLINESEGS
 70
     8
  9
$ATTDIA
 70
     0
  9
$ATTREQ
 70
     1
  9
$HANDLING
 70
     1
  9
$HANDSEED
  5
25A
  9
$SURFTAB1
 70
     6
  9
$SURFTAB2
 70
     6
  9
$SURFTYPE
 70
     6
  9
$SURFU
 70
     6
  9
$SURFV
 70
     6
  9
$UCSNAME
  2

  9
$UCSORG
 10
0.0
 20
0.0
 30
0.0
  9
$UCSXDIR
 10
1.0
 20
0.0
 30
0.0
  9
$UCSYDIR
 10
0.0
 20
1.0
 30
0.0
  9
$PUCSNAME
  2

  9
$PUCSORG
 10
0.0
 20
0.0
 30
0.0
  9
$PUCSXDIR
 10
1.0
 20
0.0
 30
0.0
  9
$PUCSYDIR
 10
0.0
 20
1.0
 30
0.0
  9
$USERI1
 70
     0
  9
$USERI2
 70
     1
  9
$USERI3
 70
     1
  9
$USERI4
 70
     0
  9
$USERI5
 70
     0
  9
$USERR1
 40
0.0
  9
$USERR2
 40
0.0
  9
$USERR3
 40
0.0
  9
$USERR4
 40
0.0
  9
$USERR5
 40
0.0
  9
$WORLDVIEW
 70
     1
  9
$SHADEDGE
 70
     3
  9
$SHADEDIF
 70
    70
  9
$TILEMODE
 70
     1
  9
$MAXACTVP
 70
    16
  9
$PLIMCHECK
 70
     0
  9
$PEXTMIN
 10
1.0000000000000000E+020
 20
1.0000000000000000E+020
 30
1.0000000000000000E+020
  9
$PEXTMAX
 10
-1.0000000000000000E+020
 20
-1.0000000000000000E+020
 30
-1.0000000000000000E+020
  9
$PLIMMIN
 10
0.0
 20
0.0
  9
$PLIMMAX
 10
12.0
 20
9.0
  9
$UNITMODE
 70
     0
  9
$VISRETAIN
 70
     0
  9
$PLINEGEN
 70
     0
  9
$PSLTSCALE
 70
     0
  0
ENDSEC
  0
SECTION
  2
TABLES
  0
TABLE
  2
VPORT
 70
     1
  0
VPORT
  2
*ACTIVE
 70
     0
 10
0.0
 20
0.0
 11
1.0
 21
1.0
 12
187.4942783906524
 22
197.0509055860143
 13
0.0
 23
0.0
 14
10.0
 24
10.0
 15
10.0
 25
10.0
 16
0.0
 26
0.0
 36
1.0
 17
0.0
 27
0.0
 37
0.0
 40
403.57315882993248
 41
1.7807262569832401
 42
50.0
 43
0.0
 44
0.0
 50
0.0
 51
0.0
 71
     0
 72
   100
 73
     1
 74
     0
 75
     0
 76
     0
 77
     0
 78
     2
  0
ENDTAB
  0
TABLE
  2
LTYPE
 70
     4
  0
LTYPE
  2
CONTINUOUS
 70
     0
  3
Solid Line
 72
    65
 73
     0
 40
0.0
  0
LTYPE
  2
CENTER
 70
     0
  3
____ _ ____ _ ____ _ ____ _ ____ _ ____ _ ____
 72
    65
 73
     4
 40
2.0
 49
1.25
 49
-0.25
 49
0.25
 49
-0.25
  0
LTYPE
  2
HIDDEN
 70
     0
  3
_ _ _ _ _ _ _ _ _ _ _ _ _ _ _ _ _ _ _ _ _ _ _
 72
    65
 73
     2
 40
0.375
 49
0.25
 49
-0.125
  0
LTYPE
  2
PHANTOM2
 70
     0
  3
___ _ _ ___ _ _ ___ _ _ ___ _ _
 72
    65
 73
     6
 40
1.25
 49
0.625
 49
-0.125
 49
0.125
 49
-0.125
 49
0.125
 49
-0.125
  0
ENDTAB
  0
TABLE
  2
LAYER
 70
     3
  0
LAYER
  2
0
 70
     0
 62
     7
  6
CONTINUOUS
  0
LAYER
  2
1
 70
     0
 62
     1
  6
CENTER
  0
LAYER
  2
2
 70
     0
 62
     2
  6
HIDDEN
  0
ENDTAB
  0
TABLE
  2
STYLE
 70
     2
  0
STYLE
  2
STANDARD
 70
     0
 40
0.0
 41
1.0
 50
0.0
 71
     0
 42
0.2
  3
ROMANS
  4
EXTFONT
  0
STYLE
  2
STANDARD1
 70
     0
 40
0.0
 41
1.0
 50
0.0
 71
     0
 42
3.0
  3
txt
  4

  0
ENDTAB
  0
TABLE
  2
VIEW
 70
     1
  0
VIEW
  2
ALL
 70
     0
 40
270.0
 10
220.99159700000001
 20
135.0
 41
0.0
 11
0.0
 21
0.0
 31
1.0
 12
0.0
 22
0.0
 32
0.0
 42
0.0
 43
0.0
 44
0.0
 50
0.0
 71
     0
  0
ENDTAB
  0
TABLE
  2
UCS
 70
     0
  0
ENDTAB
  0
TABLE
  2
APPID
 70
     3
  0
APPID
  2
ACAD
 70
     0
  0
APPID
  2
ACAD_MLEADERVER
 70
     0
  0
APPID
  2
ACAD_NAV_VCDISPLAY
 70
     0
  0
ENDTAB
  0
TABLE
  2
DIMSTYLE
 70
     1
  0
DIMSTYLE
  2
STANDARD
 70
     0
  3

  4

  5

  6

  7

 40
1.0
 41
0.18
 42
0.0625
 43
0.38
 44
0.18
 45
0.0
 46
0.0
 47
0.0
 48
0.0
140
0.18
141
0.09
142
0.0
143
25.399999999999999
144
1.0
145
0.0
146
1.0
147
0.09
 71
     0
 72
     0
 73
     1
 74
     1
 75
     0
 76
     0
 77
     0
 78
     0
170
     0
171
     2
172
     0
173
     0
174
     0
175
     0
176
     0
177
     0
178
     0
  0
ENDTAB
  0
ENDSEC
  0
SECTION
  2
BLOCKS
  0
BLOCK
  8
0
  2
$MODEL_SPACE
 70
     0
 10
0.0
 20
0.0
 30
0.0
  3
$MODEL_SPACE
  1

  0
ENDBLK
  5
DB
  8
0
  0
BLOCK
 67
     1
  8
0
  2
$PAPER_SPACE
 70
     0
 10
0.0
 20
0.0
 30
0.0
  3
$PAPER_SPACE
  1

  0
ENDBLK
  5
D9
 67
     1
  8
0
  0
ENDSEC
  0
SECTION
  2
ENTITIES
  0
LINE
  5
36
  8
0
 10
98.275656000000012
 20
191.224268
 30
0.0
 11
282.27565600000003
 21
191.224268
 31
0.0
  0
LINE
  5
37
  8
0
 10
282.27565600000003
 20
203.224268
 30
0.0
 11
98.275656000000012
 21
203.224268
 31
0.0
  0
LINE
  5
38
  8
0
 10
285.27565600000003
 20
194.224268
 30
0.0
 11
285.27565600000003
 21
200.224268
 31
0.0
  0
LINE
  5
39
  8
0
 10
275.27565600000003
 20
203.224268
 30
0.0
 11
275.27565600000003
 21
191.224268
 31
0.0
  0
LINE
  5
3A
  8
2
 10
270.07565599999998
 20
203.224268
 30
0.0
 11
270.07565599999998
 21
191.224268
 31
0.0
  0
ARC
  5
3B
  8
0
 10
282.27565600000003
 20
200.224268
 30
0.0
 40
3.0
 50
0.0
 51
90.0
  0
ARC
  5
3C
  8
0
 10
282.27565600000003
 20
194.224268
 30
0.0
 40
3.0
 50
270.0
 51
0.0
  0
POLYLINE
  5
3D
  8
2
 66
     1
 10
0.0
 20
0.0
 30
0.0
  0
VERTEX
  5
3E
  8
2
 10
271.57565599999998
 20
203.224268
 30
0.0
 42
0.4142140000000001
  0
VERTEX
  5
3F
  8
2
 10
270.07565599999998
 20
201.724268
 30
0.0
  0
VERTEX
  5
40
  8
2
 10
270.07565599999998
 20
201.49509900000001
 30
0.0
 42
0.181169
  0
VERTEX
  5
41
  8
2
 10
270.44488699999999
 20
200.509523
 30
0.0
 42
-0.374634
  0
VERTEX
  5
42
  8
2
 10
270.44488699999999
 20
193.9390129999999
 30
0.0
 42
0.181169
  0
VERTEX
  5
43
  8
2
 10
270.07565599999998
 20
192.95343700000001
 30
0.0
  0
VERTEX
  5
44
  8
2
 10
270.07565599999998
 20
192.724268
 30
0.0
 42
0.4142140000000001
  0
VERTEX
  5
45
  8
2
 10
271.57565599999998
 20
191.224268
 30
0.0
  0
SEQEND
  5
46
  8
2
  0
POLYLINE
  5
47
  8
2
 66
     1
 10
0.0
 20
0.0
 30
0.0
  0
VERTEX
  5
48
  8
2
 10
108.975656
 20
203.224268
 30
0.0
 42
-0.4142140000000001
  0
VERTEX
  5
49
  8
2
 10
110.475656
 20
201.724268
 30
0.0
  0
VERTEX
  5
4A
  8
2
 10
110.475656
 20
201.49509900000001
 30
0.0
 42
-0.181169
  0
VERTEX
  5
4B
  8
2
 10
110.106425
 20
200.509523
 30
0.0
 42
0.374634
  0
VERTEX
  5
4C
  8
2
 10
110.106425
 20
193.9390129999999
 30
0.0
 42
-0.181169
  0
VERTEX
  5
4D
  8
2
 10
110.475656
 20
192.95343700000001
 30
0.0
  0
VERTEX
  5
4E
  8
2
 10
110.475656
 20
192.724268
 30
0.0
 42
-0.4142140000000001
  0
VERTEX
  5
4F
  8
2
 10
108.975656
 20
191.224268
 30
0.0
  0
SEQEND
  5
50
  8
2
  0
ARC
  5
51
  8
0
 10
98.275656000000012
 20
194.224268
 30
0.0
 40
3.0
 50
180.0
 51
270.0
  0
ARC
  5
52
  8
0
 10
98.275656000000012
 20
200.224268
 30
0.0
 40
3.0
 50
90.0
 51
180.0
  0
LINE
  5
53
  8
2
 10
110.475656
 20
203.224268
 30
0.0
 11
110.475656
 21
191.224268
 31
0.0
  0
LINE
  5
54
  8
0
 10
105.275656
 20
203.224268
 30
0.0
 11
105.275656
 21
191.224268
 31
0.0
  0
LINE
  5
55
  8
0
 10
95.275655999999998
 20
194.224268
 30
0.0
 11
95.275655999999998
 21
200.224268
 31
0.0
  0
LINE
  5
56
  8
0
 10
275.27565600000003
 20
201.724268
 30
0.0
 11
105.275656
 21
201.724268
 31
0.0
  0
LINE
  5
57
  8
0
 10
105.275656
 20
192.724268
 30
0.0
 11
275.27565600000003
 21
192.724268
 31
0.0
  0
LINE
  5
58
  8
0
 10
275.27565600000003
 20
197.724268
 30
0.0
 11
105.275656
 21
197.724268
 31
0.0
  0
LINE
  5
59
  8
0
 10
275.27565900000002
 20
196.724268
 30
0.0
 11
105.275659
 21
196.724268
 31
0.0
  0
LINE
  5
5A
  8
0
 10
275.27565600000003
 20
198.724268
 30
0.0
 11
105.275656
 21
198.724268
 31
0.0
  0
LINE
  5
5B
  8
0
 10
275.27565600000003
 20
199.724268
 30
0.0
 11
105.275656
 21
199.724268
 31
0.0
  0
LINE
  5
5C
  8
0
 10
275.27565600000003
 20
200.724268
 30
0.0
 11
105.275656
 21
200.724268
 31
0.0
  0
LINE
  5
5D
  8
0
 10
275.27565600000003
 20
193.724268
 30
0.0
 11
105.275656
 21
193.724268
 31
0.0
  0
LINE
  5
5E
  8
0
 10
275.27565600000003
 20
194.724268
 30
0.0
 11
105.275656
 21
194.724268
 31
0.0
  0
LINE
  5
5F
  8
0
 10
275.27565600000003
 20
195.724268
 30
0.0
 11
105.275656
 21
195.724268
 31
0.0
  0
LINE
  5
60
  8
0
 10
275.27565600000003
 20
196.724268
 30
0.0
 11
105.275656
 21
196.724268
 31
0.0
  0
LINE
  5
61
  8
1
 10
280.27565600000003
 20
186.224268
 30
0.0
 11
280.27565600000003
 21
208.224268
 31
0.0
  0
LINE
  5
62
  8
1
 10
100.275656
 20
186.224268
 30
0.0
 11
100.275656
 21
208.224268
 31
0.0
  0
LINE
  5
63
  8
1
 10
280.27591699999999
 20
97.158658000000017
 30
0.0
 11
280.27591699999999
 21
121.53506299999999
 31
0.0
  0
LINE
  5
64
  8
0
 10
95.275655999999998
 20
137.00033300000001
 30
0.0
 11
95.275655999999998
 21
100.00226000000001
 31
0.0
  0
LINE
  5
65
  8
0
 10
95.275655999999998
 20
100.00226000000001
 30
0.0
 11
110.27487499999999
 21
100.00226000000001
 31
0.0
  0
LINE
  5
66
  8
1
 10
100.275396
 20
97.158658000000017
 30
0.0
 11
100.275396
 21
121.53506299999999
 31
0.0
  0
LINE
  5
67
  8
2
 10
102.775266
 20
100.469236
 30
0.0
 11
102.775266
 21
112.00226000000001
 31
0.0
  0
LINE
  5
68
  8
2
 10
102.342288
 20
100.902213
 30
0.0
 11
102.342288
 21
114.50212999999999
 31
0.0
  0
LINE
  5
69
  8
2
 10
98.208503000000007
 20
100.902213
 30
0.0
 11
98.208503000000007
 21
114.50212999999999
 31
0.0
  0
LINE
  5
6A
  8
2
 10
97.775525999999985
 20
100.469236
 30
0.0
 11
97.775525999999985
 21
112.00226000000001
 31
0.0
  0
LINE
  5
6B
  8
2
 10
97.775525999999985
 20
112.00226000000001
 30
0.0
 11
102.775266
 21
112.00226000000001
 31
0.0
  0
LINE
  5
6C
  8
2
 10
102.342288
 20
114.50212999999999
 30
0.0
 11
98.208503000000007
 21
114.50212999999999
 31
0.0
  0
LINE
  5
6D
  8
2
 10
98.208503000000007
 20
114.50212999999999
 30
0.0
 11
100.275396
 21
115.69545100000001
 31
0.0
  0
LINE
  5
6E
  8
2
 10
102.342288
 20
114.50212999999999
 30
0.0
 11
100.275396
 21
115.69545100000001
 31
0.0
  0
LINE
  5
6F
  8
2
 10
102.342288
 20
100.902213
 30
0.0
 11
98.208503000000007
 21
100.902213
 31
0.0
  0
LINE
  5
70
  8
2
 10
102.342288
 20
100.902213
 30
0.0
 11
103.24224100000001
 21
100.00226000000001
 31
0.0
  0
LINE
  5
71
  8
2
 10
98.208503000000007
 20
100.902213
 30
0.0
 11
97.308549999999997
 21
100.00226000000001
 31
0.0
  0
LINE
  5
72
  8
0
 10
98.275499999999994
 20
140.00017700000001
 30
0.0
 11
282.27581200000009
 21
140.00017700000001
 31
0.0
  0
LINE
  5
73
  8
0
 10
105.27513500000001
 20
131.00064599999999
 30
0.0
 11
275.27617700000002
 21
131.00064599999999
 31
0.0
  0
LINE
  5
74
  8
0
 10
105.27513500000001
 20
140.00017700000001
 30
0.0
 11
105.27513500000001
 21
131.00064599999999
 31
0.0
  0
ARC
  5
75
  8
0
 10
98.275499999999994
 20
137.00033300000001
 30
0.0
 40
2.9998439999999991
 50
90.0
 51
180.0
  0
ARC
  5
76
  8
0
 10
282.27581200000009
 20
137.00033300000001
 30
0.0
 40
2.9998439999999991
 50
0.0
 51
90.0
  0
LINE
  5
77
  8
0
 10
275.27617700000002
 20
140.00017700000001
 30
0.0
 11
275.27617700000002
 21
131.00064599999999
 31
0.0
  0
LINE
  5
78
  8
0
 10
285.27565600000003
 20
100.00226000000001
 30
0.0
 11
270.27643699999999
 21
100.00226000000001
 31
0.0
  0
LINE
  5
79
  8
0
 10
270.27643699999999
 20
100.00226000000001
 30
0.0
 11
270.27643699999999
 21
109.466233
 31
0.0
  0
LINE
  5
7A
  8
0
 10
285.27565600000003
 20
137.00033300000001
 30
0.0
 11
285.27565600000003
 21
100.00226000000001
 31
0.0
  0
LINE
  5
7B
  8
1
 10
92.432053999999994
 20
135.50041100000001
 30
0.0
 11
288.119258
 21
135.50041100000001
 31
0.0
  0
LINE
  5
7C
  8
0
 10
33.519303999999998
 20
100.00226000000001
 30
0.0
 11
45.518678999999999
 21
100.00226000000001
 31
0.0
  0
LINE
  5
7D
  8
0
 10
45.518678999999999
 20
100.00226000000001
 30
0.0
 11
45.518678999999999
 21
138.50025500000001
 31
0.0
  0
LINE
  5
7E
  8
0
 10
44.018757999999998
 20
140.00017700000001
 30
0.0
 11
35.019226000000003
 21
140.00017700000001
 31
0.0
  0
LINE
  5
7F
  8
0
 10
33.519303999999998
 20
138.50025500000001
 30
0.0
 11
33.519303999999998
 21
100.00226000000001
 31
0.0
  0
LINE
  5
80
  8
2
 10
45.518678999999999
 20
131.00064599999999
 30
0.0
 11
33.519303999999998
 21
131.00064599999999
 31
0.0
  0
ARC
  5
81
  8
0
 10
44.018757999999998
 20
138.50025500000001
 30
0.0
 40
1.4999219999999991
 50
0.0
 51
90.0
  0
ARC
  5
82
  8
0
 10
35.019226000000003
 20
138.50025500000001
 30
0.0
 40
1.4999219999999991
 50
90.0
 51
180.0
  0
LINE
  5
83
  8
1
 10
30.675702999999999
 20
135.50041100000001
 30
0.0
 11
48.362281000000003
 21
135.50041100000001
 31
0.0
  0
LINE
  5
84
  8
0
 10
275.27617700000002
 20
123.258408
 30
0.0
 11
275.27617700000002
 21
116.744029
 31
0.0
  0
LINE
  5
85
  8
0
 10
274.39754299999998
 20
114.62281900000001
 30
0.0
 11
271.00863199999998
 21
111.233908
 31
0.0
  0
LINE
  5
86
  8
0
 10
274.39754299999998
 20
125.37961799999999
 30
0.0
 11
271.00863199999998
 21
128.768529
 31
0.0
  0
LINE
  5
87
  8
0
 10
270.27643699999999
 20
130.536204
 30
0.0
 11
270.27643699999999
 21
131.00064599999999
 31
0.0
  0
ARC
  5
88
  8
0
 10
272.77630699999997
 20
109.466233
 30
0.0
 40
2.49987
 50
135.0
 51
180.0
  0
ARC
  5
89
  8
0
 10
272.77630699999997
 20
130.536204
 30
0.0
 40
2.49987
 50
180.0
 51
225.0
  0
ARC
  5
8A
  8
0
 10
272.27633300000002
 20
123.258408
 30
0.0
 40
2.9998439999999991
 50
0.0
 51
45.0
  0
ARC
  5
8B
  8
0
 10
272.27633300000002
 20
116.744029
 30
0.0
 40
2.9998439999999991
 50
315.0
 51
0.0
  0
ARC
  5
8C
  8
0
 10
108.274979
 20
116.744029
 30
0.0
 40
2.9998439999999991
 50
180.0
 51
225.0
  0
ARC
  5
8D
  8
0
 10
108.274979
 20
123.258408
 30
0.0
 40
2.9998439999999991
 50
135.0
 51
180.0
  0
ARC
  5
8E
  8
0
 10
107.77500499999999
 20
130.536204
 30
0.0
 40
2.49987
 50
315.0
 51
0.0
  0
ARC
  5
8F
  8
0
 10
107.77500499999999
 20
109.466233
 30
0.0
 40
2.49987
 50
360.0
 51
45.0
  0
LINE
  5
90
  8
0
 10
110.27487499999999
 20
130.536204
 30
0.0
 11
110.27487499999999
 21
131.00064599999999
 31
0.0
  0
LINE
  5
91
  8
0
 10
106.153769
 20
125.37961799999999
 30
0.0
 11
109.54268
 21
128.768529
 31
0.0
  0
LINE
  5
92
  8
0
 10
106.153769
 20
114.62281900000001
 30
0.0
 11
109.54268
 21
111.233908
 31
0.0
  0
LINE
  5
93
  8
0
 10
105.27513500000001
 20
123.258408
 30
0.0
 11
105.27513500000001
 21
116.744029
 31
0.0
  0
LINE
  5
94
  8
0
 10
110.27487499999999
 20
100.00226000000001
 30
0.0
 11
110.27487499999999
 21
109.466233
 31
0.0
  0
LINE
  5
95
  8
1
 10
39.518991999999997
 20
142.84377900000001
 30
0.0
 11
39.518991999999997
 21
97.158658000000017
 31
0.0
  0
LINE
  5
96
  8
1
 10
90.275655999999998
 20
197.224268
 30
0.0
 11
290.27565600000003
 21
197.224268
 31
0.0
  0
LINE
  5
97
  8
2
 10
278.209024
 20
100.902213
 30
0.0
 11
277.30907100000002
 21
100.00226000000001
 31
0.0
  0
LINE
  5
98
  8
2
 10
282.34280899999999
 20
100.902213
 30
0.0
 11
283.24276200000003
 21
100.00226000000001
 31
0.0
  0
LINE
  5
99
  8
2
 10
282.34280899999999
 20
100.902213
 30
0.0
 11
278.209024
 21
100.902213
 31
0.0
  0
LINE
  5
9A
  8
2
 10
282.34280899999999
 20
114.50212999999999
 30
0.0
 11
280.27591699999999
 21
115.69545100000001
 31
0.0
  0
LINE
  5
9B
  8
2
 10
278.209024
 20
114.50212999999999
 30
0.0
 11
280.27591699999999
 21
115.69545100000001
 31
0.0
  0
LINE
  5
9C
  8
2
 10
282.34280899999999
 20
114.50212999999999
 30
0.0
 11
278.209024
 21
114.50212999999999
 31
0.0
  0
LINE
  5
9D
  8
2
 10
277.77604700000001
 20
112.00226000000001
 30
0.0
 11
282.77578599999998
 21
112.00226000000001
 31
0.0
  0
LINE
  5
9E
  8
2
 10
277.77604700000001
 20
100.469236
 30
0.0
 11
277.77604700000001
 21
112.00226000000001
 31
0.0
  0
LINE
  5
9F
  8
2
 10
278.209024
 20
100.902213
 30
0.0
 11
278.209024
 21
114.50212999999999
 31
0.0
  0
LINE
  5
A0
  8
2
 10
282.34280899999999
 20
100.902213
 30
0.0
 11
282.34280899999999
 21
114.50212999999999
 31
0.0
  0
LINE
  5
A1
  8
2
 10
282.77578599999998
 20
100.469236
 30
0.0
 11
282.77578599999998
 21
112.00226000000001
 31
0.0
  0
LINE
  5
A2
  8
1
 10
341.03232000000003
 20
142.84377900000001
 30
0.0
 11
341.03232000000003
 21
97.158658000000017
 31
0.0
  0
LINE
  5
A3
  8
1
 10
349.87560999999999
 20
135.50041100000001
 30
0.0
 11
332.189031
 21
135.50041100000001
 31
0.0
  0
ARC
  5
A4
  8
0
 10
345.53208599999999
 20
138.50025500000001
 30
0.0
 40
1.4999219999999991
 50
0.0
 51
90.0
  0
ARC
  5
A5
  8
0
 10
336.532555
 20
138.50025500000001
 30
0.0
 40
1.4999219999999991
 50
90.0
 51
180.0
  0
LINE
  5
A6
  8
2
 10
335.03263300000009
 20
131.00064599999999
 30
0.0
 11
347.03200800000002
 21
131.00064599999999
 31
0.0
  0
LINE
  5
A7
  8
0
 10
347.03200800000002
 20
138.50025500000001
 30
0.0
 11
347.03200800000002
 21
100.00226000000001
 31
0.0
  0
LINE
  5
A8
  8
0
 10
336.532555
 20
140.00017700000001
 30
0.0
 11
345.53208599999999
 21
140.00017700000001
 31
0.0
  0
LINE
  5
A9
  8
0
 10
335.03263300000009
 20
100.00226000000001
 30
0.0
 11
335.03263300000009
 21
138.50025500000001
 31
0.0
  0
LINE
  5
AA
  8
0
 10
347.03200800000002
 20
100.00226000000001
 30
0.0
 11
335.03263300000009
 21
100.00226000000001
 31
0.0
  0
TEXT
  5
1C5
  8
0
 62
     3
 10
0.0
 20
0.0
 30
0.0
 40
10.0
  1
UN1-180
  7
STANDARD1
  0
ENDSEC
  0
EOF
