  0
SECTION
  2
HEADER
  9
$ACADVER
  1
AC1009
  9
$INSBASE
 10
0.0
 20
0.0
 30
0.0
  9
$EXTMIN
 10
0.0
 20
-1.4802182810368341
 30
0.0
  9
$EXTMAX
 10
133.6434499999994
 20
104.87320099999999
 30
0.0
  9
$LIMMIN
 10
0.0
 20
0.0
  9
$LIMMAX
 10
1.0
 20
1.0
  9
$ORTHOMODE
 70
     1
  9
$REGENMODE
 70
     1
  9
$FILLMODE
 70
     1
  9
$QTEXTMODE
 70
     0
  9
$MIRRTEXT
 70
     0
  9
$DRAGMODE
 70
     2
  9
$LTSCALE
 40
1.0
  9
$OSMODE
 70
    55
  9
$ATTMODE
 70
     1
  9
$TEXTSIZE
 40
0.2
  9
$TRACEWID
 40
0.05
  9
$TEXTSTYLE
  7
STANDARD
  9
$CLAYER
  8
0
  9
$CELTYPE
  6
BYLAYER
  9
$CECOLOR
 62
   256
  9
$DIMSCALE
 40
1.0
  9
$DIMASZ
 40
1.0
  9
$DIMEXO
 40
1.0
  9
$DIMDLI
 40
6.0
  9
$DIMRND
 40
0.0
  9
$DIMDLE
 40
0.0
  9
$DIMEXE
 40
1.0
  9
$DIMTP
 40
495.0
  9
$DIMTM
 40
0.0
  9
$DIMTXT
 40
1.0
  9
$DIMCEN
 40
0.0
  9
$DIMTSZ
 40
0.0
  9
$DIMTOL
 70
     0
  9
$DIMLIM
 70
     0
  9
$DIMTIH
 70
     0
  9
$DIMTOH
 70
     0
  9
$DIMSE1
 70
     0
  9
$DIMSE2
 70
     0
  9
$DIMTAD
 70
     1
  9
$DIMZIN
 70
     0
  9
$DIMBLK
  1

  9
$DIMASO
 70
     0
  9
$DIMSHO
 70
     0
  9
$DIMPOST
  1

  9
$DIMAPOST
  1

  9
$DIMALT
 70
     0
  9
$DIMALTD
 70
     2
  9
$DIMALTF
 40
25.399999999999999
  9
$DIMLFAC
 40
1.0
  9
$DIMTOFL
 70
     1
  9
$DIMTVP
 40
0.0
  9
$DIMTIX
 70
     1
  9
$DIMSOXD
 70
     0
  9
$DIMSAH
 70
     0
  9
$DIMBLK1
  1

  9
$DIMBLK2
  1

  9
$DIMSTYLE
  2
STANDARD
  9
$DIMCLRD
 70
     0
  9
$DIMCLRE
 70
     0
  9
$DIMCLRT
 70
     0
  9
$DIMTFAC
 40
1.0
  9
$DIMGAP
 40
0.09
  9
$LUNITS
 70
     2
  9
$LUPREC
 70
     2
  9
$SKETCHINC
 40
0.1
  9
$FILLETRAD
 40
0.0
  9
$AUNITS
 70
     0
  9
$AUPREC
 70
     2
  9
$MENU
  1
E:\r13\win\SUPPORT\ACAD
  9
$ELEVATION
 40
0.0
  9
$PELEVATION
 40
0.0
  9
$THICKNESS
 40
0.0
  9
$LIMCHECK
 70
     0
  9
$BLIPMODE
 70
     0
  9
$CHAMFERA
 40
0.0
  9
$CHAMFERB
 40
0.0
  9
$SKPOLY
 70
     0
  9
$TDCREATE
 40
2449840.648553241
  9
$TDUPDATE
 40
2456598.457903842
  9
$TDINDWG
 40
0.0008379514
  9
$TDUSRTIMER
 40
0.0008379514
  9
$USRTIMER
 70
     1
  9
$ANGBASE
 50
0.0
  9
$ANGDIR
 70
     0
  9
$PDMODE
 70
     0
  9
$PDSIZE
 40
0.0
  9
$PLINEWID
 40
0.0
  9
$COORDS
 70
     1
  9
$SPLFRAME
 70
     0
  9
$SPLINETYPE
 70
     6
  9
$SPLINESEGS
 70
     8
  9
$ATTDIA
 70
     0
  9
$ATTREQ
 70
     1
  9
$HANDLING
 70
     1
  9
$HANDSEED
  5
2F7
  9
$SURFTAB1
 70
     6
  9
$SURFTAB2
 70
     6
  9
$SURFTYPE
 70
     6
  9
$SURFU
 70
     6
  9
$SURFV
 70
     6
  9
$UCSNAME
  2

  9
$UCSORG
 10
0.0
 20
0.0
 30
0.0
  9
$UCSXDIR
 10
1.0
 20
0.0
 30
0.0
  9
$UCSYDIR
 10
0.0
 20
1.0
 30
0.0
  9
$PUCSNAME
  2

  9
$PUCSORG
 10
0.0
 20
0.0
 30
0.0
  9
$PUCSXDIR
 10
1.0
 20
0.0
 30
0.0
  9
$PUCSYDIR
 10
0.0
 20
1.0
 30
0.0
  9
$USERI1
 70
     0
  9
$USERI2
 70
     1
  9
$USERI3
 70
     0
  9
$USERI4
 70
     1
  9
$USERI5
 70
     0
  9
$USERR1
 40
0.0
  9
$USERR2
 40
0.0
  9
$USERR3
 40
0.0
  9
$USERR4
 40
0.0
  9
$USERR5
 40
0.0
  9
$WORLDVIEW
 70
     1
  9
$SHADEDGE
 70
     3
  9
$SHADEDIF
 70
    70
  9
$TILEMODE
 70
     1
  9
$MAXACTVP
 70
    16
  9
$PLIMCHECK
 70
     0
  9
$PEXTMIN
 10
1.0000000000000000E+020
 20
1.0000000000000000E+020
 30
1.0000000000000000E+020
  9
$PEXTMAX
 10
-1.0000000000000000E+020
 20
-1.0000000000000000E+020
 30
-1.0000000000000000E+020
  9
$PLIMMIN
 10
0.0
 20
0.0
  9
$PLIMMAX
 10
12.0
 20
9.0
  9
$UNITMODE
 70
     0
  9
$VISRETAIN
 70
     0
  9
$PLINEGEN
 70
     0
  9
$PSLTSCALE
 70
     0
  0
ENDSEC
  0
SECTION
  2
TABLES
  0
TABLE
  2
VPORT
 70
     1
  0
VPORT
  2
*ACTIVE
 70
     0
 10
0.0
 20
0.0
 11
1.0
 21
1.0
 12
66.821725311162652
 22
76.45304586895908
 13
0.0
 23
0.0
 14
1.0
 24
1.0
 15
10.0
 25
10.0
 16
0.0
 26
0.0
 36
1.0
 17
0.0
 27
0.0
 37
0.0
 40
157.24531740407491
 41
1.7807262569832401
 42
50.0
 43
0.0
 44
0.0
 50
0.0
 51
0.0
 71
     0
 72
   100
 73
     1
 74
     0
 75
     0
 76
     0
 77
     0
 78
     0
  0
ENDTAB
  0
TABLE
  2
LTYPE
 70
     3
  0
LTYPE
  2
CONTINUOUS
 70
     0
  3
Solid Line
 72
    65
 73
     0
 40
0.0
  0
LTYPE
  2
CENTER
 70
     0
  3
____ _ ____ _ ____ _ ____ _ ____ _ ____ _ ____
 72
    65
 73
     4
 40
2.0
 49
1.25
 49
-0.25
 49
0.25
 49
-0.25
  0
LTYPE
  2
PHANTOM2
 70
     0
  3
___ _ _ ___ _ _ ___ _ _ ___ _ _
 72
    65
 73
     6
 40
1.25
 49
0.625
 49
-0.125
 49
0.125
 49
-0.125
 49
0.125
 49
-0.125
  0
ENDTAB
  0
TABLE
  2
LAYER
 70
     3
  0
LAYER
  2
0
 70
     0
 62
     7
  6
CONTINUOUS
  0
LAYER
  2
1
 70
     0
 62
     1
  6
CENTER
  0
LAYER
  2
3
 70
     0
 62
     3
  6
CONTINUOUS
  0
ENDTAB
  0
TABLE
  2
STYLE
 70
     2
  0
STYLE
  2
STANDARD
 70
     0
 40
0.0
 41
1.0
 50
0.0
 71
     0
 42
0.2
  3
TXT
  4
BIGFONT
  0
STYLE
  2
STANDARD1
 70
     0
 40
0.0
 41
1.0
 50
0.0
 71
     0
 42
3.0
  3
txt
  4

  0
ENDTAB
  0
TABLE
  2
VIEW
 70
     0
  0
ENDTAB
  0
TABLE
  2
UCS
 70
     0
  0
ENDTAB
  0
TABLE
  2
APPID
 70
     3
  0
APPID
  2
ACAD
 70
     0
  0
APPID
  2
ACAD_MLEADERVER
 70
     0
  0
APPID
  2
ACAD_NAV_VCDISPLAY
 70
     0
  0
ENDTAB
  0
TABLE
  2
DIMSTYLE
 70
     1
  0
DIMSTYLE
  2
STANDARD
 70
     0
  3

  4

  5

  6

  7

 40
1.0
 41
0.18
 42
0.0625
 43
0.38
 44
0.18
 45
0.0
 46
0.0
 47
0.0
 48
0.0
140
0.18
141
0.09
142
0.0
143
25.399999999999999
144
1.0
145
0.0
146
1.0
147
0.09
 71
     0
 72
     0
 73
     1
 74
     1
 75
     0
 76
     0
 77
     0
 78
     0
170
     0
171
     2
172
     0
173
     0
174
     0
175
     0
176
     0
177
     0
178
     0
  0
ENDTAB
  0
ENDSEC
  0
SECTION
  2
BLOCKS
  0
BLOCK
  8
0
  2
$MODEL_SPACE
 70
     0
 10
0.0
 20
0.0
 30
0.0
  3
$MODEL_SPACE
  1

  0
ENDBLK
  5
1B1
  8
0
  0
BLOCK
 67
     1
  8
0
  2
$PAPER_SPACE
 70
     0
 10
0.0
 20
0.0
 30
0.0
  3
$PAPER_SPACE
  1

  0
ENDBLK
  5
1AF
 67
     1
  8
0
  0
BLOCK
  8
0
  2
STDGX5
 70
     0
 10
0.0
 20
0.0
 30
0.0
  3
STDGX5
  1

  0
ENDBLK
  5
BB
  8
0
  0
ENDSEC
  0
SECTION
  2
ENTITIES
  0
INSERT
  5
11D
  8
0
  2
STDGX5
 10
0.0
 20
0.0
 30
0.0
  0
INSERT
  5
11E
  8
0
  2
STDGX5
 10
0.0
 20
0.0
 30
0.0
  0
INSERT
  5
11F
  8
0
  2
STDGX5
 10
275.0
 20
0.0
 30
0.0
  0
INSERT
  5
120
  8
0
  2
STDGX5
 10
275.0
 20
0.0
 30
0.0
  0
LINE
  5
129
  8
1
 10
77.5
 20
63.182569000051913
 30
0.0
 11
77.5
 21
45.6825690000517
 31
0.0
  0
ARC
  5
12A
  8
0
 10
82.270631577569276
 20
55.6825690000517
 30
0.0
 40
0.5
 50
184.99999999999969
 51
270.0
  0
LINE
  5
12B
  8
0
 10
84.412132034339294
 20
53.670436965689483
 30
0.0
 11
80.512132034327465
 21
49.770436965677597
 31
0.0
  0
LINE
  5
12C
  8
0
 10
81.275100647782281
 20
58.182569000021097
 30
0.0
 11
73.72489935219275
 21
58.182569000074437
 31
0.0
  0
ARC
  5
12D
  8
0
 10
74.700000000028467
 20
49.982569000033578
 30
0.0
 40
0.3
 50
225.0
 51
270.0
  0
LINE
  5
12E
  8
0
 10
73.615432893222248
 20
58.161884403089012
 30
0.0
 11
73.615432893222248
 21
50.642872038127912
 31
0.0
  0
LINE
  5
12F
  8
0
 10
70.587867965627254
 20
53.670436965722793
 30
0.0
 11
73.615432893222362
 21
50.642872038127912
 31
0.0
  0
LINE
  5
130
  8
0
 10
73.615432893222362
 20
50.642872038127912
 30
0.0
 11
74.48786796567245
 21
49.770436965677597
 31
0.0
  0
LINE
  5
131
  8
0
 10
72.729368422396874
 20
55.1825690000517
 30
0.0
 11
70.799999999983157
 21
55.1825690000517
 31
0.0
  0
ARC
  5
132
  8
0
 10
70.799999999983314
 20
53.882569000078867
 30
0.0
 40
0.3
 50
180.00000000000321
 51
225.0
  0
ARC
  5
133
  8
0
 10
70.799999999983271
 20
54.882569000051639
 30
0.0
 40
0.3
 50
90.0
 51
180.0
  0
LINE
  5
134
  8
0
 10
70.499999999983174
 20
54.882569000051639
 30
0.0
 11
70.49999999998326
 21
53.882569000078867
 31
0.0
  0
LINE
  5
135
  8
0
 10
73.227465771442752
 20
55.63899112867788
 30
0.0
 11
73.426040942763166
 21
57.908715722898762
 31
0.0
  0
ARC
  5
136
  8
0
 10
72.729368422396874
 20
55.6825690000517
 30
0.0
 40
0.5
 50
270.0
 51
355.00000000000028
  0
ARC
  5
137
  8
0
 10
73.724899352190675
 20
57.882569000074611
 30
0.0
 40
0.3
 50
89.999999999589633
 51
111.400702292801
  0
ARC
  5
138
  8
0
 10
73.724899352190675
 20
57.882569000074611
 30
0.0
 40
0.3
 50
111.400702292801
 51
174.99999999999849
  0
LINE
  5
139
  8
0
 10
74.700000000028467
 20
49.682569000033602
 30
0.0
 11
80.299999999971433
 21
49.682569000033602
 31
0.0
  0
ARC
  5
13A
  8
0
 10
80.299999999971575
 20
49.982569000033578
 30
0.0
 40
0.3
 50
270.0
 51
315.0
  0
LINE
  5
13B
  8
0
 10
81.77253422852317
 20
55.63899112867788
 30
0.0
 11
81.573959057207645
 21
57.908715722844988
 31
0.0
  0
ARC
  5
13C
  8
0
 10
81.275100647780164
 20
57.882569000020567
 30
0.0
 40
0.3
 50
4.9999999999997433
 51
89.999999999589633
  0
LINE
  5
13D
  8
0
 10
84.199999999983135
 20
55.1825690000517
 30
0.0
 11
82.270631577569134
 21
55.1825690000517
 31
0.0
  0
ARC
  5
13E
  8
0
 10
84.199999999983277
 20
53.8825690000455
 30
0.0
 40
0.3
 50
315.0
 51
0.0
  0
ARC
  5
13F
  8
0
 10
84.199999999983277
 20
54.88256900005161
 30
0.0
 40
0.3
 50
0.0
 51
90.0
  0
LINE
  5
140
  8
0
 10
84.499999999983288
 20
54.88256900005161
 30
0.0
 11
84.499999999983288
 21
53.8825690000455
 31
0.0
  0
LINE
  5
141
  8
1
 10
77.5
 20
80.873200999999995
 30
0.0
 11
77.5
 21
104.87320099999999
 31
0.0
  0
ARC
  5
143
  8
0
 10
77.54999999999967
 20
92.99391167812496
 30
0.0
 40
4.0
 50
315.0
 51
0.0
  0
LINE
  5
144
  8
0
 10
73.61543289324527
 20
83.402490321878304
 30
0.0
 11
84.412132034356404
 21
94.199189462989395
 31
0.0
  0
LINE
  5
145
  8
0
 10
70.500000000000568
 20
91.33508050266289
 30
0.0
 11
70.500000000000384
 21
83.673200999994492
 31
0.0
  0
LINE
  5
146
  8
0
 10
73.449999999999534
 20
92.873200999994083
 30
0.0
 11
73.449999999999534
 21
83.47320099999439
 31
0.0
  0
LINE
  5
147
  8
0
 10
70.800000000000466
 20
83.373200999994395
 30
0.0
 11
73.449999999999534
 21
83.373200999994395
 31
0.0
  0
ARC
  5
148
  8
0
 10
70.800000000000551
 20
83.673200999994492
 30
0.0
 40
0.3
 50
180.0
 51
270.0
  0
LINE
  5
149
  8
0
 10
73.449999999999534
 20
83.373200999994395
 30
0.0
 11
73.544722215123869
 21
83.373200999994395
 31
0.0
  0
ARC
  5
14A
  8
0
 10
73.54999999999967
 20
83.47320099999439
 30
0.0
 40
0.1
 50
180.0
 51
270.0
  0
ARC
  5
14B
  8
0
 10
73.544722215123869
 20
83.47320099999439
 30
0.0
 40
0.1
 50
270.0
 51
315.0
  0
LINE
  5
14C
  8
1
 10
85.5
 20
92.873200999999995
 30
0.0
 11
69.5
 21
92.873200999999995
 31
0.0
  0
LINE
  5
14D
  8
0
 10
81.549999999999557
 20
102.3732009999944
 30
0.0
 11
84.200000000000344
 21
102.3732009999944
 31
0.0
  0
LINE
  5
14E
  8
0
 10
81.549999999999557
 20
102.2732009999943
 30
0.0
 11
81.549999999999557
 21
92.873200999994083
 31
0.0
  0
LINE
  5
14F
  8
0
 10
81.384567106738587
 20
102.3439116781131
 30
0.0
 11
70.587867965644449
 21
91.547212537018879
 31
0.0
  0
ARC
  5
150
  8
0
 10
70.800000000000551
 20
91.33508050266289
 30
0.0
 40
0.3
 50
135.0
 51
180.0
  0
ARC
  5
151
  8
0
 10
77.449999999999534
 20
92.752490321881595
 30
0.0
 40
4.0
 50
135.0
 51
178.27147149200741
  0
ARC
  5
152
  8
0
 10
77.449999999999534
 20
92.752490321881595
 30
0.0
 40
4.0
 50
178.27147149200741
 51
180.0
  0
CIRCLE
  5
153
  8
0
 10
77.5
 20
92.873200999999995
 30
0.0
 40
1.2295
  0
CIRCLE
  5
154
  8
3
 10
77.5
 20
92.873200999999995
 30
0.0
 40
1.5
  0
LINE
  5
155
  8
0
 10
81.455277784857273
 20
102.3732009999944
 30
0.0
 11
81.549999999999557
 21
102.3732009999944
 31
0.0
  0
ARC
  5
156
  8
0
 10
81.449999999999477
 20
102.2732009999943
 30
0.0
 40
0.1
 50
0.0
 51
90.0
  0
ARC
  5
157
  8
0
 10
81.455277784857373
 20
102.2732009999943
 30
0.0
 40
0.1
 50
90.0
 51
135.0
  0
ARC
  5
158
  8
0
 10
84.200000000000344
 20
102.0732009999944
 30
0.0
 40
0.3
 50
0.0
 51
90.0
  0
LINE
  5
159
  8
0
 10
84.500000000000455
 20
102.0732009999944
 30
0.0
 11
84.500000000000455
 21
94.411321497345455
 31
0.0
  0
ARC
  5
15A
  8
0
 10
84.200000000000344
 20
94.411321497345455
 30
0.0
 40
0.3
 50
315.0
 51
0.0
  0
LINE
  5
166
  8
0
 10
115.72801710680621
 20
49.682569000033602
 30
0.0
 11
133.4434499999993
 21
49.682569000033602
 31
0.0
  0
LINE
  5
167
  8
0
 10
125.228017106761
 20
55.182569000051593
 30
0.0
 11
133.6434499999994
 21
55.18256900005111
 31
0.0
  0
LINE
  5
168
  8
0
 10
114.84344999999909
 20
58.18256899998557
 30
0.0
 11
133.44344999999851
 21
58.182569000072938
 31
0.0
  0
LINE
  5
169
  8
1
 10
124.14345
 20
63.1825690000516
 30
0.0
 11
124.14345
 21
45.682569000051359
 31
0.0
  0
LINE
  5
16A
  8
0
 10
114.64345
 20
57.982569000073909
 30
0.0
 11
114.64345
 21
50.725714750602471
 31
0.0
  0
LINE
  5
16B
  8
0
 10
114.7020286437628
 20
50.584293394365098
 30
0.0
 11
115.5158850724503
 21
49.770436965677597
 31
0.0
  0
ARC
  5
16C
  8
0
 10
115.72801710680621
 20
49.982569000033529
 30
0.0
 40
0.3
 50
225.0
 51
270.0
  0
ARC
  5
16D
  8
0
 10
114.84345
 20
50.725714750602471
 30
0.0
 40
0.2
 50
180.0
 51
225.0
  0
ARC
  5
16E
  8
0
 10
114.84345
 20
57.982569000073767
 30
0.0
 40
0.2
 50
89.999999999592873
 51
180.0
  0
LINE
  5
16F
  8
0
 10
125.4401491411169
 20
53.670436965689369
 30
0.0
 11
121.5401491411052
 21
49.770436965677597
 31
0.0
  0
ARC
  5
170
  8
0
 10
121.3280171067493
 20
49.982569000033529
 30
0.0
 40
0.3
 50
270.0
 51
315.0
  0
LINE
  5
171
  8
0
 10
125.228017106761
 20
55.182569000051593
 30
0.0
 11
123.3264739410256
 21
55.182569000051593
 31
0.0
  0
LINE
  5
172
  8
0
 10
122.6073552610478
 20
58.18256900005148
 30
0.0
 11
122.8283509531191
 21
55.639285181839398
 31
0.0
  0
ARC
  5
173
  8
0
 10
123.3264739410256
 20
55.682569000051359
 30
0.0
 40
0.4999999999999912
 50
184.96617614796321
 51
270.0
  0
LINE
  5
174
  8
0
 10
125.528017106761
 20
54.88256900005161
 30
0.0
 11
125.528017106761
 21
53.882569000045422
 31
0.0
  0
ARC
  5
175
  8
0
 10
125.228017106761
 20
54.88256900005161
 30
0.0
 40
0.3
 50
0.0
 51
90.0
  0
ARC
  5
176
  8
0
 10
125.228017106761
 20
53.882569000045422
 30
0.0
 40
0.3
 50
315.0
 51
0.0
  0
LINE
  5
177
  8
0
 10
133.6434499999994
 20
57.982569000072807
 30
0.0
 11
133.6434499999994
 21
49.882569000032909
 31
0.0
  0
ARC
  5
178
  8
0
 10
133.4434499999993
 20
49.882569000032909
 30
0.0
 40
0.2
 50
269.9999999999967
 51
0.0
  0
ARC
  5
179
  8
0
 10
133.4434499999993
 20
57.982569000072807
 30
0.0
 40
0.2
 50
0.0
 51
90.000000000270305
  0
TEXT
  5
262
  8
0
 62
     3
 10
0.0
 20
0.0
 30
0.0
 40
5.0
  1
TZN3
  7
STANDARD1
  0
ENDSEC
  0
EOF
