  0
SECTION
  2
HEADER
  9
$ACADVER
  1
AC1009
  9
$INSBASE
 10
0.0
 20
0.0
 30
0.0
  9
$EXTMIN
 10
0.0
 20
-2.960436562073669
 30
0.0
  9
$EXTMAX
 10
423.4183070848801
 20
257.13756639974793
 30
0.0
  9
$LIMMIN
 10
0.0
 20
0.0
  9
$LIMMAX
 10
375.0
 20
270.0
  9
$ORTHOMODE
 70
     1
  9
$REGENMODE
 70
     1
  9
$FILLMODE
 70
     1
  9
$QTEXTMODE
 70
     0
  9
$MIRRTEXT
 70
     0
  9
$DRAGMODE
 70
     2
  9
$LTSCALE
 40
10.0
  9
$OSMODE
 70
    55
  9
$ATTMODE
 70
     1
  9
$TEXTSIZE
 40
0.2
  9
$TRACEWID
 40
0.05
  9
$TEXTSTYLE
  7
STANDARD
  9
$CLAYER
  8
0
  9
$CELTYPE
  6
BYLAYER
  9
$CECOLOR
 62
   256
  9
$DIMSCALE
 40
1.0
  9
$DIMASZ
 40
3.0
  9
$DIMEXO
 40
2.0
  9
$DIMDLI
 40
0.38
  9
$DIMRND
 40
0.0
  9
$DIMDLE
 40
0.0
  9
$DIMEXE
 40
2.0
  9
$DIMTP
 40
0.0
  9
$DIMTM
 40
0.0
  9
$DIMTXT
 40
3.2000000000000002
  9
$DIMCEN
 40
0.0
  9
$DIMTSZ
 40
0.0
  9
$DIMTOL
 70
     0
  9
$DIMLIM
 70
     0
  9
$DIMTIH
 70
     0
  9
$DIMTOH
 70
     0
  9
$DIMSE1
 70
     0
  9
$DIMSE2
 70
     0
  9
$DIMTAD
 70
     1
  9
$DIMZIN
 70
     8
  9
$DIMBLK
  1

  9
$DIMASO
 70
     1
  9
$DIMSHO
 70
     0
  9
$DIMPOST
  1

  9
$DIMAPOST
  1

  9
$DIMALT
 70
     0
  9
$DIMALTD
 70
     2
  9
$DIMALTF
 40
25.399999999999999
  9
$DIMLFAC
 40
1.0
  9
$DIMTOFL
 70
     1
  9
$DIMTVP
 40
1.6000000000000001
  9
$DIMTIX
 70
     1
  9
$DIMSOXD
 70
     0
  9
$DIMSAH
 70
     0
  9
$DIMBLK1
  1

  9
$DIMBLK2
  1

  9
$DIMSTYLE
  2
STANDARD
  9
$DIMCLRD
 70
     0
  9
$DIMCLRE
 70
     0
  9
$DIMCLRT
 70
     0
  9
$DIMTFAC
 40
1.0
  9
$DIMGAP
 40
1.5
  9
$LUNITS
 70
     2
  9
$LUPREC
 70
     4
  9
$SKETCHINC
 40
0.1
  9
$FILLETRAD
 40
0.0
  9
$AUNITS
 70
     1
  9
$AUPREC
 70
     4
  9
$MENU
  1
E:\r13\win\SUPPORT\ACAD
  9
$ELEVATION
 40
0.0
  9
$PELEVATION
 40
0.0
  9
$THICKNESS
 40
0.0
  9
$LIMCHECK
 70
     0
  9
$BLIPMODE
 70
     0
  9
$CHAMFERA
 40
0.0
  9
$CHAMFERB
 40
0.0
  9
$SKPOLY
 70
     0
  9
$TDCREATE
 40
2449839.7800462958
  9
$TDUPDATE
 40
2456598.4537094911
  9
$TDINDWG
 40
1.1343937037
  9
$TDUSRTIMER
 40
1.1343937037
  9
$USRTIMER
 70
     1
  9
$ANGBASE
 50
0.0
  9
$ANGDIR
 70
     0
  9
$PDMODE
 70
     0
  9
$PDSIZE
 40
0.0
  9
$PLINEWID
 40
0.0
  9
$COORDS
 70
     1
  9
$SPLFRAME
 70
     0
  9
$SPLINETYPE
 70
     6
  9
$SPLINESEGS
 70
     8
  9
$ATTDIA
 70
     0
  9
$ATTREQ
 70
     1
  9
$HANDLING
 70
     1
  9
$HANDSEED
  5
AC19
  9
$SURFTAB1
 70
     6
  9
$SURFTAB2
 70
     6
  9
$SURFTYPE
 70
     6
  9
$SURFU
 70
     6
  9
$SURFV
 70
     6
  9
$UCSNAME
  2

  9
$UCSORG
 10
0.0
 20
0.0
 30
0.0
  9
$UCSXDIR
 10
1.0
 20
0.0
 30
0.0
  9
$UCSYDIR
 10
0.0
 20
1.0
 30
0.0
  9
$PUCSNAME
  2

  9
$PUCSORG
 10
0.0
 20
0.0
 30
0.0
  9
$PUCSXDIR
 10
1.0
 20
0.0
 30
0.0
  9
$PUCSYDIR
 10
0.0
 20
1.0
 30
0.0
  9
$USERI1
 70
     0
  9
$USERI2
 70
     1
  9
$USERI3
 70
     1
  9
$USERI4
 70
     0
  9
$USERI5
 70
     0
  9
$USERR1
 40
0.0
  9
$USERR2
 40
0.0
  9
$USERR3
 40
0.0
  9
$USERR4
 40
0.0
  9
$USERR5
 40
0.0
  9
$WORLDVIEW
 70
     1
  9
$SHADEDGE
 70
     3
  9
$SHADEDIF
 70
    70
  9
$TILEMODE
 70
     1
  9
$MAXACTVP
 70
    16
  9
$PLIMCHECK
 70
     0
  9
$PEXTMIN
 10
1.0000000000000000E+020
 20
1.0000000000000000E+020
 30
1.0000000000000000E+020
  9
$PEXTMAX
 10
-1.0000000000000000E+020
 20
-1.0000000000000000E+020
 30
-1.0000000000000000E+020
  9
$PLIMMIN
 10
0.0
 20
0.0
  9
$PLIMMAX
 10
12.0
 20
9.0
  9
$UNITMODE
 70
     0
  9
$VISRETAIN
 70
     0
  9
$PLINEGEN
 70
     0
  9
$PSLTSCALE
 70
     0
  0
ENDSEC
  0
SECTION
  2
TABLES
  0
TABLE
  2
VPORT
 70
     1
  0
VPORT
  2
*ACTIVE
 70
     0
 10
0.0
 20
0.0
 11
1.0
 21
1.0
 12
211.7091545282878
 22
197.0509055860143
 13
0.0
 23
0.0
 14
10.0
 24
10.0
 15
10.0
 25
10.0
 16
0.0
 26
0.0
 36
1.0
 17
0.0
 27
0.0
 37
0.0
 40
403.57315882993248
 41
1.7807262569832401
 42
50.0
 43
0.0
 44
0.0
 50
0.0
 51
0.0
 71
     0
 72
   500
 73
     1
 74
     0
 75
     0
 76
     0
 77
     0
 78
     2
  0
ENDTAB
  0
TABLE
  2
LTYPE
 70
     4
  0
LTYPE
  2
CONTINUOUS
 70
     0
  3
Solid Line
 72
    65
 73
     0
 40
0.0
  0
LTYPE
  2
CENTER
 70
     0
  3
____ _ ____ _ ____ _ ____ _ ____ _ ____ _ ____
 72
    65
 73
     4
 40
2.0
 49
1.25
 49
-0.25
 49
0.25
 49
-0.25
  0
LTYPE
  2
HIDDEN
 70
     0
  3
_ _ _ _ _ _ _ _ _ _ _ _ _ _ _ _ _ _ _ _ _ _ _
 72
    65
 73
     2
 40
0.375
 49
0.25
 49
-0.125
  0
LTYPE
  2
PHANTOM2
 70
     0
  3
___ _ _ ___ _ _ ___ _ _ ___ _ _
 72
    65
 73
     6
 40
1.25
 49
0.625
 49
-0.125
 49
0.125
 49
-0.125
 49
0.125
 49
-0.125
  0
ENDTAB
  0
TABLE
  2
LAYER
 70
     4
  0
LAYER
  2
0
 70
     0
 62
     7
  6
CONTINUOUS
  0
LAYER
  2
1
 70
     0
 62
     1
  6
CENTER
  0
LAYER
  2
2
 70
     0
 62
     2
  6
HIDDEN
  0
LAYER
  2
DEFPOINTS
 70
     0
 62
     7
  6
CONTINUOUS
  0
ENDTAB
  0
TABLE
  2
STYLE
 70
     2
  0
STYLE
  2
STANDARD
 70
     0
 40
0.0
 41
1.0
 50
0.0
 71
     0
 42
0.2
  3
TXT
  4
BIGFONT
  0
STYLE
  2
STANDARD1
 70
     0
 40
0.0
 41
1.0
 50
0.0
 71
     0
 42
3.0
  3
txt
  4

  0
ENDTAB
  0
TABLE
  2
VIEW
 70
     1
  0
VIEW
  2
ALL
 70
     0
 40
270.0
 10
220.99159663865549
 20
135.0
 41
0.0
 11
0.0
 21
0.0
 31
1.0
 12
0.0
 22
0.0
 32
0.0
 42
0.0
 43
0.0
 44
0.0
 50
0.0
 71
     0
  0
ENDTAB
  0
TABLE
  2
UCS
 70
     0
  0
ENDTAB
  0
TABLE
  2
APPID
 70
     8
  0
APPID
  2
ACAD
 70
     0
  0
APPID
  2
ACAD_MLEADERVER
 70
     0
  0
APPID
  2
ACAD_EXEMPT_FROM_CAD_STANDARDS
 70
     0
  0
APPID
  2
ACAD_DSTYLE_DIMJAG
 70
     0
  0
APPID
  2
ACAD_DSTYLE_DIMTALN
 70
     0
  0
APPID
  2
ACAD_DSTYLE_DIMRADIAL_EXTENSION
 70
     0
  0
APPID
  2
ACAD_PSEXT
 70
     0
  0
APPID
  2
ACAD_NAV_VCDISPLAY
 70
     0
  0
ENDTAB
  0
TABLE
  2
DIMSTYLE
 70
     1
  0
DIMSTYLE
  2
STANDARD
 70
     0
  3

  4

  5

  6

  7

 40
1.0
 41
0.18
 42
0.0625
 43
0.38
 44
0.18
 45
0.0
 46
0.0
 47
0.0
 48
0.0
140
0.18
141
0.09
142
0.0
143
25.399999999999999
144
1.0
145
0.0
146
1.0
147
0.09
 71
     0
 72
     0
 73
     1
 74
     1
 75
     0
 76
     0
 77
     0
 78
     0
170
     0
171
     2
172
     0
173
     0
174
     0
175
     0
176
     0
177
     0
178
     0
  0
ENDTAB
  0
ENDSEC
  0
SECTION
  2
BLOCKS
  0
BLOCK
  8
0
  2
$MODEL_SPACE
 70
     0
 10
0.0
 20
0.0
 30
0.0
  3
$MODEL_SPACE
  1

  0
ENDBLK
  5
11B
  8
0
  0
BLOCK
 67
     1
  8
0
  2
$PAPER_SPACE
 70
     0
 10
0.0
 20
0.0
 30
0.0
  3
$PAPER_SPACE
  1

  0
ENDBLK
  5
119
 67
     1
  8
0
  0
ENDSEC
  0
SECTION
  2
ENTITIES
  0
LINE
  5
A1E2
  8
1
 10
300.06155571565068
 20
231.6977347378099
 30
0.0
 11
300.06155571565068
 21
249.46047643760741
 31
0.0
  0
LINE
  5
A1E3
  8
1
 10
310.81155571565068
 20
240.57910558770871
 30
0.0
 11
289.31155571565068
 21
240.57910558770871
 31
0.0
  0
CIRCLE
  5
A1E4
  8
0
 10
300.06155571565068
 20
211.57910558770871
 30
0.0
 40
40.0
  0
CIRCLE
  5
A1E5
  8
0
 10
300.06155571565068
 20
211.57910558770871
 30
0.0
 40
37.011116267051143
  0
ARC
  5
A1E6
  8
0
 10
300.06155571565068
 20
211.9659537498392
 30
0.0
 40
29.718758079557649
 50
105.6160786128399
 51
74.383921387160072
  0
ARC
  5
A1E7
  8
0
 10
300.06155571565068
 20
211.57910558770871
 30
0.0
 40
11.49999999999998
 50
312.36979856937972
 51
56.274310541348598
  0
ARC
  5
A1E8
  8
0
 10
300.06155571565068
 20
211.57910558770871
 30
0.0
 40
11.49999999999998
 50
123.7256894586491
 51
227.63020143062849
  0
POLYLINE
  5
A1E9
  8
0
 66
     1
 10
0.0
 20
0.0
 30
0.0
  0
VERTEX
  5
A50D
  8
0
 10
284.63994051375039
 20
234.4520720657122
 30
0.0
  0
VERTEX
  5
A50E
  8
0
 10
284.65427085361358
 20
234.46163332712899
 30
0.0
  0
VERTEX
  5
A50F
  8
0
 10
284.68333767301522
 20
234.480420264081
 30
0.0
  0
VERTEX
  5
A510
  8
0
 10
284.71293266282782
 20
234.49873951149431
 30
0.0
  0
VERTEX
  5
A511
  8
0
 10
284.7279229898877
 20
234.50771636259259
 30
0.0
  0
VERTEX
  5
A512
  8
0
 10
284.74303896954279
 20
234.5165675390738
 30
0.0
  0
VERTEX
  5
A513
  8
0
 10
284.77363887471131
 20
234.53388175519939
 30
0.0
  0
VERTEX
  5
A514
  8
0
 10
284.80471389808122
 20
234.5506605753246
 30
0.0
  0
VERTEX
  5
A515
  8
0
 10
284.8362449058929
 20
234.5668834799155
 30
0.0
  0
VERTEX
  5
A516
  8
0
 10
284.86821222460799
 20
234.58253106207869
 30
0.0
  0
VERTEX
  5
A517
  8
0
 10
284.90059576029643
 20
234.5975850648758
 30
0.0
  0
VERTEX
  5
A518
  8
0
 10
284.91693724589589
 20
234.6048840899968
 30
0.0
  0
VERTEX
  5
A519
  8
0
 10
284.93337512385602
 20
234.6120284082206
 30
0.0
  0
VERTEX
  5
A51A
  8
0
 10
284.96652976169372
 20
234.62584520490711
 30
0.0
  0
VERTEX
  5
A51B
  8
0
 10
285.00003897021799
 20
234.63902071909871
 30
0.0
  0
VERTEX
  5
A51C
  8
0
 10
285.03388147857629
 20
234.65154117344599
 30
0.0
  0
VERTEX
  5
A51D
  8
0
 10
285.06803529735748
 20
234.66339370765601
 30
0.0
  0
VERTEX
  5
A51E
  8
0
 10
285.10247781551152
 20
234.67456643829081
 30
0.0
  0
VERTEX
  5
A51F
  8
0
 10
285.11980012706317
 20
234.6798944438317
 30
0.0
  0
VERTEX
  5
A520
  8
0
 10
285.13718590678258
 20
234.68504851082821
 30
0.0
  0
VERTEX
  5
A521
  8
0
 10
285.17213603861609
 20
234.69483014114959
 30
0.0
  0
VERTEX
  5
A522
  8
0
 10
285.20730438365058
 20
234.70390264662069
 30
0.0
  0
VERTEX
  5
A523
  8
0
 10
285.22496288750409
 20
234.70817057071619
 30
0.0
  0
VERTEX
  5
A524
  8
0
 10
285.24266693392178
 20
234.712258466827
 30
0.0
  0
VERTEX
  5
A525
  8
0
 10
285.27819961789118
 20
234.71989117396271
 30
0.0
  0
VERTEX
  5
A526
  8
0
 10
285.31387846862623
 20
234.72679548159451
 30
0.0
  0
VERTEX
  5
A527
  8
0
 10
285.33176728347303
 20
234.72997348814559
 30
0.0
  0
VERTEX
  5
A528
  8
0
 10
285.34968675358368
 20
234.7329683632081
 30
0.0
  0
VERTEX
  5
A529
  8
0
 10
285.38560557329811
 20
234.73840695032891
 30
0.0
  0
VERTEX
  5
A52A
  8
0
 10
285.42161044315571
 20
234.74310833950929
 30
0.0
  0
VERTEX
  5
A52B
  8
0
 10
285.4576764579424
 20
234.7470706751362
 30
0.0
  0
VERTEX
  5
A52C
  8
0
 10
285.4937784045382
 20
234.75029318975089
 30
0.0
  0
VERTEX
  5
A52D
  8
0
 10
285.52989087511878
 20
234.75277623349189
 30
0.0
  0
VERTEX
  5
A52E
  8
0
 10
285.54794309170251
 20
234.75374087362911
 30
0.0
  0
VERTEX
  5
A52F
  8
0
 10
285.56598838092168
 20
234.754521292851
 30
0.0
  0
VERTEX
  5
A530
  8
0
 10
285.6020454666907
 20
234.75553099884681
 30
0.0
  0
VERTEX
  5
A531
  8
0
 10
285.63803682594721
 20
234.7558091246631
 30
0.0
  0
VERTEX
  5
A532
  8
0
 10
285.67393741727079
 20
234.7553605726973
 30
0.0
  0
VERTEX
  5
A533
  8
0
 10
285.70972256148042
 20
234.75419135176321
 30
0.0
  0
VERTEX
  5
A534
  8
0
 10
285.7453676919672
 20
234.75230856771461
 30
0.0
  0
VERTEX
  5
A535
  8
0
 10
285.76312999671109
 20
234.75110211877771
 30
0.0
  0
VERTEX
  5
A536
  8
0
 10
285.78084795822201
 20
234.7497204596477
 30
0.0
  0
VERTEX
  5
A537
  8
0
 10
285.81613828093373
 20
234.74643644044841
 30
0.0
  0
VERTEX
  5
A538
  8
0
 10
285.85121347846001
 20
234.7424671249326
 30
0.0
  0
VERTEX
  5
A539
  8
0
 10
285.88604839103141
 20
234.73782434614921
 30
0.0
  0
VERTEX
  5
A53A
  8
0
 10
285.92061800272182
 20
234.7325211601603
 30
0.0
  0
VERTEX
  5
A53B
  8
0
 10
285.9548975613522
 20
234.72657183952629
 30
0.0
  0
VERTEX
  5
A53C
  8
0
 10
285.97192093692797
 20
234.7233596674044
 30
0.0
  0
VERTEX
  5
A53D
  8
0
 10
285.98886269659278
 20
234.7199918556164
 30
0.0
  0
VERTEX
  5
A53E
  8
0
 10
286.02248953662252
 20
234.7127978497476
 30
0.0
  0
VERTEX
  5
A53F
  8
0
 10
286.0558519477612
 20
234.70498385836601
 30
0.0
  0
VERTEX
  5
A540
  8
0
 10
286.08922906285329
 20
234.69648286867849
 30
0.0
  0
VERTEX
  5
A541
  8
0
 10
286.12261513807971
 20
234.6872854116321
 30
0.0
  0
VERTEX
  5
A542
  8
0
 10
286.1559822963963
 20
234.67738821732809
 30
0.0
  0
VERTEX
  5
A543
  8
0
 10
286.17265010192551
 20
234.67217653039759
 30
0.0
  0
VERTEX
  5
A544
  8
0
 10
286.18930278830038
 20
234.66678923290721
 30
0.0
  0
VERTEX
  5
A545
  8
0
 10
286.22254910363313
 20
234.655487592546
 30
0.0
  0
VERTEX
  5
A546
  8
0
 10
286.2556940792345
 20
234.64348357747511
 30
0.0
  0
VERTEX
  5
A547
  8
0
 10
286.2887110027475
 20
234.63077856596351
 30
0.0
  0
VERTEX
  5
A548
  8
0
 10
286.32157371273621
 20
234.6173749731467
 30
0.0
  0
VERTEX
  5
A549
  8
0
 10
286.35425669517639
 20
234.60327618053751
 30
0.0
  0
VERTEX
  5
A54A
  8
0
 10
286.37052301537318
 20
234.59596738556161
 30
0.0
  0
VERTEX
  5
A54B
  8
0
 10
286.3867351748699
 20
234.58848645566579
 30
0.0
  0
VERTEX
  5
A54C
  8
0
 10
286.41898505687612
 20
234.5730109331237
 30
0.0
  0
VERTEX
  5
A54D
  8
0
 10
286.45098251744548
 20
234.55685578631821
 30
0.0
  0
VERTEX
  5
A54E
  8
0
 10
286.4668791950894
 20
234.54852558299649
 30
0.0
  0
VERTEX
  5
A54F
  8
0
 10
286.48270392731689
 20
234.5400282829207
 30
0.0
  0
VERTEX
  5
A550
  8
0
 10
286.5141259561492
 20
234.52253675380169
 30
0.0
  0
VERTEX
  5
A551
  8
0
 10
286.54522567410658
 20
234.50439055239741
 30
0.0
  0
VERTEX
  5
A552
  8
0
 10
286.56064763416498
 20
234.49507514031691
 30
0.0
  0
VERTEX
  5
A553
  8
0
 10
286.57598064777977
 20
234.48560000597379
 30
0.0
  0
VERTEX
  5
A554
  8
0
 10
286.60636903065262
 20
234.46617635880261
 30
0.0
  0
VERTEX
  5
A555
  8
0
 10
286.63636964827452
 20
234.44613170720569
 30
0.0
  0
VERTEX
  5
A556
  8
0
 10
286.66596207824091
 20
234.4254789263843
 30
0.0
  0
VERTEX
  5
A557
  8
0
 10
286.69512680317598
 20
234.40423153071771
 30
0.0
  0
VERTEX
  5
A558
  8
0
 10
286.72385076286901
 20
234.38239931565269
 30
0.0
  0
VERTEX
  5
A559
  8
0
 10
286.73804298860318
 20
234.3712674143396
 30
0.0
  0
VERTEX
  5
A55A
  8
0
 10
286.75211898009883
 20
234.35999416844589
 30
0.0
  0
VERTEX
  5
A55B
  8
0
 10
286.77991322170851
 20
234.337031569022
 30
0.0
  0
VERTEX
  5
A55C
  8
0
 10
286.80721572098582
 20
234.3135279668675
 30
0.0
  0
VERTEX
  5
A55D
  8
0
 10
286.83400927540413
 20
234.2895007304721
 30
0.0
  0
VERTEX
  5
A55E
  8
0
 10
286.86027733748369
 20
234.26496808974909
 30
0.0
  0
VERTEX
  5
A55F
  8
0
 10
286.88600409896299
 20
234.23994907146081
 30
0.0
  0
VERTEX
  5
A560
  8
0
 10
286.89865977326548
 20
234.2272633170098
 30
0.0
  0
VERTEX
  5
A561
  8
0
 10
286.91117456844489
 20
234.2144634276313
 30
0.0
  0
VERTEX
  5
A562
  8
0
 10
286.93577464265542
 20
234.18853155682089
 30
0.0
  0
VERTEX
  5
A563
  8
0
 10
286.95979117141292
 20
234.16217441808951
 30
0.0
  0
VERTEX
  5
A564
  8
0
 10
286.98321200581631
 20
234.1354134496689
 30
0.0
  0
VERTEX
  5
A565
  8
0
 10
287.0060258435314
 20
234.10827072155621
 30
0.0
  0
VERTEX
  5
A566
  8
0
 10
287.02822199370172
 20
234.08076923651041
 30
0.0
  0
VERTEX
  5
A567
  8
0
 10
287.03908527518678
 20
234.06689140407869
 30
0.0
  0
VERTEX
  5
A568
  8
0
 10
287.04979043440972
 20
234.05293292549439
 30
0.0
  0
VERTEX
  5
A569
  8
0
 10
287.07072191245823
 20
234.0247865813019
 30
0.0
  0
VERTEX
  5
A56A
  8
0
 10
287.09100803404561
 20
233.99635578615491
 30
0.0
  0
VERTEX
  5
A56B
  8
0
 10
287.11064134654771
 20
233.96766683342429
 30
0.0
  0
VERTEX
  5
A56C
  8
0
 10
287.1296154116535
 20
233.93874664345799
 30
0.0
  0
VERTEX
  5
A56D
  8
0
 10
287.14792487008071
 20
233.90962267336749
 30
0.0
  0
VERTEX
  5
A56E
  8
0
 10
287.15682900613177
 20
233.8949929742746
 30
0.0
  0
VERTEX
  5
A56F
  8
0
 10
287.16556549807899
 20
233.8803228204963
 30
0.0
  0
VERTEX
  5
A570
  8
0
 10
287.1825738092781
 20
233.85080513230261
 30
0.0
  0
VERTEX
  5
A571
  8
0
 10
287.19911204762911
 20
233.82078371284319
 30
0.0
  0
VERTEX
  5
A572
  8
0
 10
287.21517530324229
 20
233.79024097910931
 30
0.0
  0
VERTEX
  5
A573
  8
0
 10
287.23073830083098
 20
233.7591967559249
 30
0.0
  0
VERTEX
  5
A574
  8
0
 10
287.24577693814342
 20
233.72767172641781
 30
0.0
  0
VERTEX
  5
A575
  8
0
 10
287.25309242655788
 20
233.71173557860379
 30
0.0
  0
VERTEX
  5
A576
  8
0
 10
287.26026835027119
 20
233.6956873142874
 30
0.0
  0
VERTEX
  5
A577
  8
0
 10
287.27419096239402
 20
233.66326556039419
 30
0.0
  0
VERTEX
  5
A578
  8
0
 10
287.2875245310853
 20
233.63042899310881
 30
0.0
  0
VERTEX
  5
A579
  8
0
 10
287.2939644696994
 20
233.6138622944456
 30
0.0
  0
VERTEX
  5
A57A
  8
0
 10
287.30025017411327
 20
233.5972004919324
 30
0.0
  0
VERTEX
  5
A57B
  8
0
 10
287.31235038847399
 20
233.563603144052
 30
0.0
  0
VERTEX
  5
A57C
  8
0
 10
287.32380902809859
 20
233.52966017981061
 30
0.0
  0
VERTEX
  5
A57D
  8
0
 10
287.32929304081938
 20
233.51256648747241
 30
0.0
  0
VERTEX
  5
A57E
  8
0
 10
287.33461113970111
 20
233.49539536303681
 30
0.0
  0
VERTEX
  5
A57F
  8
0
 10
287.34474290464482
 20
233.46083320634881
 30
0.0
  0
VERTEX
  5
A580
  8
0
 10
287.35419169589107
 20
233.42599886673381
 30
0.0
  0
VERTEX
  5
A581
  8
0
 10
287.3629461287133
 20
233.39091802320689
 30
0.0
  0
VERTEX
  5
A582
  8
0
 10
287.37099609959319
 20
233.3556167519512
 30
0.0
  0
VERTEX
  5
A583
  8
0
 10
287.37833281346548
 20
233.32012139851921
 30
0.0
  0
VERTEX
  5
A584
  8
0
 10
287.38173131242871
 20
233.30230921542881
 30
0.0
  0
VERTEX
  5
A585
  8
0
 10
287.38494879933381
 20
233.2844584466859
 30
0.0
  0
VERTEX
  5
A586
  8
0
 10
287.39083791415419
 20
233.24865438354959
 30
0.0
  0
VERTEX
  5
A587
  8
0
 10
287.39599578848743
 20
233.2127321536471
 30
0.0
  0
VERTEX
  5
A588
  8
0
 10
287.40041950390128
 20
233.17671056417271
 30
0.0
  0
VERTEX
  5
A589
  8
0
 10
287.40410603428199
 20
233.1406164538532
 30
0.0
  0
VERTEX
  5
A58A
  8
0
 10
287.40705358861487
 20
233.1044773183969
 30
0.0
  0
VERTEX
  5
A58B
  8
0
 10
287.40825004841668
 20
233.08639952342239
 30
0.0
  0
VERTEX
  5
A58C
  8
0
 10
287.40926168858118
 20
233.0683208773055
 30
0.0
  0
VERTEX
  5
A58D
  8
0
 10
287.41073118727968
 20
233.03217494270871
 30
0.0
  0
VERTEX
  5
A58E
  8
0
 10
287.4114642757911
 20
232.99606728680891
 30
0.0
  0
VERTEX
  5
A58F
  8
0
 10
287.41155571565059
 20
232.978036448241
 30
0.0
  0
SEQEND
  5
A590
  8
0
  0
ARC
  5
A1EA
  8
0
 10
300.06155571565068
 20
211.57910558770871
 30
0.0
 40
27.586206896551719
 50
123.98898767843031
 51
236.01101331196341
  0
POLYLINE
  5
A1EB
  8
0
 66
     1
 10
0.0
 20
0.0
 30
0.0
  0
VERTEX
  5
A591
  8
0
 10
287.41155571565059
 20
190.18017472717631
 30
0.0
  0
VERTEX
  5
A592
  8
0
 10
287.4114642757911
 20
190.1621438886084
 30
0.0
  0
VERTEX
  5
A593
  8
0
 10
287.41073118727968
 20
190.1260362327086
 30
0.0
  0
VERTEX
  5
A594
  8
0
 10
287.40926168858118
 20
190.08989029811181
 30
0.0
  0
VERTEX
  5
A595
  8
0
 10
287.40825004841668
 20
190.07181165199489
 30
0.0
  0
VERTEX
  5
A596
  8
0
 10
287.40705358861487
 20
190.0537338570204
 30
0.0
  0
VERTEX
  5
A597
  8
0
 10
287.40410603428199
 20
190.0175947215636
 30
0.0
  0
VERTEX
  5
A598
  8
0
 10
287.40041950390128
 20
189.9815006112446
 30
0.0
  0
VERTEX
  5
A599
  8
0
 10
287.39599578848743
 20
189.9454790217703
 30
0.0
  0
VERTEX
  5
A59A
  8
0
 10
287.39083791415419
 20
189.9095567918678
 30
0.0
  0
VERTEX
  5
A59B
  8
0
 10
287.38494879933381
 20
189.8737527287314
 30
0.0
  0
VERTEX
  5
A59C
  8
0
 10
287.38173131242871
 20
189.85590195998861
 30
0.0
  0
VERTEX
  5
A59D
  8
0
 10
287.37833281346548
 20
189.83808977689819
 30
0.0
  0
VERTEX
  5
A59E
  8
0
 10
287.37099609959319
 20
189.80259442346619
 30
0.0
  0
VERTEX
  5
A59F
  8
0
 10
287.3629461287133
 20
189.76729315221041
 30
0.0
  0
VERTEX
  5
A5A0
  8
0
 10
287.35419169589107
 20
189.7322123086835
 30
0.0
  0
VERTEX
  5
A5A1
  8
0
 10
287.34474290464482
 20
189.69737796906861
 30
0.0
  0
VERTEX
  5
A5A2
  8
0
 10
287.33461113970111
 20
189.66281581238059
 30
0.0
  0
VERTEX
  5
A5A3
  8
0
 10
287.32929304081932
 20
189.64564468794489
 30
0.0
  0
VERTEX
  5
A5A4
  8
0
 10
287.32380902809859
 20
189.6285509956067
 30
0.0
  0
VERTEX
  5
A5A5
  8
0
 10
287.31235038847399
 20
189.5946080313654
 30
0.0
  0
VERTEX
  5
A5A6
  8
0
 10
287.30025017411327
 20
189.56101068348491
 30
0.0
  0
VERTEX
  5
A5A7
  8
0
 10
287.2939644696994
 20
189.54434888097171
 30
0.0
  0
VERTEX
  5
A5A8
  8
0
 10
287.2875245310853
 20
189.5277821823085
 30
0.0
  0
VERTEX
  5
A5A9
  8
0
 10
287.27419096239402
 20
189.4949456150232
 30
0.0
  0
VERTEX
  5
A5AA
  8
0
 10
287.26026835027119
 20
189.46252386112991
 30
0.0
  0
VERTEX
  5
A5AB
  8
0
 10
287.25309242655788
 20
189.4464755968136
 30
0.0
  0
VERTEX
  5
A5AC
  8
0
 10
287.24577693814342
 20
189.4305394489995
 30
0.0
  0
VERTEX
  5
A5AD
  8
0
 10
287.23073830083092
 20
189.3990144194924
 30
0.0
  0
VERTEX
  5
A5AE
  8
0
 10
287.21517530324229
 20
189.36797019630811
 30
0.0
  0
VERTEX
  5
A5AF
  8
0
 10
287.19911204762911
 20
189.3374274625742
 30
0.0
  0
VERTEX
  5
A5B0
  8
0
 10
287.1825738092781
 20
189.3074060431147
 30
0.0
  0
VERTEX
  5
A5B1
  8
0
 10
287.16556549807899
 20
189.277888354921
 30
0.0
  0
VERTEX
  5
A5B2
  8
0
 10
287.15682900613177
 20
189.26321820114271
 30
0.0
  0
VERTEX
  5
A5B3
  8
0
 10
287.14792487008071
 20
189.24858850204981
 30
0.0
  0
VERTEX
  5
A5B4
  8
0
 10
287.1296154116535
 20
189.21946453195929
 30
0.0
  0
VERTEX
  5
A5B5
  8
0
 10
287.11064134654771
 20
189.19054434199299
 30
0.0
  0
VERTEX
  5
A5B6
  8
0
 10
287.09100803404539
 20
189.1618553892624
 30
0.0
  0
VERTEX
  5
A5B7
  8
0
 10
287.07072191245823
 20
189.13342459411541
 30
0.0
  0
VERTEX
  5
A5B8
  8
0
 10
287.0497904344096
 20
189.105278249923
 30
0.0
  0
VERTEX
  5
A5B9
  8
0
 10
287.03908527518672
 20
189.0913197713387
 30
0.0
  0
VERTEX
  5
A5BA
  8
0
 10
287.02822199370172
 20
189.07744193890699
 30
0.0
  0
VERTEX
  5
A5BB
  8
0
 10
287.0060258435314
 20
189.0499404538611
 30
0.0
  0
VERTEX
  5
A5BC
  8
0
 10
286.98321200581631
 20
189.0227977257484
 30
0.0
  0
VERTEX
  5
A5BD
  8
0
 10
286.95979117141292
 20
188.9960367573278
 30
0.0
  0
VERTEX
  5
A5BE
  8
0
 10
286.93577464265542
 20
188.9696796185965
 30
0.0
  0
VERTEX
  5
A5BF
  8
0
 10
286.91117456844472
 20
188.94374774778609
 30
0.0
  0
VERTEX
  5
A5C0
  8
0
 10
286.89865977326548
 20
188.93094785840751
 30
0.0
  0
VERTEX
  5
A5C1
  8
0
 10
286.88600409896299
 20
188.91826210395649
 30
0.0
  0
VERTEX
  5
A5C2
  8
0
 10
286.86027733748369
 20
188.89324308566819
 30
0.0
  0
VERTEX
  5
A5C3
  8
0
 10
286.83400927540401
 20
188.86871044494521
 30
0.0
  0
VERTEX
  5
A5C4
  8
0
 10
286.80721572098582
 20
188.8446832085499
 30
0.0
  0
VERTEX
  5
A5C5
  8
0
 10
286.77991322170851
 20
188.82117960639491
 30
0.0
  0
VERTEX
  5
A5C6
  8
0
 10
286.75211898009883
 20
188.7982170069715
 30
0.0
  0
VERTEX
  5
A5C7
  8
0
 10
286.73804298860313
 20
188.78694376107771
 30
0.0
  0
VERTEX
  5
A5C8
  8
0
 10
286.72385076286901
 20
188.77581185976459
 30
0.0
  0
VERTEX
  5
A5C9
  8
0
 10
286.69512680317592
 20
188.75397964469971
 30
0.0
  0
VERTEX
  5
A5CA
  8
0
 10
286.6659620782408
 20
188.73273224903301
 30
0.0
  0
VERTEX
  5
A5CB
  8
0
 10
286.63636964827452
 20
188.71207946821161
 30
0.0
  0
VERTEX
  5
A5CC
  8
0
 10
286.60636903065262
 20
188.69203481661469
 30
0.0
  0
VERTEX
  5
A5CD
  8
0
 10
286.57598064777977
 20
188.6726111694436
 30
0.0
  0
VERTEX
  5
A5CE
  8
0
 10
286.56064763416498
 20
188.66313603510051
 30
0.0
  0
VERTEX
  5
A5CF
  8
0
 10
286.54522567410652
 20
188.65382062302001
 30
0.0
  0
VERTEX
  5
A5D0
  8
0
 10
286.5141259561492
 20
188.6356744216157
 30
0.0
  0
VERTEX
  5
A5D1
  8
0
 10
286.48270392731689
 20
188.61818289249661
 30
0.0
  0
VERTEX
  5
A5D2
  8
0
 10
286.4668791950894
 20
188.6096855924209
 30
0.0
  0
VERTEX
  5
A5D3
  8
0
 10
286.45098251744542
 20
188.6013553890991
 30
0.0
  0
VERTEX
  5
A5D4
  8
0
 10
286.41898505687612
 20
188.58520024229369
 30
0.0
  0
VERTEX
  5
A5D5
  8
0
 10
286.3867351748699
 20
188.56972471975149
 30
0.0
  0
VERTEX
  5
A5D6
  8
0
 10
286.37052301537318
 20
188.5622437898557
 30
0.0
  0
VERTEX
  5
A5D7
  8
0
 10
286.35425669517639
 20
188.55493499487989
 30
0.0
  0
VERTEX
  5
A5D8
  8
0
 10
286.32157371273621
 20
188.54083620227061
 30
0.0
  0
VERTEX
  5
A5D9
  8
0
 10
286.2887110027475
 20
188.5274326094538
 30
0.0
  0
VERTEX
  5
A5DA
  8
0
 10
286.2556940792345
 20
188.51472759794231
 30
0.0
  0
VERTEX
  5
A5DB
  8
0
 10
286.22254910363313
 20
188.50272358287131
 30
0.0
  0
VERTEX
  5
A5DC
  8
0
 10
286.18930278830038
 20
188.49142194251019
 30
0.0
  0
VERTEX
  5
A5DD
  8
0
 10
286.17265010192551
 20
188.4860346450198
 30
0.0
  0
VERTEX
  5
A5DE
  8
0
 10
286.15598229639608
 20
188.48082295808919
 30
0.0
  0
VERTEX
  5
A5DF
  8
0
 10
286.12261513807971
 20
188.47092576378529
 30
0.0
  0
VERTEX
  5
A5E0
  8
0
 10
286.08922906285329
 20
188.46172830673891
 30
0.0
  0
VERTEX
  5
A5E1
  8
0
 10
286.05585194776108
 20
188.45322731705139
 30
0.0
  0
VERTEX
  5
A5E2
  8
0
 10
286.0224895366224
 20
188.4454133256697
 30
0.0
  0
VERTEX
  5
A5E3
  8
0
 10
285.98886269659272
 20
188.43821931980091
 30
0.0
  0
VERTEX
  5
A5E4
  8
0
 10
285.97192093692792
 20
188.434851508013
 30
0.0
  0
VERTEX
  5
A5E5
  8
0
 10
285.95489756135208
 20
188.43163933589111
 30
0.0
  0
VERTEX
  5
A5E6
  8
0
 10
285.92061800272182
 20
188.425690015257
 30
0.0
  0
VERTEX
  5
A5E7
  8
0
 10
285.88604839103141
 20
188.4203868292681
 30
0.0
  0
VERTEX
  5
A5E8
  8
0
 10
285.85121347846001
 20
188.41574405048479
 30
0.0
  0
VERTEX
  5
A5E9
  8
0
 10
285.81613828093361
 20
188.4117747349689
 30
0.0
  0
VERTEX
  5
A5EA
  8
0
 10
285.78084795822201
 20
188.4084907157696
 30
0.0
  0
VERTEX
  5
A5EB
  8
0
 10
285.76312999671097
 20
188.40710905663971
 30
0.0
  0
VERTEX
  5
A5EC
  8
0
 10
285.7453676919672
 20
188.4059026077027
 30
0.0
  0
VERTEX
  5
A5ED
  8
0
 10
285.70972256148019
 20
188.4040198236541
 30
0.0
  0
VERTEX
  5
A5EE
  8
0
 10
285.67393741727079
 20
188.40285060272001
 30
0.0
  0
VERTEX
  5
A5EF
  8
0
 10
285.6380368259471
 20
188.40240205075429
 30
0.0
  0
VERTEX
  5
A5F0
  8
0
 10
285.6020454666907
 20
188.4026801765705
 30
0.0
  0
VERTEX
  5
A5F1
  8
0
 10
285.56598838092168
 20
188.40368988256631
 30
0.0
  0
VERTEX
  5
A5F2
  8
0
 10
285.54794309170251
 20
188.40447030178819
 30
0.0
  0
VERTEX
  5
A5F3
  8
0
 10
285.52989087511872
 20
188.40543494192551
 30
0.0
  0
VERTEX
  5
A5F4
  8
0
 10
285.4937784045382
 20
188.40791798566639
 30
0.0
  0
VERTEX
  5
A5F5
  8
0
 10
285.4576764579424
 20
188.41114050028111
 30
0.0
  0
VERTEX
  5
A5F6
  8
0
 10
285.42161044315571
 20
188.41510283590759
 30
0.0
  0
VERTEX
  5
A5F7
  8
0
 10
285.38560557329799
 20
188.4198042250884
 30
0.0
  0
VERTEX
  5
A5F8
  8
0
 10
285.34968675358363
 20
188.42524281220921
 30
0.0
  0
VERTEX
  5
A5F9
  8
0
 10
285.33176728347291
 20
188.4282376872718
 30
0.0
  0
VERTEX
  5
A5FA
  8
0
 10
285.31387846862623
 20
188.4314156938228
 30
0.0
  0
VERTEX
  5
A5FB
  8
0
 10
285.27819961789112
 20
188.43832000145471
 30
0.0
  0
VERTEX
  5
A5FC
  8
0
 10
285.24266693392178
 20
188.44595270859031
 30
0.0
  0
VERTEX
  5
A5FD
  8
0
 10
285.22496288750392
 20
188.45004060470109
 30
0.0
  0
VERTEX
  5
A5FE
  8
0
 10
285.20730438365058
 20
188.45430852879659
 30
0.0
  0
VERTEX
  5
A5FF
  8
0
 10
285.17213603861597
 20
188.46338103426771
 30
0.0
  0
VERTEX
  5
A600
  8
0
 10
285.13718590678258
 20
188.4731626645891
 30
0.0
  0
VERTEX
  5
A601
  8
0
 10
285.11980012706312
 20
188.47831673158561
 30
0.0
  0
VERTEX
  5
A602
  8
0
 10
285.10247781551141
 20
188.4836447371265
 30
0.0
  0
VERTEX
  5
A603
  8
0
 10
285.06803529735748
 20
188.49481746776129
 30
0.0
  0
VERTEX
  5
A604
  8
0
 10
285.03388147857618
 20
188.50667000197129
 30
0.0
  0
VERTEX
  5
A605
  8
0
 10
285.00003897021787
 20
188.51919045631871
 30
0.0
  0
VERTEX
  5
A606
  8
0
 10
284.96652976169349
 20
188.5323659705102
 30
0.0
  0
VERTEX
  5
A607
  8
0
 10
284.93337512981611
 20
188.546182764642
 30
0.0
  0
VERTEX
  5
A608
  8
0
 10
284.9169372626427
 20
188.55332707804129
 30
0.0
  0
VERTEX
  5
A609
  8
0
 10
284.90059579251039
 20
188.56062609595779
 30
0.0
  0
VERTEX
  5
A60A
  8
0
 10
284.86821229912942
 20
188.5756800777819
 30
0.0
  0
VERTEX
  5
A60B
  8
0
 10
284.83624503348688
 20
188.59132763145519
 30
0.0
  0
VERTEX
  5
A60C
  8
0
 10
284.80471408433789
 20
188.6075505019009
 30
0.0
  0
VERTEX
  5
A60D
  8
0
 10
284.77363912020041
 20
188.6243292845013
 30
0.0
  0
VERTEX
  5
A60E
  8
0
 10
284.74303927000631
 20
188.64164346238911
 30
0.0
  0
VERTEX
  5
A60F
  8
0
 10
284.7279233147944
 20
188.65049462041929
 30
0.0
  0
VERTEX
  5
A610
  8
0
 10
284.71293300940812
 20
188.65947145405539
 30
0.0
  0
VERTEX
  5
A611
  8
0
 10
284.68333805251541
 20
188.67779067125659
 30
0.0
  0
VERTEX
  5
A612
  8
0
 10
284.6542712487888
 20
188.6965775873839
 30
0.0
  0
VERTEX
  5
A613
  8
0
 10
284.63994090911751
 20
188.70613884313681
 30
0.0
  0
SEQEND
  5
A614
  8
0
  0
POLYLINE
  5
A1ED
  8
0
 66
     1
 10
0.0
 20
0.0
 30
0.0
  0
VERTEX
  5
A615
  8
0
 10
315.48317091755092
 20
188.70613910970519
 30
0.0
  0
VERTEX
  5
A616
  8
0
 10
315.46884057768762
 20
188.69657784828831
 30
0.0
  0
VERTEX
  5
A617
  8
0
 10
315.43977375828598
 20
188.67779091133639
 30
0.0
  0
VERTEX
  5
A618
  8
0
 10
315.41017876847337
 20
188.65947166392311
 30
0.0
  0
VERTEX
  5
A619
  8
0
 10
315.3951884414135
 20
188.65049481282469
 30
0.0
  0
VERTEX
  5
A61A
  8
0
 10
315.3800724617584
 20
188.64164363634359
 30
0.0
  0
VERTEX
  5
A61B
  8
0
 10
315.34947255659
 20
188.62432942021789
 30
0.0
  0
VERTEX
  5
A61C
  8
0
 10
315.31839753322009
 20
188.60755060009271
 30
0.0
  0
VERTEX
  5
A61D
  8
0
 10
315.2868665254083
 20
188.5913276955018
 30
0.0
  0
VERTEX
  5
A61E
  8
0
 10
315.25489920669332
 20
188.57568011333859
 30
0.0
  0
VERTEX
  5
A61F
  8
0
 10
315.22251567100489
 20
188.56062611054151
 30
0.0
  0
VERTEX
  5
A620
  8
0
 10
315.2061741854053
 20
188.55332708542051
 30
0.0
  0
VERTEX
  5
A621
  8
0
 10
315.18973630744517
 20
188.5461827671968
 30
0.0
  0
VERTEX
  5
A622
  8
0
 10
315.1565816696077
 20
188.5323659705102
 30
0.0
  0
VERTEX
  5
A623
  8
0
 10
315.12307246108321
 20
188.51919045631871
 30
0.0
  0
VERTEX
  5
A624
  8
0
 10
315.08922995272502
 20
188.50667000197129
 30
0.0
  0
VERTEX
  5
A625
  8
0
 10
315.05507613394383
 20
188.49481746776129
 30
0.0
  0
VERTEX
  5
A626
  8
0
 10
315.0206336157899
 20
188.4836447371265
 30
0.0
  0
VERTEX
  5
A627
  8
0
 10
315.0033113042382
 20
188.47831673158561
 30
0.0
  0
VERTEX
  5
A628
  8
0
 10
314.98592552451862
 20
188.4731626645891
 30
0.0
  0
VERTEX
  5
A629
  8
0
 10
314.95097539268522
 20
188.46338103426771
 30
0.0
  0
VERTEX
  5
A62A
  8
0
 10
314.91580704765067
 20
188.45430852879659
 30
0.0
  0
VERTEX
  5
A62B
  8
0
 10
314.89814854379728
 20
188.45004060470109
 30
0.0
  0
VERTEX
  5
A62C
  8
0
 10
314.8804444973793
 20
188.44595270859031
 30
0.0
  0
VERTEX
  5
A62D
  8
0
 10
314.84491181341008
 20
188.43832000145471
 30
0.0
  0
VERTEX
  5
A62E
  8
0
 10
314.80923296267508
 20
188.4314156938228
 30
0.0
  0
VERTEX
  5
A62F
  8
0
 10
314.7913441478284
 20
188.4282376872718
 30
0.0
  0
VERTEX
  5
A630
  8
0
 10
314.77342467771768
 20
188.42524281220921
 30
0.0
  0
VERTEX
  5
A631
  8
0
 10
314.73750585800332
 20
188.4198042250884
 30
0.0
  0
VERTEX
  5
A632
  8
0
 10
314.70150098814543
 20
188.4151028359081
 30
0.0
  0
VERTEX
  5
A633
  8
0
 10
314.6654349733588
 20
188.41114050028111
 30
0.0
  0
VERTEX
  5
A634
  8
0
 10
314.62933302676299
 20
188.40791798566639
 30
0.0
  0
VERTEX
  5
A635
  8
0
 10
314.59322055618259
 20
188.40543494192551
 30
0.0
  0
VERTEX
  5
A636
  8
0
 10
314.57516833959858
 20
188.40447030178819
 30
0.0
  0
VERTEX
  5
A637
  8
0
 10
314.55712305037957
 20
188.40368988256631
 30
0.0
  0
VERTEX
  5
A638
  8
0
 10
314.52106596461039
 20
188.4026801765705
 30
0.0
  0
VERTEX
  5
A639
  8
0
 10
314.4850746053541
 20
188.40240205075429
 30
0.0
  0
VERTEX
  5
A63A
  8
0
 10
314.44917401403052
 20
188.40285060272001
 30
0.0
  0
VERTEX
  5
A63B
  8
0
 10
314.41338886982089
 20
188.4040198236541
 30
0.0
  0
VERTEX
  5
A63C
  8
0
 10
314.37774373933411
 20
188.4059026077027
 30
0.0
  0
VERTEX
  5
A63D
  8
0
 10
314.35998143459028
 20
188.40710905663971
 30
0.0
  0
VERTEX
  5
A63E
  8
0
 10
314.34226347307919
 20
188.4084907157696
 30
0.0
  0
VERTEX
  5
A63F
  8
0
 10
314.30697315036758
 20
188.4117747349689
 30
0.0
  0
VERTEX
  5
A640
  8
0
 10
314.2718979528413
 20
188.41574405048479
 30
0.0
  0
VERTEX
  5
A641
  8
0
 10
314.2370630402699
 20
188.4203868292681
 30
0.0
  0
VERTEX
  5
A642
  8
0
 10
314.20249342857949
 20
188.425690015257
 30
0.0
  0
VERTEX
  5
A643
  8
0
 10
314.16821386994911
 20
188.43163933589111
 30
0.0
  0
VERTEX
  5
A644
  8
0
 10
314.1511904943734
 20
188.434851508013
 30
0.0
  0
VERTEX
  5
A645
  8
0
 10
314.13424873470848
 20
188.43821931980091
 30
0.0
  0
VERTEX
  5
A646
  8
0
 10
314.10062189467891
 20
188.4454133256697
 30
0.0
  0
VERTEX
  5
A647
  8
0
 10
314.06725948354011
 20
188.45322731705139
 30
0.0
  0
VERTEX
  5
A648
  8
0
 10
314.03388236844802
 20
188.46172830673891
 30
0.0
  0
VERTEX
  5
A649
  8
0
 10
314.00049629322149
 20
188.47092576378529
 30
0.0
  0
VERTEX
  5
A64A
  8
0
 10
313.96712913490501
 20
188.48082295808919
 30
0.0
  0
VERTEX
  5
A64B
  8
0
 10
313.9504613293758
 20
188.4860346450198
 30
0.0
  0
VERTEX
  5
A64C
  8
0
 10
313.9338086430007
 20
188.49142194251019
 30
0.0
  0
VERTEX
  5
A64D
  8
0
 10
313.90056232766813
 20
188.50272358287131
 30
0.0
  0
VERTEX
  5
A64E
  8
0
 10
313.8674173520667
 20
188.51472759794231
 30
0.0
  0
VERTEX
  5
A64F
  8
0
 10
313.83440042855381
 20
188.5274326094538
 30
0.0
  0
VERTEX
  5
A650
  8
0
 10
313.80153771856499
 20
188.54083620227061
 30
0.0
  0
VERTEX
  5
A651
  8
0
 10
313.76885473612492
 20
188.55493499487989
 30
0.0
  0
VERTEX
  5
A652
  8
0
 10
313.75258841592802
 20
188.5622437898557
 30
0.0
  0
VERTEX
  5
A653
  8
0
 10
313.7363762564313
 20
188.56972471975149
 30
0.0
  0
VERTEX
  5
A654
  8
0
 10
313.70412637442519
 20
188.58520024229369
 30
0.0
  0
VERTEX
  5
A655
  8
0
 10
313.67212891385589
 20
188.6013553890991
 30
0.0
  0
VERTEX
  5
A656
  8
0
 10
313.65623223621179
 20
188.6096855924209
 30
0.0
  0
VERTEX
  5
A657
  8
0
 10
313.64040750398431
 20
188.61818289249661
 30
0.0
  0
VERTEX
  5
A658
  8
0
 10
313.60898547515211
 20
188.6356744216157
 30
0.0
  0
VERTEX
  5
A659
  8
0
 10
313.57788575719468
 20
188.65382062302001
 30
0.0
  0
VERTEX
  5
A65A
  8
0
 10
313.56246379713639
 20
188.66313603510051
 30
0.0
  0
VERTEX
  5
A65B
  8
0
 10
313.54713078352142
 20
188.6726111694436
 30
0.0
  0
VERTEX
  5
A65C
  8
0
 10
313.5167424006487
 20
188.69203481661469
 30
0.0
  0
VERTEX
  5
A65D
  8
0
 10
313.48674178302679
 20
188.71207946821161
 30
0.0
  0
VERTEX
  5
A65E
  8
0
 10
313.45714935306052
 20
188.73273224903301
 30
0.0
  0
VERTEX
  5
A65F
  8
0
 10
313.42798462812539
 20
188.75397964469971
 30
0.0
  0
VERTEX
  5
A660
  8
0
 10
313.39926066843219
 20
188.77581185976459
 30
0.0
  0
VERTEX
  5
A661
  8
0
 10
313.38506844269818
 20
188.78694376107771
 30
0.0
  0
VERTEX
  5
A662
  8
0
 10
313.37099245120248
 20
188.7982170069715
 30
0.0
  0
VERTEX
  5
A663
  8
0
 10
313.34319820959269
 20
188.82117960639491
 30
0.0
  0
VERTEX
  5
A664
  8
0
 10
313.31589571031532
 20
188.8446832085499
 30
0.0
  0
VERTEX
  5
A665
  8
0
 10
313.28910215589713
 20
188.86871044494521
 30
0.0
  0
VERTEX
  5
A666
  8
0
 10
313.26283409381762
 20
188.89324308566819
 30
0.0
  0
VERTEX
  5
A667
  8
0
 10
313.23710733233833
 20
188.91826210395649
 30
0.0
  0
VERTEX
  5
A668
  8
0
 10
313.22445165803578
 20
188.93094785840751
 30
0.0
  0
VERTEX
  5
A669
  8
0
 10
313.21193686285642
 20
188.94374774778609
 30
0.0
  0
VERTEX
  5
A66A
  8
0
 10
313.18733678864589
 20
188.9696796185965
 30
0.0
  0
VERTEX
  5
A66B
  8
0
 10
313.16332025988851
 20
188.9960367573278
 30
0.0
  0
VERTEX
  5
A66C
  8
0
 10
313.13989942548488
 20
189.0227977257484
 30
0.0
  0
VERTEX
  5
A66D
  8
0
 10
313.11708558776991
 20
189.0499404538611
 30
0.0
  0
VERTEX
  5
A66E
  8
0
 10
313.09488943759959
 20
189.07744193890699
 30
0.0
  0
VERTEX
  5
A66F
  8
0
 10
313.08402615611448
 20
189.0913197713387
 30
0.0
  0
VERTEX
  5
A670
  8
0
 10
313.07332099689171
 20
189.105278249923
 30
0.0
  0
VERTEX
  5
A671
  8
0
 10
313.05238951884297
 20
189.13342459411541
 30
0.0
  0
VERTEX
  5
A672
  8
0
 10
313.0321033972557
 20
189.1618553892624
 30
0.0
  0
VERTEX
  5
A673
  8
0
 10
313.01247008475349
 20
189.19054434199299
 30
0.0
  0
VERTEX
  5
A674
  8
0
 10
312.99349601964769
 20
189.21946453195929
 30
0.0
  0
VERTEX
  5
A675
  8
0
 10
312.9751865612206
 20
189.24858850204981
 30
0.0
  0
VERTEX
  5
A676
  8
0
 10
312.96628242516942
 20
189.26321820114271
 30
0.0
  0
VERTEX
  5
A677
  8
0
 10
312.95754593322232
 20
189.277888354921
 30
0.0
  0
VERTEX
  5
A678
  8
0
 10
312.94053762202321
 20
189.3074060431147
 30
0.0
  0
VERTEX
  5
A679
  8
0
 10
312.92399938367208
 20
189.3374274625742
 30
0.0
  0
VERTEX
  5
A67A
  8
0
 10
312.90793612805902
 20
189.36797019630811
 30
0.0
  0
VERTEX
  5
A67B
  8
0
 10
312.89237313047028
 20
189.3990144194924
 30
0.0
  0
VERTEX
  5
A67C
  8
0
 10
312.87733449315778
 20
189.4305394489995
 30
0.0
  0
VERTEX
  5
A67D
  8
0
 10
312.87001900474331
 20
189.4464755968136
 30
0.0
  0
VERTEX
  5
A67E
  8
0
 10
312.86284308103018
 20
189.46252386112991
 30
0.0
  0
VERTEX
  5
A67F
  8
0
 10
312.84892046890741
 20
189.4949456150232
 30
0.0
  0
VERTEX
  5
A680
  8
0
 10
312.83558690021601
 20
189.5277821823085
 30
0.0
  0
VERTEX
  5
A681
  8
0
 10
312.82914696160179
 20
189.54434888097171
 30
0.0
  0
VERTEX
  5
A682
  8
0
 10
312.82286125718792
 20
189.56101068348491
 30
0.0
  0
VERTEX
  5
A683
  8
0
 10
312.81076104282732
 20
189.5946080313654
 30
0.0
  0
VERTEX
  5
A684
  8
0
 10
312.79930240320272
 20
189.6285509956067
 30
0.0
  0
VERTEX
  5
A685
  8
0
 10
312.79381839048187
 20
189.64564468794489
 30
0.0
  0
VERTEX
  5
A686
  8
0
 10
312.78850029159997
 20
189.66281581238059
 30
0.0
  0
VERTEX
  5
A687
  8
0
 10
312.77836852665638
 20
189.69737796906861
 30
0.0
  0
VERTEX
  5
A688
  8
0
 10
312.76891973541012
 20
189.7322123086835
 30
0.0
  0
VERTEX
  5
A689
  8
0
 10
312.76016530258812
 20
189.76729315221041
 30
0.0
  0
VERTEX
  5
A68A
  8
0
 10
312.75211533170818
 20
189.80259442346619
 30
0.0
  0
VERTEX
  5
A68B
  8
0
 10
312.74477861783589
 20
189.83808977689861
 30
0.0
  0
VERTEX
  5
A68C
  8
0
 10
312.74138011887271
 20
189.85590195998861
 30
0.0
  0
VERTEX
  5
A68D
  8
0
 10
312.7381626319675
 20
189.8737527287314
 30
0.0
  0
VERTEX
  5
A68E
  8
0
 10
312.73227351714712
 20
189.9095567918678
 30
0.0
  0
VERTEX
  5
A68F
  8
0
 10
312.727115642814
 20
189.9454790217703
 30
0.0
  0
VERTEX
  5
A690
  8
0
 10
312.72269192740009
 20
189.9815006112446
 30
0.0
  0
VERTEX
  5
A691
  8
0
 10
312.71900539701937
 20
190.01759472156411
 30
0.0
  0
VERTEX
  5
A692
  8
0
 10
312.71605784268638
 20
190.0537338570204
 30
0.0
  0
VERTEX
  5
A693
  8
0
 10
312.71486138288469
 20
190.07181165199489
 30
0.0
  0
VERTEX
  5
A694
  8
0
 10
312.71384974272019
 20
190.08989029811181
 30
0.0
  0
VERTEX
  5
A695
  8
0
 10
312.71238024402169
 20
190.1260362327086
 30
0.0
  0
VERTEX
  5
A696
  8
0
 10
312.71164715551021
 20
190.1621438886084
 30
0.0
  0
VERTEX
  5
A697
  8
0
 10
312.71155571565072
 20
190.18017472717631
 30
0.0
  0
SEQEND
  5
A698
  8
0
  0
POLYLINE
  5
A1EF
  8
0
 66
     1
 10
0.0
 20
0.0
 30
0.0
  0
VERTEX
  5
A699
  8
0
 10
312.71155571565072
 20
232.978036448241
 30
0.0
  0
VERTEX
  5
A69A
  8
0
 10
312.71164715551021
 20
232.99606728680891
 30
0.0
  0
VERTEX
  5
A69B
  8
0
 10
312.71238024402169
 20
233.03217494270871
 30
0.0
  0
VERTEX
  5
A69C
  8
0
 10
312.71384974272019
 20
233.0683208773055
 30
0.0
  0
VERTEX
  5
A69D
  8
0
 10
312.71486138288469
 20
233.08639952342239
 30
0.0
  0
VERTEX
  5
A69E
  8
0
 10
312.71605784268638
 20
233.1044773183969
 30
0.0
  0
VERTEX
  5
A69F
  8
0
 10
312.71900539701937
 20
233.1406164538532
 30
0.0
  0
VERTEX
  5
A6A0
  8
0
 10
312.72269192740009
 20
233.17671056417271
 30
0.0
  0
VERTEX
  5
A6A1
  8
0
 10
312.727115642814
 20
233.2127321536471
 30
0.0
  0
VERTEX
  5
A6A2
  8
0
 10
312.73227351714712
 20
233.24865438354959
 30
0.0
  0
VERTEX
  5
A6A3
  8
0
 10
312.7381626319675
 20
233.2844584466859
 30
0.0
  0
VERTEX
  5
A6A4
  8
0
 10
312.74138011887271
 20
233.30230921542881
 30
0.0
  0
VERTEX
  5
A6A5
  8
0
 10
312.74477861783589
 20
233.32012139851869
 30
0.0
  0
VERTEX
  5
A6A6
  8
0
 10
312.75211533170818
 20
233.3556167519512
 30
0.0
  0
VERTEX
  5
A6A7
  8
0
 10
312.76016530258812
 20
233.39091802320689
 30
0.0
  0
VERTEX
  5
A6A8
  8
0
 10
312.76891973541012
 20
233.42599886673381
 30
0.0
  0
VERTEX
  5
A6A9
  8
0
 10
312.77836852665638
 20
233.46083320634881
 30
0.0
  0
VERTEX
  5
A6AA
  8
0
 10
312.78850029159997
 20
233.49539536303681
 30
0.0
  0
VERTEX
  5
A6AB
  8
0
 10
312.79381839048187
 20
233.51256648747241
 30
0.0
  0
VERTEX
  5
A6AC
  8
0
 10
312.79930240320272
 20
233.52966017981061
 30
0.0
  0
VERTEX
  5
A6AD
  8
0
 10
312.81076104282732
 20
233.563603144052
 30
0.0
  0
VERTEX
  5
A6AE
  8
0
 10
312.82286125718792
 20
233.5972004919324
 30
0.0
  0
VERTEX
  5
A6AF
  8
0
 10
312.82914696160179
 20
233.6138622944456
 30
0.0
  0
VERTEX
  5
A6B0
  8
0
 10
312.83558690021601
 20
233.63042899310881
 30
0.0
  0
VERTEX
  5
A6B1
  8
0
 10
312.84892046890741
 20
233.66326556039419
 30
0.0
  0
VERTEX
  5
A6B2
  8
0
 10
312.86284308103018
 20
233.6956873142874
 30
0.0
  0
VERTEX
  5
A6B3
  8
0
 10
312.87001900474331
 20
233.71173557860379
 30
0.0
  0
VERTEX
  5
A6B4
  8
0
 10
312.87733449315778
 20
233.72767172641781
 30
0.0
  0
VERTEX
  5
A6B5
  8
0
 10
312.89237313047028
 20
233.7591967559249
 30
0.0
  0
VERTEX
  5
A6B6
  8
0
 10
312.90793612805902
 20
233.79024097910931
 30
0.0
  0
VERTEX
  5
A6B7
  8
0
 10
312.92399938367208
 20
233.82078371284319
 30
0.0
  0
VERTEX
  5
A6B8
  8
0
 10
312.94053762202321
 20
233.85080513230261
 30
0.0
  0
VERTEX
  5
A6B9
  8
0
 10
312.95754593322232
 20
233.8803228204963
 30
0.0
  0
VERTEX
  5
A6BA
  8
0
 10
312.96628242516942
 20
233.8949929742746
 30
0.0
  0
VERTEX
  5
A6BB
  8
0
 10
312.9751865612206
 20
233.90962267336749
 30
0.0
  0
VERTEX
  5
A6BC
  8
0
 10
312.99349601964769
 20
233.93874664345799
 30
0.0
  0
VERTEX
  5
A6BD
  8
0
 10
313.01247008475349
 20
233.96766683342429
 30
0.0
  0
VERTEX
  5
A6BE
  8
0
 10
313.0321033972557
 20
233.99635578615491
 30
0.0
  0
VERTEX
  5
A6BF
  8
0
 10
313.05238951884297
 20
234.0247865813019
 30
0.0
  0
VERTEX
  5
A6C0
  8
0
 10
313.07332099689171
 20
234.05293292549439
 30
0.0
  0
VERTEX
  5
A6C1
  8
0
 10
313.08402615611448
 20
234.06689140407869
 30
0.0
  0
VERTEX
  5
A6C2
  8
0
 10
313.09488943759959
 20
234.08076923651041
 30
0.0
  0
VERTEX
  5
A6C3
  8
0
 10
313.11708558776991
 20
234.10827072155621
 30
0.0
  0
VERTEX
  5
A6C4
  8
0
 10
313.13989942548488
 20
234.1354134496689
 30
0.0
  0
VERTEX
  5
A6C5
  8
0
 10
313.16332025988851
 20
234.16217441808951
 30
0.0
  0
VERTEX
  5
A6C6
  8
0
 10
313.18733678864589
 20
234.18853155682089
 30
0.0
  0
VERTEX
  5
A6C7
  8
0
 10
313.21193686285642
 20
234.2144634276313
 30
0.0
  0
VERTEX
  5
A6C8
  8
0
 10
313.22445165803578
 20
234.2272633170098
 30
0.0
  0
VERTEX
  5
A6C9
  8
0
 10
313.23710733233833
 20
234.23994907146081
 30
0.0
  0
VERTEX
  5
A6CA
  8
0
 10
313.26283409381767
 20
234.26496808974909
 30
0.0
  0
VERTEX
  5
A6CB
  8
0
 10
313.28910215589713
 20
234.2895007304721
 30
0.0
  0
VERTEX
  5
A6CC
  8
0
 10
313.31589571031532
 20
234.3135279668675
 30
0.0
  0
VERTEX
  5
A6CD
  8
0
 10
313.34319820959269
 20
234.337031569022
 30
0.0
  0
VERTEX
  5
A6CE
  8
0
 10
313.37099245120248
 20
234.35999416844589
 30
0.0
  0
VERTEX
  5
A6CF
  8
0
 10
313.38506844269818
 20
234.3712674143396
 30
0.0
  0
VERTEX
  5
A6D0
  8
0
 10
313.39926066843219
 20
234.38239931565269
 30
0.0
  0
VERTEX
  5
A6D1
  8
0
 10
313.42798462812539
 20
234.40423153071771
 30
0.0
  0
VERTEX
  5
A6D2
  8
0
 10
313.45714935306052
 20
234.4254789263843
 30
0.0
  0
VERTEX
  5
A6D3
  8
0
 10
313.48674178302679
 20
234.44613170720569
 30
0.0
  0
VERTEX
  5
A6D4
  8
0
 10
313.5167424006487
 20
234.46617635880261
 30
0.0
  0
VERTEX
  5
A6D5
  8
0
 10
313.54713078352142
 20
234.48560000597379
 30
0.0
  0
VERTEX
  5
A6D6
  8
0
 10
313.56246379713639
 20
234.49507514031691
 30
0.0
  0
VERTEX
  5
A6D7
  8
0
 10
313.57788575719468
 20
234.50439055239741
 30
0.0
  0
VERTEX
  5
A6D8
  8
0
 10
313.60898547515211
 20
234.52253675380169
 30
0.0
  0
VERTEX
  5
A6D9
  8
0
 10
313.64040750398431
 20
234.5400282829207
 30
0.0
  0
VERTEX
  5
A6DA
  8
0
 10
313.65623223621179
 20
234.54852558299649
 30
0.0
  0
VERTEX
  5
A6DB
  8
0
 10
313.67212891385589
 20
234.55685578631821
 30
0.0
  0
VERTEX
  5
A6DC
  8
0
 10
313.70412637442519
 20
234.5730109331237
 30
0.0
  0
VERTEX
  5
A6DD
  8
0
 10
313.7363762564313
 20
234.58848645566579
 30
0.0
  0
VERTEX
  5
A6DE
  8
0
 10
313.75258841592802
 20
234.59596738556161
 30
0.0
  0
VERTEX
  5
A6DF
  8
0
 10
313.76885473612492
 20
234.60327618053751
 30
0.0
  0
VERTEX
  5
A6E0
  8
0
 10
313.80153771856499
 20
234.6173749731467
 30
0.0
  0
VERTEX
  5
A6E1
  8
0
 10
313.83440042855381
 20
234.63077856596351
 30
0.0
  0
VERTEX
  5
A6E2
  8
0
 10
313.8674173520667
 20
234.64348357747511
 30
0.0
  0
VERTEX
  5
A6E3
  8
0
 10
313.90056232766813
 20
234.655487592546
 30
0.0
  0
VERTEX
  5
A6E4
  8
0
 10
313.9338086430007
 20
234.66678923290721
 30
0.0
  0
VERTEX
  5
A6E5
  8
0
 10
313.9504613293758
 20
234.67217653039759
 30
0.0
  0
VERTEX
  5
A6E6
  8
0
 10
313.96712913490501
 20
234.67738821732809
 30
0.0
  0
VERTEX
  5
A6E7
  8
0
 10
314.00049629322149
 20
234.6872854116321
 30
0.0
  0
VERTEX
  5
A6E8
  8
0
 10
314.03388236844802
 20
234.69648286867849
 30
0.0
  0
VERTEX
  5
A6E9
  8
0
 10
314.06725948354011
 20
234.70498385836601
 30
0.0
  0
VERTEX
  5
A6EA
  8
0
 10
314.10062189467891
 20
234.7127978497476
 30
0.0
  0
VERTEX
  5
A6EB
  8
0
 10
314.13424873470848
 20
234.7199918556164
 30
0.0
  0
VERTEX
  5
A6EC
  8
0
 10
314.1511904943734
 20
234.7233596674044
 30
0.0
  0
VERTEX
  5
A6ED
  8
0
 10
314.16821386994911
 20
234.72657183952629
 30
0.0
  0
VERTEX
  5
A6EE
  8
0
 10
314.20249342857949
 20
234.7325211601603
 30
0.0
  0
VERTEX
  5
A6EF
  8
0
 10
314.2370630402699
 20
234.73782434614921
 30
0.0
  0
VERTEX
  5
A6F0
  8
0
 10
314.2718979528413
 20
234.7424671249326
 30
0.0
  0
VERTEX
  5
A6F1
  8
0
 10
314.30697315036758
 20
234.74643644044841
 30
0.0
  0
VERTEX
  5
A6F2
  8
0
 10
314.34226347307919
 20
234.7497204596477
 30
0.0
  0
VERTEX
  5
A6F3
  8
0
 10
314.35998143459028
 20
234.75110211877771
 30
0.0
  0
VERTEX
  5
A6F4
  8
0
 10
314.37774373933411
 20
234.75230856771461
 30
0.0
  0
VERTEX
  5
A6F5
  8
0
 10
314.41338886982089
 20
234.75419135176321
 30
0.0
  0
VERTEX
  5
A6F6
  8
0
 10
314.44917401403052
 20
234.7553605726973
 30
0.0
  0
VERTEX
  5
A6F7
  8
0
 10
314.4850746053541
 20
234.7558091246631
 30
0.0
  0
VERTEX
  5
A6F8
  8
0
 10
314.52106596461061
 20
234.75553099884681
 30
0.0
  0
VERTEX
  5
A6F9
  8
0
 10
314.55712305037957
 20
234.754521292851
 30
0.0
  0
VERTEX
  5
A6FA
  8
0
 10
314.57516833959869
 20
234.75374087362911
 30
0.0
  0
VERTEX
  5
A6FB
  8
0
 10
314.59322055618259
 20
234.75277623349189
 30
0.0
  0
VERTEX
  5
A6FC
  8
0
 10
314.62933302676311
 20
234.75029318975089
 30
0.0
  0
VERTEX
  5
A6FD
  8
0
 10
314.66543497335891
 20
234.7470706751362
 30
0.0
  0
VERTEX
  5
A6FE
  8
0
 10
314.70150098814548
 20
234.74310833950929
 30
0.0
  0
VERTEX
  5
A6FF
  8
0
 10
314.73750585800332
 20
234.73840695032891
 30
0.0
  0
VERTEX
  5
A700
  8
0
 10
314.77342467771768
 20
234.7329683632081
 30
0.0
  0
VERTEX
  5
A701
  8
0
 10
314.7913441478284
 20
234.72997348814559
 30
0.0
  0
VERTEX
  5
A702
  8
0
 10
314.80923296267508
 20
234.72679548159451
 30
0.0
  0
VERTEX
  5
A703
  8
0
 10
314.84491181341008
 20
234.71989117396271
 30
0.0
  0
VERTEX
  5
A704
  8
0
 10
314.88044449737947
 20
234.712258466827
 30
0.0
  0
VERTEX
  5
A705
  8
0
 10
314.89814854379728
 20
234.70817057071619
 30
0.0
  0
VERTEX
  5
A706
  8
0
 10
314.91580704765067
 20
234.70390264662069
 30
0.0
  0
VERTEX
  5
A707
  8
0
 10
314.95097539268522
 20
234.69483014114959
 30
0.0
  0
VERTEX
  5
A708
  8
0
 10
314.98592552451862
 20
234.68504851082821
 30
0.0
  0
VERTEX
  5
A709
  8
0
 10
315.0033113042382
 20
234.6798944438317
 30
0.0
  0
VERTEX
  5
A70A
  8
0
 10
315.0206336157899
 20
234.67456643829081
 30
0.0
  0
VERTEX
  5
A70B
  8
0
 10
315.05507613394383
 20
234.66339370765601
 30
0.0
  0
VERTEX
  5
A70C
  8
0
 10
315.08922995272502
 20
234.65154117344599
 30
0.0
  0
VERTEX
  5
A70D
  8
0
 10
315.12307246108321
 20
234.63902071909871
 30
0.0
  0
VERTEX
  5
A70E
  8
0
 10
315.1565816696077
 20
234.62584520490711
 30
0.0
  0
VERTEX
  5
A70F
  8
0
 10
315.18973630744529
 20
234.6120284082206
 30
0.0
  0
VERTEX
  5
A710
  8
0
 10
315.2061741854053
 20
234.6048840899968
 30
0.0
  0
VERTEX
  5
A711
  8
0
 10
315.22251567100489
 20
234.5975850648758
 30
0.0
  0
VERTEX
  5
A712
  8
0
 10
315.25489920669332
 20
234.58253106207869
 30
0.0
  0
VERTEX
  5
A713
  8
0
 10
315.2868665254083
 20
234.5668834799155
 30
0.0
  0
VERTEX
  5
A714
  8
0
 10
315.31839753322009
 20
234.5506605753246
 30
0.0
  0
VERTEX
  5
A715
  8
0
 10
315.34947255659
 20
234.53388175519939
 30
0.0
  0
VERTEX
  5
A716
  8
0
 10
315.3800724617584
 20
234.5165675390738
 30
0.0
  0
VERTEX
  5
A717
  8
0
 10
315.3951884414135
 20
234.50771636259259
 30
0.0
  0
VERTEX
  5
A718
  8
0
 10
315.41017876847337
 20
234.49873951149431
 30
0.0
  0
VERTEX
  5
A719
  8
0
 10
315.43977375828621
 20
234.480420264081
 30
0.0
  0
VERTEX
  5
A71A
  8
0
 10
315.46884057768762
 20
234.46163332712899
 30
0.0
  0
VERTEX
  5
A71B
  8
0
 10
315.48317091755092
 20
234.4520720657122
 30
0.0
  0
SEQEND
  5
A71C
  8
0
  0
ARC
  5
A1F0
  8
0
 10
300.06155571565068
 20
211.57910558770871
 30
0.0
 40
27.58620689655173
 50
303.98898767843042
 51
56.011012321569673
  0
LINE
  5
A1F1
  8
1
 10
300.06155571565068
 20
166.02064477566941
 30
0.0
 11
300.06155571565068
 21
257.13756639974793
 31
0.0
  0
LINE
  5
A1F2
  8
1
 10
345.62001652768993
 20
211.57910558770871
 30
0.0
 11
254.50309490361141
 21
211.57910558770871
 31
0.0
  0
LINE
  5
A1F3
  8
1
 10
313.37001652768993
 20
240.57910558770871
 30
0.0
 11
286.75309490361138
 21
240.57910558770871
 31
0.0
  0
LINE
  5
A1F4
  8
2
 10
296.06155571565068
 20
74.626023865863431
 30
0.0
 11
296.06155571565068
 21
57.626023865863431
 31
0.0
  0
LINE
  5
A1F5
  8
2
 10
304.06155571565068
 20
57.626023865863431
 30
0.0
 11
304.06155571565068
 21
74.626023865863431
 31
0.0
  0
LINE
  5
A1F6
  8
0
 10
291.06155571565068
 20
57.826023865863696
 30
0.0
 11
291.06155571565068
 21
57.626023865863431
 31
0.0
  0
LINE
  5
A1F7
  8
0
 10
309.06155571565068
 20
57.626023865863431
 30
0.0
 11
309.06155571565068
 21
57.826023865863696
 31
0.0
  0
ARC
  5
A1F8
  8
0
 10
312.06155571565068
 20
58.326023865861941
 30
0.0
 40
0.4999999999999999
 50
270.0
 51
0.0
  0
ARC
  5
A1F9
  8
0
 10
288.06155571565068
 20
58.326023865857557
 30
0.0
 40
0.4999999999999983
 50
180.0
 51
270.0
  0
LINE
  5
A1FA
  8
0
 10
287.56155571565068
 20
61.626023865837283
 30
0.0
 11
287.56155571565068
 21
58.326023865857557
 31
0.0
  0
LINE
  5
A1FB
  8
0
 10
312.56155571565068
 20
58.326023865861941
 30
0.0
 11
312.56155571565068
 21
61.62602386584166
 31
0.0
  0
ARC
  5
A1FC
  8
0
 10
334.06155571565068
 20
80.626023865863431
 30
0.0
 40
6.0000000000000169
 50
270.0
 51
0.0
  0
ARC
  5
A1FD
  8
0
 10
266.06155571565068
 20
80.626023865863431
 30
0.0
 40
6.0000000000000213
 50
180.0
 51
270.0
  0
LINE
  5
A1FE
  8
0
 10
260.06155571565068
 20
84.256278909290486
 30
0.0
 11
260.06155571565068
 21
80.626023865863431
 31
0.0
  0
LINE
  5
A1FF
  8
0
 10
340.06155571565068
 20
80.626023865863431
 30
0.0
 11
340.06155571565068
 21
84.256278909290486
 31
0.0
  0
ARC
  5
A200
  8
0
 10
322.0615557156512
 20
84.256278909290486
 30
0.0
 40
17.999999999999559
 50
0.0
 51
14.999999999994451
  0
ARC
  5
A201
  8
0
 10
278.06155571565017
 20
84.256278909290486
 30
0.0
 40
17.999999999999559
 50
165.00000000000551
 51
180.0
  0
LINE
  5
A202
  8
0
 10
261.31177296127919
 20
91.291898147048059
 30
0.0
 11
260.67489084244738
 21
88.915021721135517
 31
0.0
  0
LINE
  5
A203
  8
0
 10
339.44822058885393
 20
88.915021721135517
 30
0.0
 11
338.81133847002218
 21
91.291898147048059
 31
0.0
  0
ARC
  5
A204
  8
0
 10
337.07267198270188
 20
90.826023865863704
 30
0.0
 40
1.7999999999999881
 50
14.999999999994451
 51
90.0
  0
ARC
  5
A205
  8
0
 10
263.05043944859949
 20
90.826023865863704
 30
0.0
 40
1.7999999999999901
 50
90.0
 51
165.00000000000551
  0
LINE
  5
A206
  8
0
 10
309.06155571565068
 20
57.626023865863431
 30
0.0
 11
291.06155571565068
 21
57.626023865863431
 31
0.0
  0
LINE
  5
A207
  8
2
 10
310.31155571565068
 20
77.626023865863431
 30
0.0
 11
289.81155571565068
 21
77.626023865863431
 31
0.0
  0
LINE
  5
A208
  8
0
 10
312.06155571565068
 20
57.826023865861941
 30
0.0
 11
288.06155571565068
 21
57.826023865857557
 31
0.0
  0
LINE
  5
A209
  8
0
 10
334.06155571565068
 20
74.626023865863431
 30
0.0
 11
266.06155571565068
 21
74.626023865863431
 31
0.0
  0
LINE
  5
A20A
  8
0
 10
337.07267198270188
 20
92.626023865863417
 30
0.0
 11
263.05043944859949
 21
92.626023865863417
 31
0.0
  0
LINE
  5
A20B
  8
0
 10
313.06155571565108
 20
61.626023865856439
 30
0.0
 11
287.06155571565017
 21
61.626023865870359
 31
0.0
  0
LINE
  5
A20C
  8
1
 10
300.06155571565068
 20
99.90240762516737
 30
0.0
 11
300.06155571565068
 21
52.067563053824188
 31
0.0
  0
LINE
  5
A20D
  8
1
 10
389.0598462728409
 20
248.5902218547601
 30
0.0
 11
389.0598462728409
 21
184.0206447756695
 31
0.0
  0
LINE
  5
A20E
  8
0
 10
417.8598462728408
 20
202.57910558770871
 30
0.0
 11
418.0598462728409
 21
202.57910558770871
 31
0.0
  0
LINE
  5
A20F
  8
0
 10
418.0598462728409
 20
220.57910558770871
 30
0.0
 11
417.8598462728408
 21
220.57910558770871
 31
0.0
  0
ARC
  5
A210
  8
0
 10
417.3598462728408
 20
223.57910558770871
 30
0.0
 40
0.4999999999999999
 50
0.0
 51
90.0
  0
ARC
  5
A211
  8
0
 10
417.3598462728408
 20
199.5791055877086
 30
0.0
 40
0.4999999999999983
 50
270.0
 51
0.0
  0
LINE
  5
A212
  8
0
 10
414.0598462728608
 20
199.07910558770871
 30
0.0
 11
417.3598462728408
 21
199.07910558770871
 31
0.0
  0
LINE
  5
A213
  8
0
 10
417.3598462728408
 20
224.07910558770871
 30
0.0
 11
414.0598462728608
 21
224.07910558770871
 31
0.0
  0
ARC
  5
A214
  8
0
 10
395.0598462728409
 20
245.57910558770871
 30
0.0
 40
6.0000000000000169
 50
0.0
 51
90.0
  0
ARC
  5
A215
  8
0
 10
395.0598462728409
 20
177.57910558770871
 30
0.0
 40
6.0000000000000213
 50
270.0
 51
0.0
  0
LINE
  5
A216
  8
0
 10
391.42959122941397
 20
171.57910558770871
 30
0.0
 11
395.0598462728409
 21
171.57910558770871
 31
0.0
  0
LINE
  5
A217
  8
0
 10
395.0598462728409
 20
251.57910558770871
 30
0.0
 11
391.42959122941397
 21
251.57910558770871
 31
0.0
  0
ARC
  5
A218
  8
0
 10
391.4295912294138
 20
233.57910558770911
 30
0.0
 40
17.999999999999559
 50
90.0
 51
104.999999999998
  0
ARC
  5
A219
  8
0
 10
391.4295912294138
 20
189.5791055877082
 30
0.0
 40
17.999999999999559
 50
255.00000000000199
 51
270.0
  0
LINE
  5
A21A
  8
0
 10
384.39397199165637
 20
172.82932283333699
 30
0.0
 11
386.77084841756869
 21
172.19244071450541
 31
0.0
  0
LINE
  5
A21B
  8
0
 10
386.77084841756869
 20
250.9657704609119
 30
0.0
 11
384.39397199165637
 21
250.32888834208029
 31
0.0
  0
ARC
  5
A21C
  8
0
 10
384.8598462728408
 20
248.5902218547601
 30
0.0
 40
1.7999999999999881
 50
104.999999999998
 51
180.0
  0
ARC
  5
A21D
  8
0
 10
384.8598462728408
 20
174.56798932065769
 30
0.0
 40
1.7999999999999901
 50
180.0
 51
255.00000000000199
  0
LINE
  5
A21E
  8
0
 10
401.85299024086879
 20
185.19102735389541
 30
0.0
 11
414.0598462728608
 21
199.07910558770871
 31
0.0
  0
LINE
  5
A21F
  8
0
 10
414.0598462728608
 20
224.07910558770871
 30
0.0
 11
401.85299024086879
 21
237.96718382152201
 31
0.0
  0
ARC
  5
A220
  8
0
 10
404.6598462728407
 20
240.2214152239701
 30
0.0
 40
3.5999999999999721
 50
180.0
 51
218.76851001649561
  0
ARC
  5
A221
  8
0
 10
404.6598462728407
 20
182.93679595144721
 30
0.0
 40
3.5999999999999721
 50
141.23148998350439
 51
180.0
  0
LINE
  5
A222
  8
0
 10
418.0598462728409
 20
220.57910558770871
 30
0.0
 11
418.0598462728409
 21
202.57910558770871
 31
0.0
  0
LINE
  5
A223
  8
0
 10
417.8598462728408
 20
223.57910558770871
 30
0.0
 11
417.8598462728408
 21
199.5791055877086
 31
0.0
  0
LINE
  5
A224
  8
0
 10
401.0598462728409
 20
245.57910558770871
 30
0.0
 11
401.0598462728409
 21
177.57910558770871
 31
0.0
  0
LINE
  5
A225
  8
0
 10
383.0598462728409
 20
248.5902218547601
 30
0.0
 11
383.0598462728409
 21
174.56798932065769
 31
0.0
  0
LINE
  5
A226
  8
0
 10
414.0598462728608
 20
224.07910558770871
 30
0.0
 11
414.0598462728608
 21
199.07910558770871
 31
0.0
  0
POLYLINE
  5
A227
  8
0
 66
     1
 10
0.0
 20
0.0
 30
0.0
  0
VERTEX
  5
A71D
  8
0
 10
401.0598462728409
 20
235.94483939743219
 30
0.0
  0
VERTEX
  5
A71E
  8
0
 10
404.57399354680268
 20
230.7879180325165
 30
0.0
  0
VERTEX
  5
A71F
  8
0
 10
406.95235365787249
 20
227.1201236830814
 30
0.0
  0
VERTEX
  5
A720
  8
0
 10
408.73124690220169
 20
224.13533284241001
 30
0.0
  0
VERTEX
  5
A721
  8
0
 10
409.44984622172279
 20
222.8291538938559
 30
0.0
  0
VERTEX
  5
A722
  8
0
 10
410.07466781343049
 20
221.62040460788941
 30
0.0
  0
VERTEX
  5
A723
  8
0
 10
411.08645022062751
 20
219.4353428361357
 30
0.0
  0
VERTEX
  5
A724
  8
0
 10
411.55149053041981
 20
218.27317754471659
 30
0.0
  0
VERTEX
  5
A725
  8
0
 10
411.66933000601858
 20
217.95344429970939
 30
0.0
  0
VERTEX
  5
A726
  8
0
 10
411.78085210408432
 20
217.63859818603331
 30
0.0
  0
VERTEX
  5
A727
  8
0
 10
411.83429962582989
 20
217.48291456293211
 30
0.0
  0
VERTEX
  5
A728
  8
0
 10
411.88623284906049
 20
217.32834241763911
 30
0.0
  0
VERTEX
  5
A729
  8
0
 10
411.98563614560629
 20
217.0223925799184
 30
0.0
  0
VERTEX
  5
A72A
  8
0
 10
412.07921445440297
 20
216.7204756680533
 30
0.0
  0
VERTEX
  5
A72B
  8
0
 10
412.16710940907052
 20
216.4223291922647
 30
0.0
  0
VERTEX
  5
A72C
  8
0
 10
412.24945237907161
 20
216.1277003434754
 30
0.0
  0
VERTEX
  5
A72D
  8
0
 10
412.32636498296893
 20
215.8363452135315
 30
0.0
  0
VERTEX
  5
A72E
  8
0
 10
412.36282035309711
 20
215.69182132496121
 30
0.0
  0
VERTEX
  5
A72F
  8
0
 10
412.39795955592268
 20
215.5480280646573
 30
0.0
  0
VERTEX
  5
A730
  8
0
 10
412.46433957491138
 20
215.26252064332419
 30
0.0
  0
VERTEX
  5
A731
  8
0
 10
412.52560004477817
 20
214.9796015341183
 30
0.0
  0
VERTEX
  5
A732
  8
0
 10
412.58182784787323
 20
214.69905554959291
 30
0.0
  0
VERTEX
  5
A733
  8
0
 10
412.63310205975569
 20
214.42067315239839
 30
0.0
  0
VERTEX
  5
A734
  8
0
 10
412.67949423315019
 20
214.14424990630619
 30
0.0
  0
VERTEX
  5
A735
  8
0
 10
412.70087992174308
 20
214.00671034419361
 30
0.0
  0
VERTEX
  5
A736
  8
0
 10
412.72106865209582
 20
213.86958595297099
 30
0.0
  0
VERTEX
  5
A737
  8
0
 10
412.75788255800683
 20
213.59648551152921
 30
0.0
  0
VERTEX
  5
A738
  8
0
 10
412.78998634914689
 20
213.32475639831341
 30
0.0
  0
VERTEX
  5
A739
  8
0
 10
412.81742375483287
 20
213.05420956413599
 30
0.0
  0
VERTEX
  5
A73A
  8
0
 10
412.8402319855017
 20
212.7846586467569
 30
0.0
  0
VERTEX
  5
A73B
  8
0
 10
412.85844185961122
 20
212.51591953625831
 30
0.0
  0
VERTEX
  5
A73C
  8
0
 10
412.86583032209268
 20
212.3817973856105
 30
0.0
  0
VERTEX
  5
A73D
  8
0
 10
412.87207790818502
 20
212.247809951173
 30
0.0
  0
VERTEX
  5
A73E
  8
0
 10
412.8811584576685
 20
211.98014902329331
 30
0.0
  0
VERTEX
  5
A73F
  8
0
 10
412.88569569161899
 20
211.71275688915529
 30
0.0
  0
VERTEX
  5
A740
  8
0
 10
412.88626270342502
 20
211.57910558770919
 30
0.0
  0
VERTEX
  5
A741
  8
0
 10
412.88569569161871
 20
211.4454542862625
 30
0.0
  0
VERTEX
  5
A742
  8
0
 10
412.88115845766811
 20
211.17806215212499
 30
0.0
  0
VERTEX
  5
A743
  8
0
 10
412.87207790818439
 20
210.91040122424491
 30
0.0
  0
VERTEX
  5
A744
  8
0
 10
412.86583032209188
 20
210.77641378980769
 30
0.0
  0
VERTEX
  5
A745
  8
0
 10
412.85844185961031
 20
210.64229163915959
 30
0.0
  0
VERTEX
  5
A746
  8
0
 10
412.84023198550051
 20
210.37355252866089
 30
0.0
  0
VERTEX
  5
A747
  8
0
 10
412.8174237548314
 20
210.1040016112818
 30
0.0
  0
VERTEX
  5
A748
  8
0
 10
412.78998634914529
 20
209.83345477710441
 30
0.0
  0
VERTEX
  5
A749
  8
0
 10
412.75788255800489
 20
209.56172566388821
 30
0.0
  0
VERTEX
  5
A74A
  8
0
 10
412.72106865209361
 20
209.2886252224468
 30
0.0
  0
VERTEX
  5
A74B
  8
0
 10
412.70087992174092
 20
209.15150083122381
 30
0.0
  0
VERTEX
  5
A74C
  8
0
 10
412.67949423314769
 20
209.01396126911121
 30
0.0
  0
VERTEX
  5
A74D
  8
0
 10
412.63310205975301
 20
208.73753802301891
 30
0.0
  0
VERTEX
  5
A74E
  8
0
 10
412.58182784787022
 20
208.45915562582491
 30
0.0
  0
VERTEX
  5
A74F
  8
0
 10
412.52560004477499
 20
208.17860964129909
 30
0.0
  0
VERTEX
  5
A750
  8
0
 10
412.46433957490791
 20
207.89569053209311
 30
0.0
  0
VERTEX
  5
A751
  8
0
 10
412.39795955591899
 20
207.61018311076009
 30
0.0
  0
VERTEX
  5
A752
  8
0
 10
412.36282035309341
 20
207.4663898504557
 30
0.0
  0
VERTEX
  5
A753
  8
0
 10
412.32636498296512
 20
207.32186596188529
 30
0.0
  0
VERTEX
  5
A754
  8
0
 10
412.24945237906752
 20
207.03051083194151
 30
0.0
  0
VERTEX
  5
A755
  8
0
 10
412.16710940906609
 20
206.73588198315221
 30
0.0
  0
VERTEX
  5
A756
  8
0
 10
412.07921445439848
 20
206.43773550736319
 30
0.0
  0
VERTEX
  5
A757
  8
0
 10
411.98563614560152
 20
206.13581859549799
 30
0.0
  0
VERTEX
  5
A758
  8
0
 10
411.8862328490556
 20
205.8298687577774
 30
0.0
  0
VERTEX
  5
A759
  8
0
 10
411.83429962582471
 20
205.67529661248429
 30
0.0
  0
VERTEX
  5
A75A
  8
0
 10
411.7808521040792
 20
205.51961298938321
 30
0.0
  0
VERTEX
  5
A75B
  8
0
 10
411.66933000601318
 20
205.20476687570709
 30
0.0
  0
VERTEX
  5
A75C
  8
0
 10
411.55149053041418
 20
204.88503363069941
 30
0.0
  0
VERTEX
  5
A75D
  8
0
 10
411.4271447928902
 20
204.5601030611335
 30
0.0
  0
VERTEX
  5
A75E
  8
0
 10
411.29609023844978
 20
204.2296504488038
 30
0.0
  0
VERTEX
  5
A75F
  8
0
 10
411.15810975349632
 20
203.8933353417749
 30
0.0
  0
VERTEX
  5
A760
  8
0
 10
411.08645022062132
 20
203.72286833927981
 30
0.0
  0
VERTEX
  5
A761
  8
0
 10
411.0129706927458
 20
203.5508002447589
 30
0.0
  0
VERTEX
  5
A762
  8
0
 10
410.86042381240298
 20
203.201669197543
 30
0.0
  0
VERTEX
  5
A763
  8
0
 10
410.70020209983272
 20
202.84554622904781
 30
0.0
  0
VERTEX
  5
A764
  8
0
 10
410.0746678134235
 20
201.53780656752559
 30
0.0
  0
VERTEX
  5
A765
  8
0
 10
409.4498462217158
 20
200.32905728155879
 30
0.0
  0
VERTEX
  5
A766
  8
0
 10
408.7312469021947
 20
199.0228783330042
 30
0.0
  0
VERTEX
  5
A767
  8
0
 10
406.95235365786658
 20
196.03808749233229
 30
0.0
  0
VERTEX
  5
A768
  8
0
 10
404.5739935467999
 20
192.3702931428991
 30
0.0
  0
VERTEX
  5
A769
  8
0
 10
401.0598462728409
 20
187.21337177798199
 30
0.0
  0
SEQEND
  5
A76A
  8
0
  0
LINE
  5
A228
  8
1
 10
375.9513854608017
 20
211.57910558770871
 30
0.0
 11
423.4183070848801
 21
211.57910558770871
 31
0.0
  0
LINE
  5
A229
  8
2
 10
309.06155571565068
 20
57.826023865863696
 30
0.0
 11
309.06155571565068
 21
73.626023865863431
 31
0.0
  0
LINE
  5
A22A
  8
2
 10
289.81155571565068
 20
77.626023865863431
 30
0.0
 11
289.81155571565068
 21
74.626023865863431
 31
0.0
  0
LINE
  5
A22B
  8
2
 10
310.31155571565068
 20
77.626023865863431
 30
0.0
 11
310.31155571565068
 21
74.626023865863431
 31
0.0
  0
LINE
  5
A22C
  8
2
 10
308.06155571565068
 20
74.626023865863431
 30
0.0
 11
308.06155571565068
 21
73.626023865863431
 31
0.0
  0
LINE
  5
A22D
  8
0
 10
309.06155571565068
 20
74.626023865863431
 30
0.0
 11
309.06155571565108
 21
61.626023865841262
 31
0.0
  0
LINE
  5
A22E
  8
0
 10
300.06155571565068
 20
182.2471956702816
 30
0.0
 11
301.92071627436962
 21
182.2471956702816
 31
0.0
  0
LINE
  5
A22F
  8
0
 10
287.06155571565643
 20
73.480235241259024
 30
0.0
 11
287.06155571565017
 21
61.626023865843422
 31
0.0
  0
LINE
  5
A230
  8
2
 10
308.06155571565068
 20
73.626023865863431
 30
0.0
 11
309.06155571565068
 21
73.626023865863431
 31
0.0
  0
LINE
  5
A231
  8
2
 10
291.06155571565068
 20
57.826023865863696
 30
0.0
 11
291.06155571565068
 21
73.626023865863431
 31
0.0
  0
LINE
  5
A232
  8
2
 10
292.06155571565068
 20
74.626023865863431
 30
0.0
 11
292.06155571565068
 21
73.626023865863431
 31
0.0
  0
LINE
  5
A233
  8
0
 10
291.06155571565068
 20
74.626023865863431
 30
0.0
 11
291.06155571565017
 21
61.626023865841262
 31
0.0
  0
LINE
  5
A234
  8
2
 10
292.06155571565068
 20
73.626023865863431
 30
0.0
 11
291.06155571565068
 21
73.626023865863431
 31
0.0
  0
LINE
  5
A235
  8
2
 10
401.0598462728409
 20
207.57910558770871
 30
0.0
 11
418.0598462728409
 21
207.57910558770871
 31
0.0
  0
LINE
  5
A236
  8
2
 10
418.0598462728409
 20
215.57910558770871
 30
0.0
 11
401.0598462728409
 21
215.57910558770871
 31
0.0
  0
LINE
  5
A237
  8
2
 10
398.0598462728409
 20
221.82910558770871
 30
0.0
 11
398.0598462728409
 21
201.32910558770871
 31
0.0
  0
LINE
  5
A238
  8
2
 10
417.85984627284063
 20
220.57910558770871
 30
0.0
 11
402.0598462728409
 21
220.57910558770871
 31
0.0
  0
LINE
  5
A239
  8
2
 10
398.0598462728409
 20
201.32910558770871
 30
0.0
 11
401.0598462728409
 21
201.32910558770871
 31
0.0
  0
LINE
  5
A23A
  8
2
 10
398.0598462728409
 20
221.82910558770871
 30
0.0
 11
401.0598462728409
 21
221.82910558770871
 31
0.0
  0
LINE
  5
A23B
  8
2
 10
401.0598462728409
 20
219.57910558770871
 30
0.0
 11
402.0598462728409
 21
219.57910558770871
 31
0.0
  0
LINE
  5
A23C
  8
2
 10
417.85984627284063
 20
202.57910558770871
 30
0.0
 11
402.0598462728409
 21
202.57910558770871
 31
0.0
  0
LINE
  5
A23D
  8
2
 10
401.0598462728409
 20
203.57910558770871
 30
0.0
 11
402.0598462728409
 21
203.57910558770871
 31
0.0
  0
LINE
  5
A23E
  8
2
 10
402.0598462728409
 20
220.57910558770871
 30
0.0
 11
402.0598462728409
 21
219.57910558770871
 31
0.0
  0
LINE
  5
A23F
  8
2
 10
402.0598462728409
 20
203.57910558770871
 30
0.0
 11
402.0598462728409
 21
202.57910558770871
 31
0.0
  0
ARC
  5
A240
  8
0
 10
271.41924607938921
 20
71.026023865863394
 30
0.0
 40
3.6000000000000649
 50
72.940665978856273
 51
90.0
  0
POLYLINE
  5
A241
  8
0
 66
     1
 10
0.0
 20
0.0
 30
0.0
  0
VERTEX
  5
A76B
  8
0
 10
284.63994090911763
 20
74.467629160370052
 30
0.0
  0
VERTEX
  5
A76C
  8
0
 10
284.64904622030258
 20
74.467619462379389
 30
0.0
  0
VERTEX
  5
A76D
  8
0
 10
284.66736530005778
 20
74.467541895737654
 30
0.0
  0
VERTEX
  5
A76E
  8
0
 10
284.68582693366761
 20
74.467386764963067
 30
0.0
  0
VERTEX
  5
A76F
  8
0
 10
284.69511043497039
 20
74.467280098151605
 30
0.0
  0
VERTEX
  5
A770
  8
0
 10
284.70442864572152
 20
74.46715401519441
 30
0.0
  0
VERTEX
  5
A771
  8
0
 10
284.72316795136948
 20
74.466843533527936
 30
0.0
  0
VERTEX
  5
A772
  8
0
 10
284.74204235627798
 20
74.466455149216927
 30
0.0
  0
VERTEX
  5
A773
  8
0
 10
284.7610493565889
 20
74.465988633864072
 30
0.0
  0
VERTEX
  5
A774
  8
0
 10
284.78018643888328
 20
74.465443701594722
 30
0.0
  0
VERTEX
  5
A775
  8
0
 10
284.79945108014567
 20
74.464820009219693
 30
0.0
  0
VERTEX
  5
A776
  8
0
 10
284.80913044431429
 20
74.464478505112311
 30
0.0
  0
VERTEX
  5
A777
  8
0
 10
284.81884074772711
 20
74.464117156388511
 30
0.0
  0
VERTEX
  5
A778
  8
0
 10
284.83835289930948
 20
74.463334685726295
 30
0.0
  0
VERTEX
  5
A779
  8
0
 10
284.85798498286431
 20
74.462472082964723
 30
0.0
  0
VERTEX
  5
A77A
  8
0
 10
284.87773443660842
 20
74.461528777057083
 30
0.0
  0
VERTEX
  5
A77B
  8
0
 10
284.89759868895521
 20
74.460504140286957
 30
0.0
  0
VERTEX
  5
A77C
  8
0
 10
284.91757515845728
 20
74.459397488365994
 30
0.0
  0
VERTEX
  5
A77D
  8
0
 10
284.92760466522782
 20
74.458813177436241
 30
0.0
  0
VERTEX
  5
A77E
  8
0
 10
284.93766125374373
 20
74.458208080518943
 30
0.0
  0
VERTEX
  5
A77F
  8
0
 10
284.95785437344591
 20
74.456935119561422
 30
0.0
  0
VERTEX
  5
A780
  8
0
 10
284.97815190611612
 20
74.455577751970395
 30
0.0
  0
VERTEX
  5
A781
  8
0
 10
284.98833900845767
 20
74.454867133569664
 30
0.0
  0
VERTEX
  5
A782
  8
0
 10
284.99855123013322
 20
74.45413506793966
 30
0.0
  0
VERTEX
  5
A783
  8
0
 10
285.01904845121021
 20
74.452606198040939
 30
0.0
  0
VERTEX
  5
A784
  8
0
 10
285.03962430038388
 20
74.450991472078385
 30
0.0
  0
VERTEX
  5
A785
  8
0
 10
285.04993893629478
 20
74.450151804330289
 30
0.0
  0
VERTEX
  5
A786
  8
0
 10
285.06027092866663
 20
74.449290460810062
 30
0.0
  0
VERTEX
  5
A787
  8
0
 10
285.08098562746522
 20
74.447502309431002
 30
0.0
  0
VERTEX
  5
A788
  8
0
 10
285.10176568245402
 20
74.445626112228624
 30
0.0
  0
VERTEX
  5
A789
  8
0
 10
285.12260837313539
 20
74.44366091339225
 30
0.0
  0
VERTEX
  5
A78A
  8
0
 10
285.14351097243701
 20
74.441605707799226
 30
0.0
  0
VERTEX
  5
A78B
  8
0
 10
285.16447074634448
 20
74.439459441788586
 30
0.0
  0
VERTEX
  5
A78C
  8
0
 10
285.17497121741519
 20
74.438351818771025
 30
0.0
  0
VERTEX
  5
A78D
  8
0
 10
285.18548495356868
 20
74.43722101391495
 30
0.0
  0
VERTEX
  5
A78E
  8
0
 10
285.20655084524401
 20
74.434889275693877
 30
0.0
  0
VERTEX
  5
A78F
  8
0
 10
285.22766566465839
 20
74.432463032327178
 30
0.0
  0
VERTEX
  5
A790
  8
0
 10
285.248826647013
 20
74.429941043422787
 30
0.0
  0
VERTEX
  5
A791
  8
0
 10
285.27003101921122
 20
74.427322023697783
 30
0.0
  0
VERTEX
  5
A792
  8
0
 10
285.29127599967393
 20
74.424604643676943
 30
0.0
  0
VERTEX
  5
A793
  8
0
 10
285.30191284640267
 20
74.423208641178917
 30
0.0
  0
VERTEX
  5
A794
  8
0
 10
285.312558798184
 20
74.421787530375241
 30
0.0
  0
VERTEX
  5
A795
  8
0
 10
285.33387661575551
 20
74.418869267978593
 30
0.0
  0
VERTEX
  5
A796
  8
0
 10
285.35522664452878
 20
74.415848398511116
 30
0.0
  0
VERTEX
  5
A797
  8
0
 10
285.37660606769089
 20
74.412723422498857
 30
0.0
  0
VERTEX
  5
A798
  8
0
 10
285.39801205942172
 20
74.409492799625696
 30
0.0
  0
VERTEX
  5
A799
  8
0
 10
285.41944178486301
 20
74.406154949382199
 30
0.0
  0
VERTEX
  5
A79A
  8
0
 10
285.43016465935892
 20
74.404445309256062
 30
0.0
  0
VERTEX
  5
A79B
  8
0
 10
285.44089240011363
 20
74.402708251710465
 30
0.0
  0
VERTEX
  5
A79C
  8
0
 10
285.4623610522475
 20
74.39915104764259
 30
0.0
  0
VERTEX
  5
A79D
  8
0
 10
285.48384487935749
 20
74.395481639933223
 30
0.0
  0
VERTEX
  5
A79E
  8
0
 10
285.50534101062323
 20
74.391698293691206
 30
0.0
  0
VERTEX
  5
A79F
  8
0
 10
285.52684656640213
 20
74.387799237000763
 30
0.0
  0
VERTEX
  5
A7A0
  8
0
 10
285.54835865834929
 20
74.383782661542682
 30
0.0
  0
VERTEX
  5
A7A1
  8
0
 10
285.55911625043251
 20
74.381729729374001
 30
0.0
  0
VERTEX
  5
A7A2
  8
0
 10
285.56987438955798
 20
74.379646723210044
 30
0.0
  0
VERTEX
  5
A7A3
  8
0
 10
285.59138635564398
 20
74.375390445722573
 30
0.0
  0
VERTEX
  5
A7A4
  8
0
 10
285.61285916672358
 20
74.371018700084733
 30
0.0
  0
VERTEX
  5
A7A5
  8
0
 10
285.63428421126412
 20
74.366531404766192
 30
0.0
  0
VERTEX
  5
A7A6
  8
0
 10
285.65565948922188
 20
74.361927162859047
 30
0.0
  0
VERTEX
  5
A7A7
  8
0
 10
285.67698300252982
 20
74.357204552014991
 30
0.0
  0
VERTEX
  5
A7A8
  8
0
 10
285.68762472324039
 20
74.354798407101953
 30
0.0
  0
VERTEX
  5
A7A9
  8
0
 10
285.69825275371159
 20
74.352362125664968
 30
0.0
  0
VERTEX
  5
A7AA
  8
0
 10
285.71946674464903
 20
74.34739841422288
 30
0.0
  0
VERTEX
  5
A7AB
  8
0
 10
285.74062297550108
 20
74.34231192627476
 30
0.0
  0
VERTEX
  5
A7AC
  8
0
 10
285.7511788052422
 20
74.339722169364904
 30
0.0
  0
VERTEX
  5
A7AD
  8
0
 10
285.76171944377518
 20
74.337101149754744
 30
0.0
  0
VERTEX
  5
A7AE
  8
0
 10
285.78275414354562
 20
74.331764553106041
 30
0.0
  0
VERTEX
  5
A7AF
  8
0
 10
285.8037250648203
 20
74.326300586422803
 30
0.0
  0
VERTEX
  5
A7B0
  8
0
 10
285.8141859791636
 20
74.323520350232229
 30
0.0
  0
VERTEX
  5
A7B1
  8
0
 10
285.82463019305061
 20
74.320707682575176
 30
0.0
  0
VERTEX
  5
A7B2
  8
0
 10
285.84546750878309
 20
74.314984258316144
 30
0.0
  0
VERTEX
  5
A7B3
  8
0
 10
285.86623498744848
 20
74.309128715366114
 30
0.0
  0
VERTEX
  5
A7B4
  8
0
 10
285.88693059928499
 20
74.303139441476105
 30
0.0
  0
VERTEX
  5
A7B5
  8
0
 10
285.90755230939158
 20
74.297014811464578
 30
0.0
  0
VERTEX
  5
A7B6
  8
0
 10
285.92809807790638
 20
74.290753188228337
 30
0.0
  0
VERTEX
  5
A7B7
  8
0
 10
285.93834184532511
 20
74.287570489539576
 30
0.0
  0
VERTEX
  5
A7B8
  8
0
 10
285.9485658603071
 20
74.284352923727056
 30
0.0
  0
VERTEX
  5
A7B9
  8
0
 10
285.96895360782571
 20
74.277812359932796
 30
0.0
  0
VERTEX
  5
A7BA
  8
0
 10
285.98925926797421
 20
74.271129829748588
 30
0.0
  0
VERTEX
  5
A7BB
  8
0
 10
286.0094807851749
 20
74.264303657891105
 30
0.0
  0
VERTEX
  5
A7BC
  8
0
 10
286.02961610148992
 20
74.257332161732393
 30
0.0
  0
VERTEX
  5
A7BD
  8
0
 10
286.04966315744173
 20
74.250213652104776
 30
0.0
  0
VERTEX
  5
A7BE
  8
0
 10
286.0596529439959
 20
74.246598737774534
 30
0.0
  0
VERTEX
  5
A7BF
  8
0
 10
286.06961989292228
 20
74.242946434058922
 30
0.0
  0
VERTEX
  5
A7C0
  8
0
 10
286.08948424817839
 20
74.235528807576429
 30
0.0
  0
VERTEX
  5
A7C1
  8
0
 10
286.10925416487231
 20
74.227959068234213
 30
0.0
  0
VERTEX
  5
A7C2
  8
0
 10
286.12892758720631
 20
74.220235507817961
 30
0.0
  0
VERTEX
  5
A7C3
  8
0
 10
286.1485024631063
 20
74.21235641488056
 30
0.0
  0
VERTEX
  5
A7C4
  8
0
 10
286.1679767454566
 20
74.204320075245946
 30
0.0
  0
VERTEX
  5
A7C5
  8
0
 10
286.17767552599639
 20
74.200242401601827
 30
0.0
  0
VERTEX
  5
A7C6
  8
0
 10
286.18734839337719
 20
74.196124772453459
 30
0.0
  0
VERTEX
  5
A7C7
  8
0
 10
286.2066153735384
 20
74.187768788141966
 30
0.0
  0
VERTEX
  5
A7C8
  8
0
 10
286.2257720661803
 20
74.179252020703188
 30
0.0
  0
VERTEX
  5
A7C9
  8
0
 10
286.24481293298118
 20
74.170574496602967
 30
0.0
  0
VERTEX
  5
A7CA
  8
0
 10
286.26373679161662
 20
74.161734355156554
 30
0.0
  0
VERTEX
  5
A7CB
  8
0
 10
286.28254245791851
 20
74.152729715079658
 30
0.0
  0
VERTEX
  5
A7CC
  8
0
 10
286.29190059723049
 20
74.148165115066135
 30
0.0
  0
VERTEX
  5
A7CD
  8
0
 10
286.30122874161378
 20
74.143558676512839
 30
0.0
  0
VERTEX
  5
A7CE
  8
0
 10
286.3197944460469
 20
74.134219321319961
 30
0.0
  0
VERTEX
  5
A7CF
  8
0
 10
286.3382383679766
 20
74.124709713370066
 30
0.0
  0
VERTEX
  5
A7D0
  8
0
 10
286.35655929744451
 20
74.115027898807512
 30
0.0
  0
VERTEX
  5
A7D1
  8
0
 10
286.3747560177128
 20
74.105171906306168
 30
0.0
  0
VERTEX
  5
A7D2
  8
0
 10
286.39282730526611
 20
74.095139747308167
 30
0.0
  0
VERTEX
  5
A7D3
  8
0
 10
286.40181552758742
 20
74.090056979291603
 30
0.0
  0
VERTEX
  5
A7D4
  8
0
 10
286.41077192987581
 20
74.084929416246723
 30
0.0
  0
VERTEX
  5
A7D5
  8
0
 10
286.4285886547238
 20
74.074538890752123
 30
0.0
  0
VERTEX
  5
A7D6
  8
0
 10
286.44627623658278
 20
74.063966131840971
 30
0.0
  0
VERTEX
  5
A7D7
  8
0
 10
286.45507120868598
 20
74.058610773170585
 30
0.0
  0
VERTEX
  5
A7D8
  8
0
 10
286.46383342604707
 20
74.053209084084301
 30
0.0
  0
VERTEX
  5
A7D9
  8
0
 10
286.48125896781642
 20
74.042265675762792
 30
0.0
  0
VERTEX
  5
A7DA
  8
0
 10
286.49855160102391
 20
74.03113381899675
 30
0.0
  0
VERTEX
  5
A7DB
  8
0
 10
286.50714768146509
 20
74.025496565594494
 30
0.0
  0
VERTEX
  5
A7DC
  8
0
 10
286.51571005961
 20
74.019811409862086
 30
0.0
  0
VERTEX
  5
A7DD
  8
0
 10
286.53273307273702
 20
74.008296328483084
 30
0.0
  0
VERTEX
  5
A7DE
  8
0
 10
286.54961936524143
 20
73.996586439108341
 30
0.0
  0
VERTEX
  5
A7DF
  8
0
 10
286.56636765812431
 20
73.984679590161704
 30
0.0
  0
VERTEX
  5
A7E0
  8
0
 10
286.58297666907328
 20
73.972573614278645
 30
0.0
  0
VERTEX
  5
A7E1
  8
0
 10
286.59944511301791
 20
73.960266328318539
 30
0.0
  0
VERTEX
  5
A7E2
  8
0
 10
286.60762622016767
 20
73.954036507513138
 30
0.0
  0
VERTEX
  5
A7E3
  8
0
 10
286.61577170271272
 20
73.947755533357395
 30
0.0
  0
VERTEX
  5
A7E4
  8
0
 10
286.63195514934932
 20
73.935039014659196
 30
0.0
  0
VERTEX
  5
A7E5
  8
0
 10
286.64799416319329
 20
73.922114541627252
 30
0.0
  0
VERTEX
  5
A7E6
  8
0
 10
286.6638874542457
 20
73.908979867737344
 30
0.0
  0
VERTEX
  5
A7E7
  8
0
 10
286.67963373292707
 20
73.895632730444504
 30
0.0
  0
VERTEX
  5
A7E8
  8
0
 10
286.69523171078379
 20
73.882070851076151
 30
0.0
  0
VERTEX
  5
A7E9
  8
0
 10
286.7029746847474
 20
73.875208666586786
 30
0.0
  0
VERTEX
  5
A7EA
  8
0
 10
286.71068010121439
 20
73.868291934700665
 30
0.0
  0
VERTEX
  5
A7EB
  8
0
 10
286.7259776202161
 20
73.854293669977324
 30
0.0
  0
VERTEX
  5
A7EC
  8
0
 10
286.74112298715028
 20
73.840073728986226
 30
0.0
  0
VERTEX
  5
A7ED
  8
0
 10
286.74863821450549
 20
73.832879897835483
 30
0.0
  0
VERTEX
  5
A7EE
  8
0
 10
286.77492120628699
 20
73.807270442664048
 30
0.0
  0
VERTEX
  5
A7EF
  8
0
 10
286.82601683553588
 20
73.755756668139384
 30
0.0
  0
VERTEX
  5
A7F0
  8
0
 10
286.87508943205899
 20
73.703943621528197
 30
0.0
  0
VERTEX
  5
A7F1
  8
0
 10
286.8988447787076
 20
73.677961226361276
 30
0.0
  0
VERTEX
  5
A7F2
  8
0
 10
286.92206835068782
 20
73.651948160290431
 30
0.0
  0
VERTEX
  5
A7F3
  8
0
 10
286.96688948149472
 20
73.599891000136267
 30
0.0
  0
VERTEX
  5
A7F4
  8
0
 10
287.00949664396308
 20
73.547895697885451
 30
0.0
  0
VERTEX
  5
A7F5
  8
0
 10
287.04984275080409
 20
73.496087659969362
 30
0.0
  0
VERTEX
  5
A7F6
  8
0
 10
287.06155571565643
 20
73.480235241259024
 30
0.0
  0
SEQEND
  5
A7F7
  8
0
  0
LINE
  5
A242
  8
0
 10
272.475348819099
 20
74.467629160370052
 30
0.0
 11
284.63994090911763
 21
74.467629160370052
 31
0.0
  0
POLYLINE
  5
A243
  8
0
 66
     1
 10
0.0
 20
0.0
 30
0.0
  0
VERTEX
  5
A7F8
  8
0
 10
284.8730520786703
 20
74.461759243653887
 30
0.0
  0
VERTEX
  5
A7F9
  8
0
 10
284.83286720070168
 20
74.463562245080539
 30
0.0
  0
VERTEX
  5
A7FA
  8
0
 10
284.75395634688232
 20
74.466171498031144
 30
0.0
  0
VERTEX
  5
A7FB
  8
0
 10
284.67733500149961
 20
74.467467606749778
 30
0.0
  0
VERTEX
  5
A7FC
  8
0
 10
284.63994051376147
 20
74.467629160370052
 30
0.0
  0
SEQEND
  5
A7FD
  8
0
  0
LINE
  5
A244
  8
0
 10
313.061555715645
 20
73.480235241259024
 30
0.0
 11
313.0615557156512
 21
61.626023865843422
 31
0.0
  0
ARC
  5
A245
  8
0
 10
328.7038653519121
 20
71.026023865863394
 30
0.0
 40
3.6000000000000649
 50
90.0
 51
107.0593340211438
  0
POLYLINE
  5
A246
  8
0
 66
     1
 10
0.0
 20
0.0
 30
0.0
  0
VERTEX
  5
A7FE
  8
0
 10
315.48317052218368
 20
74.467629160370052
 30
0.0
  0
VERTEX
  5
A7FF
  8
0
 10
315.47406521099879
 20
74.467619462379389
 30
0.0
  0
VERTEX
  5
A800
  8
0
 10
315.45574613124359
 20
74.467541895737654
 30
0.0
  0
VERTEX
  5
A801
  8
0
 10
315.43728449763381
 20
74.467386764963067
 30
0.0
  0
VERTEX
  5
A802
  8
0
 10
315.42800099633098
 20
74.467280098151605
 30
0.0
  0
VERTEX
  5
A803
  8
0
 10
315.4186827855799
 20
74.46715401519441
 30
0.0
  0
VERTEX
  5
A804
  8
0
 10
315.39994347993178
 20
74.466843533527936
 30
0.0
  0
VERTEX
  5
A805
  8
0
 10
315.38106907502328
 20
74.466455149216927
 30
0.0
  0
VERTEX
  5
A806
  8
0
 10
315.36206207471241
 20
74.465988633864072
 30
0.0
  0
VERTEX
  5
A807
  8
0
 10
315.34292499241798
 20
74.465443701594722
 30
0.0
  0
VERTEX
  5
A808
  8
0
 10
315.3236603511557
 20
74.464820009219693
 30
0.0
  0
VERTEX
  5
A809
  8
0
 10
315.31398098698708
 20
74.464478505112311
 30
0.0
  0
VERTEX
  5
A80A
  8
0
 10
315.3042706835742
 20
74.464117156388511
 30
0.0
  0
VERTEX
  5
A80B
  8
0
 10
315.28475853199188
 20
74.463334685726295
 30
0.0
  0
VERTEX
  5
A80C
  8
0
 10
315.265126448437
 20
74.462472082964723
 30
0.0
  0
VERTEX
  5
A80D
  8
0
 10
315.245376994693
 20
74.461528777057083
 30
0.0
  0
VERTEX
  5
A80E
  8
0
 10
315.22551274234621
 20
74.460504140286957
 30
0.0
  0
VERTEX
  5
A80F
  8
0
 10
315.20553627284397
 20
74.459397488365994
 30
0.0
  0
VERTEX
  5
A810
  8
0
 10
315.19550676607361
 20
74.458813177436241
 30
0.0
  0
VERTEX
  5
A811
  8
0
 10
315.18545017755758
 20
74.458208080518943
 30
0.0
  0
VERTEX
  5
A812
  8
0
 10
315.1652570578554
 20
74.456935119561422
 30
0.0
  0
VERTEX
  5
A813
  8
0
 10
315.1449595251853
 20
74.455577751970395
 30
0.0
  0
VERTEX
  5
A814
  8
0
 10
315.1347724228437
 20
74.454867133569664
 30
0.0
  0
VERTEX
  5
A815
  8
0
 10
315.12456020116821
 20
74.45413506793966
 30
0.0
  0
VERTEX
  5
A816
  8
0
 10
315.1040629800911
 20
74.452606198040939
 30
0.0
  0
VERTEX
  5
A817
  8
0
 10
315.08348713091738
 20
74.450991472078385
 30
0.0
  0
VERTEX
  5
A818
  8
0
 10
315.07317249500659
 20
74.450151804330289
 30
0.0
  0
VERTEX
  5
A819
  8
0
 10
315.0628405026348
 20
74.449290460810062
 30
0.0
  0
VERTEX
  5
A81A
  8
0
 10
315.04212580383609
 20
74.447502309431002
 30
0.0
  0
VERTEX
  5
A81B
  8
0
 10
315.02134574884741
 20
74.445626112228624
 30
0.0
  0
VERTEX
  5
A81C
  8
0
 10
315.00050305816592
 20
74.44366091339225
 30
0.0
  0
VERTEX
  5
A81D
  8
0
 10
314.97960045886441
 20
74.441605707799226
 30
0.0
  0
VERTEX
  5
A81E
  8
0
 10
314.95864068495689
 20
74.439459441788586
 30
0.0
  0
VERTEX
  5
A81F
  8
0
 10
314.94814021388618
 20
74.438351818771025
 30
0.0
  0
VERTEX
  5
A820
  8
0
 10
314.93762647773269
 20
74.43722101391495
 30
0.0
  0
VERTEX
  5
A821
  8
0
 10
314.91656058605741
 20
74.434889275693877
 30
0.0
  0
VERTEX
  5
A822
  8
0
 10
314.89544576664298
 20
74.432463032327178
 30
0.0
  0
VERTEX
  5
A823
  8
0
 10
314.87428478428831
 20
74.429941043422787
 30
0.0
  0
VERTEX
  5
A824
  8
0
 10
314.85308041209021
 20
74.427322023697783
 30
0.0
  0
VERTEX
  5
A825
  8
0
 10
314.8318354316275
 20
74.424604643676943
 30
0.0
  0
VERTEX
  5
A826
  8
0
 10
314.82119858489858
 20
74.423208641178917
 30
0.0
  0
VERTEX
  5
A827
  8
0
 10
314.81055263311742
 20
74.421787530375241
 30
0.0
  0
VERTEX
  5
A828
  8
0
 10
314.7892348155458
 20
74.418869267978593
 30
0.0
  0
VERTEX
  5
A829
  8
0
 10
314.76788478677258
 20
74.415848398511116
 30
0.0
  0
VERTEX
  5
A82A
  8
0
 10
314.74650536361048
 20
74.412723422498857
 30
0.0
  0
VERTEX
  5
A82B
  8
0
 10
314.72509937187971
 20
74.409492799625696
 30
0.0
  0
VERTEX
  5
A82C
  8
0
 10
314.7036696464383
 20
74.406154949382199
 30
0.0
  0
VERTEX
  5
A82D
  8
0
 10
314.6929467719425
 20
74.404445309256062
 30
0.0
  0
VERTEX
  5
A82E
  8
0
 10
314.6822190311878
 20
74.402708251710465
 30
0.0
  0
VERTEX
  5
A82F
  8
0
 10
314.66075037905381
 20
74.39915104764259
 30
0.0
  0
VERTEX
  5
A830
  8
0
 10
314.63926655194382
 20
74.395481639933223
 30
0.0
  0
VERTEX
  5
A831
  8
0
 10
314.6177704206782
 20
74.391698293691206
 30
0.0
  0
VERTEX
  5
A832
  8
0
 10
314.5962648648993
 20
74.387799237000763
 30
0.0
  0
VERTEX
  5
A833
  8
0
 10
314.57475277295202
 20
74.383782661542682
 30
0.0
  0
VERTEX
  5
A834
  8
0
 10
314.5639951808688
 20
74.381729729374001
 30
0.0
  0
VERTEX
  5
A835
  8
0
 10
314.55323704174339
 20
74.379646723210044
 30
0.0
  0
VERTEX
  5
A836
  8
0
 10
314.53172507565739
 20
74.375390445722573
 30
0.0
  0
VERTEX
  5
A837
  8
0
 10
314.51025226457767
 20
74.371018700084733
 30
0.0
  0
VERTEX
  5
A838
  8
0
 10
314.48882722003719
 20
74.366531404766192
 30
0.0
  0
VERTEX
  5
A839
  8
0
 10
314.46745194207949
 20
74.361927162859047
 30
0.0
  0
VERTEX
  5
A83A
  8
0
 10
314.44612842877149
 20
74.357204552014991
 30
0.0
  0
VERTEX
  5
A83B
  8
0
 10
314.43548670806092
 20
74.354798407101953
 30
0.0
  0
VERTEX
  5
A83C
  8
0
 10
314.42485867758978
 20
74.352362125664968
 30
0.0
  0
VERTEX
  5
A83D
  8
0
 10
314.4036446866524
 20
74.34739841422288
 30
0.0
  0
VERTEX
  5
A83E
  8
0
 10
314.38248845580029
 20
74.34231192627476
 30
0.0
  0
VERTEX
  5
A83F
  8
0
 10
314.37193262605922
 20
74.339722169364904
 30
0.0
  0
VERTEX
  5
A840
  8
0
 10
314.36139198752619
 20
74.337101149754744
 30
0.0
  0
VERTEX
  5
A841
  8
0
 10
314.34035728775581
 20
74.331764553106041
 30
0.0
  0
VERTEX
  5
A842
  8
0
 10
314.31938636648113
 20
74.326300586422803
 30
0.0
  0
VERTEX
  5
A843
  8
0
 10
314.30892545213771
 20
74.323520350232229
 30
0.0
  0
VERTEX
  5
A844
  8
0
 10
314.29848123825082
 20
74.320707682575176
 30
0.0
  0
VERTEX
  5
A845
  8
0
 10
314.27764392251828
 20
74.314984258316144
 30
0.0
  0
VERTEX
  5
A846
  8
0
 10
314.25687644385289
 20
74.309128715366114
 30
0.0
  0
VERTEX
  5
A847
  8
0
 10
314.23618083201632
 20
74.303139441476105
 30
0.0
  0
VERTEX
  5
A848
  8
0
 10
314.21555912190979
 20
74.297014811464578
 30
0.0
  0
VERTEX
  5
A849
  8
0
 10
314.19501335339498
 20
74.290753188228337
 30
0.0
  0
VERTEX
  5
A84A
  8
0
 10
314.1847695859762
 20
74.287570489539576
 30
0.0
  0
VERTEX
  5
A84B
  8
0
 10
314.17454557099433
 20
74.284352923727056
 30
0.0
  0
VERTEX
  5
A84C
  8
0
 10
314.15415782347571
 20
74.277812359932796
 30
0.0
  0
VERTEX
  5
A84D
  8
0
 10
314.13385216332722
 20
74.271129829748588
 30
0.0
  0
VERTEX
  5
A84E
  8
0
 10
314.11363064612652
 20
74.264303657891105
 30
0.0
  0
VERTEX
  5
A84F
  8
0
 10
314.0934953298115
 20
74.257332161732393
 30
0.0
  0
VERTEX
  5
A850
  8
0
 10
314.07344827385958
 20
74.250213652104776
 30
0.0
  0
VERTEX
  5
A851
  8
0
 10
314.06345848730541
 20
74.246598737774534
 30
0.0
  0
VERTEX
  5
A852
  8
0
 10
314.05349153837898
 20
74.242946434058922
 30
0.0
  0
VERTEX
  5
A853
  8
0
 10
314.03362718312292
 20
74.235528807576429
 30
0.0
  0
VERTEX
  5
A854
  8
0
 10
314.01385726642911
 20
74.227959068234213
 30
0.0
  0
VERTEX
  5
A855
  8
0
 10
313.99418384409512
 20
74.220235507817961
 30
0.0
  0
VERTEX
  5
A856
  8
0
 10
313.97460896819513
 20
74.21235641488056
 30
0.0
  0
VERTEX
  5
A857
  8
0
 10
313.95513468584483
 20
74.204320075245946
 30
0.0
  0
VERTEX
  5
A858
  8
0
 10
313.94543590530498
 20
74.200242401601827
 30
0.0
  0
VERTEX
  5
A859
  8
0
 10
313.93576303792418
 20
74.196124772453459
 30
0.0
  0
VERTEX
  5
A85A
  8
0
 10
313.91649605776303
 20
74.187768788141966
 30
0.0
  0
VERTEX
  5
A85B
  8
0
 10
313.89733936512113
 20
74.179252020703188
 30
0.0
  0
VERTEX
  5
A85C
  8
0
 10
313.87829849832019
 20
74.170574496602967
 30
0.0
  0
VERTEX
  5
A85D
  8
0
 10
313.8593746396848
 20
74.161734355156554
 30
0.0
  0
VERTEX
  5
A85E
  8
0
 10
313.84056897338291
 20
74.152729715079658
 30
0.0
  0
VERTEX
  5
A85F
  8
0
 10
313.83121083407082
 20
74.148165115066135
 30
0.0
  0
VERTEX
  5
A860
  8
0
 10
313.82188268968753
 20
74.143558676512839
 30
0.0
  0
VERTEX
  5
A861
  8
0
 10
313.80331698525441
 20
74.134219321319961
 30
0.0
  0
VERTEX
  5
A862
  8
0
 10
313.78487306332482
 20
74.124709713370066
 30
0.0
  0
VERTEX
  5
A863
  8
0
 10
313.76655213385692
 20
74.115027898807512
 30
0.0
  0
VERTEX
  5
A864
  8
0
 10
313.74835541358863
 20
74.105171906306168
 30
0.0
  0
VERTEX
  5
A865
  8
0
 10
313.7302841260352
 20
74.095139747308167
 30
0.0
  0
VERTEX
  5
A866
  8
0
 10
313.72129590371401
 20
74.090056979291603
 30
0.0
  0
VERTEX
  5
A867
  8
0
 10
313.71233950142562
 20
74.084929416246723
 30
0.0
  0
VERTEX
  5
A868
  8
0
 10
313.69452277657751
 20
74.074538890752123
 30
0.0
  0
VERTEX
  5
A869
  8
0
 10
313.67683519471859
 20
74.063966131840971
 30
0.0
  0
VERTEX
  5
A86A
  8
0
 10
313.66804022261528
 20
74.058610773170585
 30
0.0
  0
VERTEX
  5
A86B
  8
0
 10
313.65927800525418
 20
74.053209084084301
 30
0.0
  0
VERTEX
  5
A86C
  8
0
 10
313.64185246348501
 20
74.042265675762792
 30
0.0
  0
VERTEX
  5
A86D
  8
0
 10
313.62455983027752
 20
74.03113381899675
 30
0.0
  0
VERTEX
  5
A86E
  8
0
 10
313.61596374983628
 20
74.025496565594494
 30
0.0
  0
VERTEX
  5
A86F
  8
0
 10
313.60740137169142
 20
74.019811409862086
 30
0.0
  0
VERTEX
  5
A870
  8
0
 10
313.59037835856441
 20
74.008296328483084
 30
0.0
  0
VERTEX
  5
A871
  8
0
 10
313.57349206606
 20
73.996586439108341
 30
0.0
  0
VERTEX
  5
A872
  8
0
 10
313.55674377317712
 20
73.984679590161704
 30
0.0
  0
VERTEX
  5
A873
  8
0
 10
313.54013476222809
 20
73.972573614278645
 30
0.0
  0
VERTEX
  5
A874
  8
0
 10
313.52366631828352
 20
73.960266328318539
 30
0.0
  0
VERTEX
  5
A875
  8
0
 10
313.51548521113369
 20
73.954036507513138
 30
0.0
  0
VERTEX
  5
A876
  8
0
 10
313.5073397285887
 20
73.947755533357395
 30
0.0
  0
VERTEX
  5
A877
  8
0
 10
313.49115628195199
 20
73.935039014659196
 30
0.0
  0
VERTEX
  5
A878
  8
0
 10
313.47511726810808
 20
73.922114541627252
 30
0.0
  0
VERTEX
  5
A879
  8
0
 10
313.45922397705567
 20
73.908979867737344
 30
0.0
  0
VERTEX
  5
A87A
  8
0
 10
313.44347769837429
 20
73.895632730444504
 30
0.0
  0
VERTEX
  5
A87B
  8
0
 10
313.42787972051758
 20
73.882070851076151
 30
0.0
  0
VERTEX
  5
A87C
  8
0
 10
313.42013674655402
 20
73.875208666586786
 30
0.0
  0
VERTEX
  5
A87D
  8
0
 10
313.41243133008697
 20
73.868291934700665
 30
0.0
  0
VERTEX
  5
A87E
  8
0
 10
313.39713381108533
 20
73.854293669977324
 30
0.0
  0
VERTEX
  5
A87F
  8
0
 10
313.38198844415109
 20
73.840073728986226
 30
0.0
  0
VERTEX
  5
A880
  8
0
 10
313.37447321679588
 20
73.832879897835483
 30
0.0
  0
VERTEX
  5
A881
  8
0
 10
313.34819022501438
 20
73.807270442664048
 30
0.0
  0
VERTEX
  5
A882
  8
0
 10
313.29709459576537
 20
73.755756668139384
 30
0.0
  0
VERTEX
  5
A883
  8
0
 10
313.24802199924238
 20
73.703943621528197
 30
0.0
  0
VERTEX
  5
A884
  8
0
 10
313.22426665259383
 20
73.677961226361276
 30
0.0
  0
VERTEX
  5
A885
  8
0
 10
313.20104308061349
 20
73.651948160290431
 30
0.0
  0
VERTEX
  5
A886
  8
0
 10
313.15622194980671
 20
73.599891000136267
 30
0.0
  0
VERTEX
  5
A887
  8
0
 10
313.11361478733829
 20
73.547895697885451
 30
0.0
  0
VERTEX
  5
A888
  8
0
 10
313.07326868049722
 20
73.496087659969362
 30
0.0
  0
VERTEX
  5
A889
  8
0
 10
313.061555715645
 20
73.480235241259024
 30
0.0
  0
SEQEND
  5
A88A
  8
0
  0
LINE
  5
A247
  8
0
 10
327.64776261220243
 20
74.467629160370052
 30
0.0
 11
315.48317052218368
 21
74.467629160370052
 31
0.0
  0
POLYLINE
  5
A248
  8
0
 66
     1
 10
0.0
 20
0.0
 30
0.0
  0
VERTEX
  5
A88B
  8
0
 10
315.25005935263113
 20
74.461759243653887
 30
0.0
  0
VERTEX
  5
A88C
  8
0
 10
315.29024423059968
 20
74.463562245080539
 30
0.0
  0
VERTEX
  5
A88D
  8
0
 10
315.36915508441899
 20
74.466171498031144
 30
0.0
  0
VERTEX
  5
A88E
  8
0
 10
315.44577642980181
 20
74.467467606749778
 30
0.0
  0
VERTEX
  5
A88F
  8
0
 10
315.48317091753989
 20
74.467629160370052
 30
0.0
  0
SEQEND
  5
A890
  8
0
  0
LINE
  5
A249
  8
2
 10
289.81155571565068
 20
74.626023865863431
 30
0.0
 11
310.31155571565068
 21
74.626023865863544
 31
0.0
  0
ARC
  5
A24A
  8
0
 10
389.05984627284101
 20
193.32910558770891
 30
0.0
 40
7.75
 50
180.0
 51
219.26802600175549
  0
LINE
  5
A24B
  8
0
 10
381.30984627284101
 20
213.009105587709
 30
0.0
 11
381.30984627284101
 21
193.32910558770891
 31
0.0
  0
ARC
  5
A24C
  8
0
 10
383.87984627284089
 20
213.009105587709
 30
0.0
 40
2.5699999999999972
 50
117.9610742491967
 51
180.0
  0
LINE
  5
A24D
  8
0
 10
382.67484627284102
 20
230.37910558770889
 30
0.0
 11
382.67484627284102
 21
215.27910008109441
 31
0.0
  0
ARC
  5
A24E
  8
0
 10
382.8748462728409
 20
230.37910558770901
 30
0.0
 40
0.1999999999999815
 50
90.0
 51
180.0
  0
LINE
  5
A24F
  8
0
 10
383.0598462728409
 20
193.32910558770891
 30
0.0
 11
381.30984627284101
 21
193.32910558770891
 31
0.0
  0
LINE
  5
A250
  8
0
 10
383.0598462728409
 20
213.0091055877088
 30
0.0
 11
381.30984627284101
 21
213.009105587709
 31
0.0
  0
LINE
  5
A251
  8
0
 10
383.0598462728409
 20
215.27910008109441
 30
0.0
 11
382.67484627284102
 21
215.27910008109441
 31
0.0
  0
LINE
  5
A252
  8
0
 10
383.0598462728409
 20
230.57910558770891
 30
0.0
 11
382.8748462728409
 21
230.57910558770891
 31
0.0
  0
CIRCLE
  5
A253
  8
0
 10
172.1307284714548
 20
240.57910558770871
 30
0.0
 40
7.75
  0
LINE
  5
A254
  8
1
 10
172.1307284714548
 20
231.6977347378099
 30
0.0
 11
172.1307284714548
 21
249.46047643760741
 31
0.0
  0
LINE
  5
A255
  8
1
 10
161.3807284714548
 20
240.57910558770871
 30
0.0
 11
182.8807284714548
 21
240.57910558770871
 31
0.0
  0
CIRCLE
  5
A256
  8
0
 10
172.1307284714548
 20
211.57910558770871
 30
0.0
 40
40.0
  0
CIRCLE
  5
A257
  8
0
 10
172.1307284714548
 20
211.57910558770871
 30
0.0
 40
37.011116267051143
  0
ARC
  5
A258
  8
0
 10
172.1307284714548
 20
211.9659537498392
 30
0.0
 40
29.718758079557649
 50
105.11546233658579
 51
74.884537663414179
  0
CIRCLE
  5
A259
  8
0
 10
172.1307284714548
 20
211.57910558770871
 30
0.0
 40
11.49999999999998
  0
POLYLINE
  5
A25A
  8
0
 66
     1
 10
0.0
 20
0.0
 30
0.0
  0
VERTEX
  5
A891
  8
0
 10
187.5523436733551
 20
234.4520720657122
 30
0.0
  0
VERTEX
  5
A892
  8
0
 10
187.5380133334919
 20
234.46163332712899
 30
0.0
  0
VERTEX
  5
A893
  8
0
 10
187.5089465140903
 20
234.480420264081
 30
0.0
  0
VERTEX
  5
A894
  8
0
 10
187.47935152427769
 20
234.49873951149431
 30
0.0
  0
VERTEX
  5
A895
  8
0
 10
187.46436119721781
 20
234.50771636259259
 30
0.0
  0
VERTEX
  5
A896
  8
0
 10
187.44924521756269
 20
234.5165675390738
 30
0.0
  0
VERTEX
  5
A897
  8
0
 10
187.4186453123942
 20
234.53388175519939
 30
0.0
  0
VERTEX
  5
A898
  8
0
 10
187.3875702890243
 20
234.5506605753246
 30
0.0
  0
VERTEX
  5
A899
  8
0
 10
187.35603928121259
 20
234.5668834799155
 30
0.0
  0
VERTEX
  5
A89A
  8
0
 10
187.3240719624975
 20
234.58253106207869
 30
0.0
  0
VERTEX
  5
A89B
  8
0
 10
187.29168842680909
 20
234.5975850648758
 30
0.0
  0
VERTEX
  5
A89C
  8
0
 10
187.27534694120959
 20
234.6048840899968
 30
0.0
  0
VERTEX
  5
A89D
  8
0
 10
187.25890906324949
 20
234.6120284082206
 30
0.0
  0
VERTEX
  5
A89E
  8
0
 10
187.22575442541179
 20
234.62584520490711
 30
0.0
  0
VERTEX
  5
A89F
  8
0
 10
187.1922452168875
 20
234.63902071909871
 30
0.0
  0
VERTEX
  5
A8A0
  8
0
 10
187.1584027085292
 20
234.65154117344599
 30
0.0
  0
VERTEX
  5
A8A1
  8
0
 10
187.124248889748
 20
234.66339370765601
 30
0.0
  0
VERTEX
  5
A8A2
  8
0
 10
187.08980637159399
 20
234.67456643829081
 30
0.0
  0
VERTEX
  5
A8A3
  8
0
 10
187.07248406004231
 20
234.6798944438317
 30
0.0
  0
VERTEX
  5
A8A4
  8
0
 10
187.05509828032291
 20
234.68504851082821
 30
0.0
  0
VERTEX
  5
A8A5
  8
0
 10
187.0201481484894
 20
234.69483014114959
 30
0.0
  0
VERTEX
  5
A8A6
  8
0
 10
186.98497980345491
 20
234.70390264662069
 30
0.0
  0
VERTEX
  5
A8A7
  8
0
 10
186.96732129960151
 20
234.70817057071619
 30
0.0
  0
VERTEX
  5
A8A8
  8
0
 10
186.9496172531837
 20
234.712258466827
 30
0.0
  0
VERTEX
  5
A8A9
  8
0
 10
186.91408456921431
 20
234.71989117396271
 30
0.0
  0
VERTEX
  5
A8AA
  8
0
 10
186.87840571847931
 20
234.72679548159451
 30
0.0
  0
VERTEX
  5
A8AB
  8
0
 10
186.86051690363249
 20
234.72997348814559
 30
0.0
  0
VERTEX
  5
A8AC
  8
0
 10
186.8425974335218
 20
234.7329683632081
 30
0.0
  0
VERTEX
  5
A8AD
  8
0
 10
186.80667861380741
 20
234.73840695032891
 30
0.0
  0
VERTEX
  5
A8AE
  8
0
 10
186.7706737439498
 20
234.74310833950929
 30
0.0
  0
VERTEX
  5
A8AF
  8
0
 10
186.73460772916309
 20
234.7470706751362
 30
0.0
  0
VERTEX
  5
A8B0
  8
0
 10
186.6985057825672
 20
234.75029318975089
 30
0.0
  0
VERTEX
  5
A8B1
  8
0
 10
186.66239331198679
 20
234.75277623349189
 30
0.0
  0
VERTEX
  5
A8B2
  8
0
 10
186.64434109540301
 20
234.75374087362911
 30
0.0
  0
VERTEX
  5
A8B3
  8
0
 10
186.6262958061838
 20
234.754521292851
 30
0.0
  0
VERTEX
  5
A8B4
  8
0
 10
186.59023872041479
 20
234.75553099884681
 30
0.0
  0
VERTEX
  5
A8B5
  8
0
 10
186.5542473611583
 20
234.7558091246631
 30
0.0
  0
VERTEX
  5
A8B6
  8
0
 10
186.51834676983481
 20
234.7553605726973
 30
0.0
  0
VERTEX
  5
A8B7
  8
0
 10
186.4825616256251
 20
234.75419135176321
 30
0.0
  0
VERTEX
  5
A8B8
  8
0
 10
186.44691649513831
 20
234.75230856771461
 30
0.0
  0
VERTEX
  5
A8B9
  8
0
 10
186.4291541903944
 20
234.75110211877771
 30
0.0
  0
VERTEX
  5
A8BA
  8
0
 10
186.4114362288835
 20
234.7497204596477
 30
0.0
  0
VERTEX
  5
A8BB
  8
0
 10
186.37614590617181
 20
234.74643644044841
 30
0.0
  0
VERTEX
  5
A8BC
  8
0
 10
186.34107070864559
 20
234.7424671249326
 30
0.0
  0
VERTEX
  5
A8BD
  8
0
 10
186.30623579607411
 20
234.73782434614921
 30
0.0
  0
VERTEX
  5
A8BE
  8
0
 10
186.2716661843838
 20
234.7325211601603
 30
0.0
  0
VERTEX
  5
A8BF
  8
0
 10
186.23738662575329
 20
234.72657183952629
 30
0.0
  0
VERTEX
  5
A8C0
  8
0
 10
186.22036325017751
 20
234.7233596674044
 30
0.0
  0
VERTEX
  5
A8C1
  8
0
 10
186.20342149051271
 20
234.7199918556164
 30
0.0
  0
VERTEX
  5
A8C2
  8
0
 10
186.169794650483
 20
234.7127978497476
 30
0.0
  0
VERTEX
  5
A8C3
  8
0
 10
186.13643223934429
 20
234.70498385836601
 30
0.0
  0
VERTEX
  5
A8C4
  8
0
 10
186.10305512425219
 20
234.69648286867849
 30
0.0
  0
VERTEX
  5
A8C5
  8
0
 10
186.0696690490258
 20
234.6872854116321
 30
0.0
  0
VERTEX
  5
A8C6
  8
0
 10
186.0363018907093
 20
234.67738821732809
 30
0.0
  0
VERTEX
  5
A8C7
  8
0
 10
186.01963408518009
 20
234.67217653039759
 30
0.0
  0
VERTEX
  5
A8C8
  8
0
 10
186.0029813988051
 20
234.66678923290721
 30
0.0
  0
VERTEX
  5
A8C9
  8
0
 10
185.96973508347239
 20
234.655487592546
 30
0.0
  0
VERTEX
  5
A8CA
  8
0
 10
185.9365901078709
 20
234.64348357747511
 30
0.0
  0
VERTEX
  5
A8CB
  8
0
 10
185.90357318435801
 20
234.63077856596351
 30
0.0
  0
VERTEX
  5
A8CC
  8
0
 10
185.87071047436919
 20
234.6173749731467
 30
0.0
  0
VERTEX
  5
A8CD
  8
0
 10
185.83802749192921
 20
234.60327618053751
 30
0.0
  0
VERTEX
  5
A8CE
  8
0
 10
185.82176117173231
 20
234.59596738556161
 30
0.0
  0
VERTEX
  5
A8CF
  8
0
 10
185.80554901223559
 20
234.58848645566579
 30
0.0
  0
VERTEX
  5
A8D0
  8
0
 10
185.7732991302295
 20
234.5730109331237
 30
0.0
  0
VERTEX
  5
A8D1
  8
0
 10
185.74130166966
 20
234.55685578631821
 30
0.0
  0
VERTEX
  5
A8D2
  8
0
 10
185.72540499201611
 20
234.54852558299649
 30
0.0
  0
VERTEX
  5
A8D3
  8
0
 10
185.70958025978859
 20
234.5400282829207
 30
0.0
  0
VERTEX
  5
A8D4
  8
0
 10
185.67815823095631
 20
234.52253675380169
 30
0.0
  0
VERTEX
  5
A8D5
  8
0
 10
185.64705851299891
 20
234.50439055239741
 30
0.0
  0
VERTEX
  5
A8D6
  8
0
 10
185.63163655294051
 20
234.49507514031691
 30
0.0
  0
VERTEX
  5
A8D7
  8
0
 10
185.61630353932571
 20
234.48560000597379
 30
0.0
  0
VERTEX
  5
A8D8
  8
0
 10
185.58591515645301
 20
234.46617635880261
 30
0.0
  0
VERTEX
  5
A8D9
  8
0
 10
185.55591453883099
 20
234.44613170720569
 30
0.0
  0
VERTEX
  5
A8DA
  8
0
 10
185.5263221088646
 20
234.4254789263843
 30
0.0
  0
VERTEX
  5
A8DB
  8
0
 10
185.4971573839295
 20
234.40423153071771
 30
0.0
  0
VERTEX
  5
A8DC
  8
0
 10
185.46843342423651
 20
234.38239931565269
 30
0.0
  0
VERTEX
  5
A8DD
  8
0
 10
185.4542411985023
 20
234.3712674143396
 30
0.0
  0
VERTEX
  5
A8DE
  8
0
 10
185.44016520700669
 20
234.35999416844589
 30
0.0
  0
VERTEX
  5
A8DF
  8
0
 10
185.412370965397
 20
234.337031569022
 30
0.0
  0
VERTEX
  5
A8E0
  8
0
 10
185.38506846611969
 20
234.3135279668675
 30
0.0
  0
VERTEX
  5
A8E1
  8
0
 10
185.35827491170139
 20
234.2895007304721
 30
0.0
  0
VERTEX
  5
A8E2
  8
0
 10
185.33200684962179
 20
234.26496808974909
 30
0.0
  0
VERTEX
  5
A8E3
  8
0
 10
185.3062800881425
 20
234.23994907146081
 30
0.0
  0
VERTEX
  5
A8E4
  8
0
 10
185.29362441384001
 20
234.2272633170098
 30
0.0
  0
VERTEX
  5
A8E5
  8
0
 10
185.28110961866071
 20
234.2144634276313
 30
0.0
  0
VERTEX
  5
A8E6
  8
0
 10
185.25650954445021
 20
234.18853155682089
 30
0.0
  0
VERTEX
  5
A8E7
  8
0
 10
185.2324930156926
 20
234.16217441808951
 30
0.0
  0
VERTEX
  5
A8E8
  8
0
 10
185.2090721812892
 20
234.1354134496689
 30
0.0
  0
VERTEX
  5
A8E9
  8
0
 10
185.18625834357411
 20
234.10827072155621
 30
0.0
  0
VERTEX
  5
A8EA
  8
0
 10
185.16406219340391
 20
234.08076923651041
 30
0.0
  0
VERTEX
  5
A8EB
  8
0
 10
185.15319891191871
 20
234.06689140407869
 30
0.0
  0
VERTEX
  5
A8EC
  8
0
 10
185.1424937526958
 20
234.05293292549439
 30
0.0
  0
VERTEX
  5
A8ED
  8
0
 10
185.12156227464729
 20
234.0247865813019
 30
0.0
  0
VERTEX
  5
A8EE
  8
0
 10
185.10127615306001
 20
233.99635578615491
 30
0.0
  0
VERTEX
  5
A8EF
  8
0
 10
185.08164284055781
 20
233.96766683342429
 30
0.0
  0
VERTEX
  5
A8F0
  8
0
 10
185.06266877545201
 20
233.93874664345799
 30
0.0
  0
VERTEX
  5
A8F1
  8
0
 10
185.0443593170248
 20
233.90962267336749
 30
0.0
  0
VERTEX
  5
A8F2
  8
0
 10
185.03545518097371
 20
233.8949929742746
 30
0.0
  0
VERTEX
  5
A8F3
  8
0
 10
185.0267186890265
 20
233.8803228204963
 30
0.0
  0
VERTEX
  5
A8F4
  8
0
 10
185.00971037782739
 20
233.85080513230261
 30
0.0
  0
VERTEX
  5
A8F5
  8
0
 10
184.9931721394764
 20
233.82078371284319
 30
0.0
  0
VERTEX
  5
A8F6
  8
0
 10
184.9771088838632
 20
233.79024097910931
 30
0.0
  0
VERTEX
  5
A8F7
  8
0
 10
184.96154588627451
 20
233.7591967559249
 30
0.0
  0
VERTEX
  5
A8F8
  8
0
 10
184.94650724896209
 20
233.72767172641781
 30
0.0
  0
VERTEX
  5
A8F9
  8
0
 10
184.9391917605476
 20
233.71173557860379
 30
0.0
  0
VERTEX
  5
A8FA
  8
0
 10
184.9320158368343
 20
233.6956873142874
 30
0.0
  0
VERTEX
  5
A8FB
  8
0
 10
184.9180932247115
 20
233.66326556039419
 30
0.0
  0
VERTEX
  5
A8FC
  8
0
 10
184.90475965602019
 20
233.63042899310881
 30
0.0
  0
VERTEX
  5
A8FD
  8
0
 10
184.89831971740611
 20
233.6138622944456
 30
0.0
  0
VERTEX
  5
A8FE
  8
0
 10
184.89203401299221
 20
233.5972004919324
 30
0.0
  0
VERTEX
  5
A8FF
  8
0
 10
184.8799337986315
 20
233.563603144052
 30
0.0
  0
VERTEX
  5
A900
  8
0
 10
184.86847515900689
 20
233.52966017981061
 30
0.0
  0
VERTEX
  5
A901
  8
0
 10
184.86299114628611
 20
233.51256648747241
 30
0.0
  0
VERTEX
  5
A902
  8
0
 10
184.8576730474044
 20
233.49539536303681
 30
0.0
  0
VERTEX
  5
A903
  8
0
 10
184.8475412824607
 20
233.46083320634881
 30
0.0
  0
VERTEX
  5
A904
  8
0
 10
184.83809249121441
 20
233.42599886673381
 30
0.0
  0
VERTEX
  5
A905
  8
0
 10
184.8293380583923
 20
233.39091802320689
 30
0.0
  0
VERTEX
  5
A906
  8
0
 10
184.8212880875123
 20
233.3556167519512
 30
0.0
  0
VERTEX
  5
A907
  8
0
 10
184.81395137364001
 20
233.32012139851921
 30
0.0
  0
VERTEX
  5
A908
  8
0
 10
184.81055287467689
 20
233.30230921542881
 30
0.0
  0
VERTEX
  5
A909
  8
0
 10
184.80733538777179
 20
233.2844584466859
 30
0.0
  0
VERTEX
  5
A90A
  8
0
 10
184.8014462729513
 20
233.24865438354959
 30
0.0
  0
VERTEX
  5
A90B
  8
0
 10
184.79628839861809
 20
233.2127321536471
 30
0.0
  0
VERTEX
  5
A90C
  8
0
 10
184.79186468320421
 20
233.17671056417271
 30
0.0
  0
VERTEX
  5
A90D
  8
0
 10
184.78817815282349
 20
233.1406164538532
 30
0.0
  0
VERTEX
  5
A90E
  8
0
 10
184.7852305984907
 20
233.1044773183969
 30
0.0
  0
VERTEX
  5
A90F
  8
0
 10
184.78403413868881
 20
233.08639952342239
 30
0.0
  0
VERTEX
  5
A910
  8
0
 10
184.7830224985243
 20
233.0683208773055
 30
0.0
  0
VERTEX
  5
A911
  8
0
 10
184.78155299982581
 20
233.03217494270871
 30
0.0
  0
VERTEX
  5
A912
  8
0
 10
184.78081991131441
 20
232.99606728680891
 30
0.0
  0
VERTEX
  5
A913
  8
0
 10
184.78072847145489
 20
232.978036448241
 30
0.0
  0
SEQEND
  5
A914
  8
0
  0
ARC
  5
A25B
  8
0
 10
172.1307284714548
 20
211.57910558770871
 30
0.0
 40
27.586206896551719
 50
303.98898668803662
 51
56.01101232156833
  0
POLYLINE
  5
A25C
  8
0
 66
     1
 10
0.0
 20
0.0
 30
0.0
  0
VERTEX
  5
A915
  8
0
 10
184.78072847145489
 20
190.18017472717631
 30
0.0
  0
VERTEX
  5
A916
  8
0
 10
184.78081991131441
 20
190.1621438886084
 30
0.0
  0
VERTEX
  5
A917
  8
0
 10
184.78155299982581
 20
190.1260362327086
 30
0.0
  0
VERTEX
  5
A918
  8
0
 10
184.7830224985243
 20
190.08989029811181
 30
0.0
  0
VERTEX
  5
A919
  8
0
 10
184.78403413868881
 20
190.07181165199489
 30
0.0
  0
VERTEX
  5
A91A
  8
0
 10
184.7852305984907
 20
190.0537338570204
 30
0.0
  0
VERTEX
  5
A91B
  8
0
 10
184.78817815282349
 20
190.0175947215636
 30
0.0
  0
VERTEX
  5
A91C
  8
0
 10
184.79186468320421
 20
189.9815006112446
 30
0.0
  0
VERTEX
  5
A91D
  8
0
 10
184.79628839861809
 20
189.9454790217703
 30
0.0
  0
VERTEX
  5
A91E
  8
0
 10
184.8014462729513
 20
189.9095567918678
 30
0.0
  0
VERTEX
  5
A91F
  8
0
 10
184.80733538777179
 20
189.8737527287314
 30
0.0
  0
VERTEX
  5
A920
  8
0
 10
184.81055287467689
 20
189.85590195998861
 30
0.0
  0
VERTEX
  5
A921
  8
0
 10
184.81395137364001
 20
189.83808977689819
 30
0.0
  0
VERTEX
  5
A922
  8
0
 10
184.8212880875123
 20
189.80259442346619
 30
0.0
  0
VERTEX
  5
A923
  8
0
 10
184.8293380583923
 20
189.76729315221041
 30
0.0
  0
VERTEX
  5
A924
  8
0
 10
184.83809249121441
 20
189.7322123086835
 30
0.0
  0
VERTEX
  5
A925
  8
0
 10
184.8475412824607
 20
189.69737796906861
 30
0.0
  0
VERTEX
  5
A926
  8
0
 10
184.8576730474044
 20
189.66281581238059
 30
0.0
  0
VERTEX
  5
A927
  8
0
 10
184.8629911462863
 20
189.64564468794489
 30
0.0
  0
VERTEX
  5
A928
  8
0
 10
184.86847515900689
 20
189.6285509956067
 30
0.0
  0
VERTEX
  5
A929
  8
0
 10
184.8799337986315
 20
189.5946080313654
 30
0.0
  0
VERTEX
  5
A92A
  8
0
 10
184.89203401299221
 20
189.56101068348491
 30
0.0
  0
VERTEX
  5
A92B
  8
0
 10
184.89831971740611
 20
189.54434888097171
 30
0.0
  0
VERTEX
  5
A92C
  8
0
 10
184.90475965602019
 20
189.5277821823085
 30
0.0
  0
VERTEX
  5
A92D
  8
0
 10
184.9180932247115
 20
189.4949456150232
 30
0.0
  0
VERTEX
  5
A92E
  8
0
 10
184.9320158368343
 20
189.46252386112991
 30
0.0
  0
VERTEX
  5
A92F
  8
0
 10
184.9391917605476
 20
189.4464755968136
 30
0.0
  0
VERTEX
  5
A930
  8
0
 10
184.94650724896209
 20
189.4305394489995
 30
0.0
  0
VERTEX
  5
A931
  8
0
 10
184.96154588627459
 20
189.3990144194924
 30
0.0
  0
VERTEX
  5
A932
  8
0
 10
184.9771088838632
 20
189.36797019630811
 30
0.0
  0
VERTEX
  5
A933
  8
0
 10
184.9931721394764
 20
189.3374274625742
 30
0.0
  0
VERTEX
  5
A934
  8
0
 10
185.00971037782739
 20
189.3074060431147
 30
0.0
  0
VERTEX
  5
A935
  8
0
 10
185.0267186890265
 20
189.277888354921
 30
0.0
  0
VERTEX
  5
A936
  8
0
 10
185.03545518097371
 20
189.26321820114271
 30
0.0
  0
VERTEX
  5
A937
  8
0
 10
185.0443593170248
 20
189.24858850204981
 30
0.0
  0
VERTEX
  5
A938
  8
0
 10
185.06266877545201
 20
189.21946453195929
 30
0.0
  0
VERTEX
  5
A939
  8
0
 10
185.08164284055781
 20
189.19054434199299
 30
0.0
  0
VERTEX
  5
A93A
  8
0
 10
185.1012761530601
 20
189.1618553892624
 30
0.0
  0
VERTEX
  5
A93B
  8
0
 10
185.12156227464729
 20
189.13342459411541
 30
0.0
  0
VERTEX
  5
A93C
  8
0
 10
185.14249375269591
 20
189.105278249923
 30
0.0
  0
VERTEX
  5
A93D
  8
0
 10
185.15319891191879
 20
189.0913197713387
 30
0.0
  0
VERTEX
  5
A93E
  8
0
 10
185.16406219340391
 20
189.07744193890699
 30
0.0
  0
VERTEX
  5
A93F
  8
0
 10
185.1862583435742
 20
189.0499404538611
 30
0.0
  0
VERTEX
  5
A940
  8
0
 10
185.2090721812892
 20
189.0227977257484
 30
0.0
  0
VERTEX
  5
A941
  8
0
 10
185.2324930156926
 20
188.9960367573278
 30
0.0
  0
VERTEX
  5
A942
  8
0
 10
185.25650954445021
 20
188.9696796185965
 30
0.0
  0
VERTEX
  5
A943
  8
0
 10
185.28110961866079
 20
188.94374774778609
 30
0.0
  0
VERTEX
  5
A944
  8
0
 10
185.29362441384001
 20
188.93094785840751
 30
0.0
  0
VERTEX
  5
A945
  8
0
 10
185.3062800881425
 20
188.91826210395649
 30
0.0
  0
VERTEX
  5
A946
  8
0
 10
185.33200684962179
 20
188.89324308566819
 30
0.0
  0
VERTEX
  5
A947
  8
0
 10
185.3582749117015
 20
188.86871044494521
 30
0.0
  0
VERTEX
  5
A948
  8
0
 10
185.38506846611969
 20
188.8446832085499
 30
0.0
  0
VERTEX
  5
A949
  8
0
 10
185.412370965397
 20
188.82117960639491
 30
0.0
  0
VERTEX
  5
A94A
  8
0
 10
185.44016520700669
 20
188.7982170069715
 30
0.0
  0
VERTEX
  5
A94B
  8
0
 10
185.45424119850239
 20
188.78694376107771
 30
0.0
  0
VERTEX
  5
A94C
  8
0
 10
185.46843342423651
 20
188.77581185976459
 30
0.0
  0
VERTEX
  5
A94D
  8
0
 10
185.4971573839297
 20
188.75397964469971
 30
0.0
  0
VERTEX
  5
A94E
  8
0
 10
185.52632210886469
 20
188.73273224903301
 30
0.0
  0
VERTEX
  5
A94F
  8
0
 10
185.55591453883099
 20
188.71207946821161
 30
0.0
  0
VERTEX
  5
A950
  8
0
 10
185.58591515645301
 20
188.69203481661469
 30
0.0
  0
VERTEX
  5
A951
  8
0
 10
185.61630353932571
 20
188.6726111694436
 30
0.0
  0
VERTEX
  5
A952
  8
0
 10
185.63163655294051
 20
188.66313603510051
 30
0.0
  0
VERTEX
  5
A953
  8
0
 10
185.647058512999
 20
188.65382062302001
 30
0.0
  0
VERTEX
  5
A954
  8
0
 10
185.67815823095631
 20
188.6356744216157
 30
0.0
  0
VERTEX
  5
A955
  8
0
 10
185.70958025978859
 20
188.61818289249661
 30
0.0
  0
VERTEX
  5
A956
  8
0
 10
185.72540499201611
 20
188.6096855924209
 30
0.0
  0
VERTEX
  5
A957
  8
0
 10
185.7413016696602
 20
188.6013553890991
 30
0.0
  0
VERTEX
  5
A958
  8
0
 10
185.7732991302295
 20
188.58520024229369
 30
0.0
  0
VERTEX
  5
A959
  8
0
 10
185.80554901223559
 20
188.56972471975149
 30
0.0
  0
VERTEX
  5
A95A
  8
0
 10
185.82176117173231
 20
188.5622437898557
 30
0.0
  0
VERTEX
  5
A95B
  8
0
 10
185.83802749192921
 20
188.55493499487989
 30
0.0
  0
VERTEX
  5
A95C
  8
0
 10
185.87071047436919
 20
188.54083620227061
 30
0.0
  0
VERTEX
  5
A95D
  8
0
 10
185.90357318435801
 20
188.5274326094538
 30
0.0
  0
VERTEX
  5
A95E
  8
0
 10
185.9365901078711
 20
188.51472759794231
 30
0.0
  0
VERTEX
  5
A95F
  8
0
 10
185.96973508347239
 20
188.50272358287131
 30
0.0
  0
VERTEX
  5
A960
  8
0
 10
186.0029813988051
 20
188.49142194251019
 30
0.0
  0
VERTEX
  5
A961
  8
0
 10
186.01963408518009
 20
188.4860346450198
 30
0.0
  0
VERTEX
  5
A962
  8
0
 10
186.03630189070941
 20
188.48082295808919
 30
0.0
  0
VERTEX
  5
A963
  8
0
 10
186.0696690490258
 20
188.47092576378529
 30
0.0
  0
VERTEX
  5
A964
  8
0
 10
186.10305512425219
 20
188.46172830673891
 30
0.0
  0
VERTEX
  5
A965
  8
0
 10
186.1364322393444
 20
188.45322731705139
 30
0.0
  0
VERTEX
  5
A966
  8
0
 10
186.16979465048311
 20
188.4454133256697
 30
0.0
  0
VERTEX
  5
A967
  8
0
 10
186.2034214905128
 20
188.43821931980091
 30
0.0
  0
VERTEX
  5
A968
  8
0
 10
186.22036325017771
 20
188.434851508013
 30
0.0
  0
VERTEX
  5
A969
  8
0
 10
186.2373866257534
 20
188.43163933589111
 30
0.0
  0
VERTEX
  5
A96A
  8
0
 10
186.2716661843838
 20
188.425690015257
 30
0.0
  0
VERTEX
  5
A96B
  8
0
 10
186.30623579607411
 20
188.4203868292681
 30
0.0
  0
VERTEX
  5
A96C
  8
0
 10
186.34107070864559
 20
188.41574405048479
 30
0.0
  0
VERTEX
  5
A96D
  8
0
 10
186.3761459061719
 20
188.4117747349689
 30
0.0
  0
VERTEX
  5
A96E
  8
0
 10
186.4114362288835
 20
188.4084907157696
 30
0.0
  0
VERTEX
  5
A96F
  8
0
 10
186.42915419039451
 20
188.40710905663971
 30
0.0
  0
VERTEX
  5
A970
  8
0
 10
186.44691649513831
 20
188.4059026077027
 30
0.0
  0
VERTEX
  5
A971
  8
0
 10
186.48256162562529
 20
188.4040198236541
 30
0.0
  0
VERTEX
  5
A972
  8
0
 10
186.51834676983481
 20
188.40285060272001
 30
0.0
  0
VERTEX
  5
A973
  8
0
 10
186.55424736115839
 20
188.40240205075429
 30
0.0
  0
VERTEX
  5
A974
  8
0
 10
186.59023872041479
 20
188.4026801765705
 30
0.0
  0
VERTEX
  5
A975
  8
0
 10
186.6262958061838
 20
188.40368988256631
 30
0.0
  0
VERTEX
  5
A976
  8
0
 10
186.64434109540301
 20
188.40447030178819
 30
0.0
  0
VERTEX
  5
A977
  8
0
 10
186.6623933119869
 20
188.40543494192551
 30
0.0
  0
VERTEX
  5
A978
  8
0
 10
186.6985057825672
 20
188.40791798566639
 30
0.0
  0
VERTEX
  5
A979
  8
0
 10
186.73460772916309
 20
188.41114050028111
 30
0.0
  0
VERTEX
  5
A97A
  8
0
 10
186.7706737439498
 20
188.41510283590759
 30
0.0
  0
VERTEX
  5
A97B
  8
0
 10
186.80667861380749
 20
188.4198042250884
 30
0.0
  0
VERTEX
  5
A97C
  8
0
 10
186.842597433522
 20
188.42524281220921
 30
0.0
  0
VERTEX
  5
A97D
  8
0
 10
186.8605169036326
 20
188.4282376872718
 30
0.0
  0
VERTEX
  5
A97E
  8
0
 10
186.87840571847931
 20
188.4314156938228
 30
0.0
  0
VERTEX
  5
A97F
  8
0
 10
186.9140845692144
 20
188.43832000145471
 30
0.0
  0
VERTEX
  5
A980
  8
0
 10
186.9496172531837
 20
188.44595270859031
 30
0.0
  0
VERTEX
  5
A981
  8
0
 10
186.96732129960159
 20
188.45004060470109
 30
0.0
  0
VERTEX
  5
A982
  8
0
 10
186.98497980345491
 20
188.45430852879659
 30
0.0
  0
VERTEX
  5
A983
  8
0
 10
187.02014814848951
 20
188.46338103426771
 30
0.0
  0
VERTEX
  5
A984
  8
0
 10
187.05509828032291
 20
188.4731626645891
 30
0.0
  0
VERTEX
  5
A985
  8
0
 10
187.07248406004251
 20
188.47831673158561
 30
0.0
  0
VERTEX
  5
A986
  8
0
 10
187.08980637159411
 20
188.4836447371265
 30
0.0
  0
VERTEX
  5
A987
  8
0
 10
187.124248889748
 20
188.49481746776129
 30
0.0
  0
VERTEX
  5
A988
  8
0
 10
187.15840270852939
 20
188.50667000197129
 30
0.0
  0
VERTEX
  5
A989
  8
0
 10
187.19224521688761
 20
188.51919045631871
 30
0.0
  0
VERTEX
  5
A98A
  8
0
 10
187.22575442541199
 20
188.5323659705102
 30
0.0
  0
VERTEX
  5
A98B
  8
0
 10
187.2589090572894
 20
188.546182764642
 30
0.0
  0
VERTEX
  5
A98C
  8
0
 10
187.27534692446281
 20
188.55332707804129
 30
0.0
  0
VERTEX
  5
A98D
  8
0
 10
187.2916883945951
 20
188.56062609595779
 30
0.0
  0
VERTEX
  5
A98E
  8
0
 10
187.32407188797609
 20
188.5756800777819
 30
0.0
  0
VERTEX
  5
A98F
  8
0
 10
187.35603915361861
 20
188.59132763145519
 30
0.0
  0
VERTEX
  5
A990
  8
0
 10
187.3875701027676
 20
188.6075505019009
 30
0.0
  0
VERTEX
  5
A991
  8
0
 10
187.4186450669051
 20
188.6243292845013
 30
0.0
  0
VERTEX
  5
A992
  8
0
 10
187.44924491709921
 20
188.64164346238911
 30
0.0
  0
VERTEX
  5
A993
  8
0
 10
187.46436087231109
 20
188.65049462041929
 30
0.0
  0
VERTEX
  5
A994
  8
0
 10
187.47935117769751
 20
188.65947145405539
 30
0.0
  0
VERTEX
  5
A995
  8
0
 10
187.5089461345901
 20
188.67779067125659
 30
0.0
  0
VERTEX
  5
A996
  8
0
 10
187.5380129383168
 20
188.6965775873839
 30
0.0
  0
VERTEX
  5
A997
  8
0
 10
187.552343277988
 20
188.70613884313681
 30
0.0
  0
SEQEND
  5
A998
  8
0
  0
POLYLINE
  5
A25E
  8
0
 66
     1
 10
0.0
 20
0.0
 30
0.0
  0
VERTEX
  5
A999
  8
0
 10
156.70911326955471
 20
188.70613910970519
 30
0.0
  0
VERTEX
  5
A99A
  8
0
 10
156.7234436094179
 20
188.69657784828831
 30
0.0
  0
VERTEX
  5
A99B
  8
0
 10
156.75251042881951
 20
188.67779091133639
 30
0.0
  0
VERTEX
  5
A99C
  8
0
 10
156.78210541863211
 20
188.65947166392311
 30
0.0
  0
VERTEX
  5
A99D
  8
0
 10
156.79709574569199
 20
188.65049481282469
 30
0.0
  0
VERTEX
  5
A99E
  8
0
 10
156.8122117253472
 20
188.64164363634359
 30
0.0
  0
VERTEX
  5
A99F
  8
0
 10
156.8428116305156
 20
188.62432942021789
 30
0.0
  0
VERTEX
  5
A9A0
  8
0
 10
156.87388665388539
 20
188.60755060009271
 30
0.0
  0
VERTEX
  5
A9A1
  8
0
 10
156.90541766169719
 20
188.5913276955018
 30
0.0
  0
VERTEX
  5
A9A2
  8
0
 10
156.93738498041219
 20
188.57568011333859
 30
0.0
  0
VERTEX
  5
A9A3
  8
0
 10
156.9697685161006
 20
188.56062611054151
 30
0.0
  0
VERTEX
  5
A9A4
  8
0
 10
156.98611000170021
 20
188.55332708542051
 30
0.0
  0
VERTEX
  5
A9A5
  8
0
 10
157.00254787966031
 20
188.5461827671968
 30
0.0
  0
VERTEX
  5
A9A6
  8
0
 10
157.03570251749781
 20
188.5323659705102
 30
0.0
  0
VERTEX
  5
A9A7
  8
0
 10
157.0692117260223
 20
188.51919045631871
 30
0.0
  0
VERTEX
  5
A9A8
  8
0
 10
157.10305423438049
 20
188.50667000197129
 30
0.0
  0
VERTEX
  5
A9A9
  8
0
 10
157.1372080531618
 20
188.49481746776129
 30
0.0
  0
VERTEX
  5
A9AA
  8
0
 10
157.17165057131569
 20
188.4836447371265
 30
0.0
  0
VERTEX
  5
A9AB
  8
0
 10
157.18897288286729
 20
188.47831673158561
 30
0.0
  0
VERTEX
  5
A9AC
  8
0
 10
157.20635866258689
 20
188.4731626645891
 30
0.0
  0
VERTEX
  5
A9AD
  8
0
 10
157.24130879442029
 20
188.46338103426771
 30
0.0
  0
VERTEX
  5
A9AE
  8
0
 10
157.27647713945481
 20
188.45430852879659
 30
0.0
  0
VERTEX
  5
A9AF
  8
0
 10
157.29413564330821
 20
188.45004060470109
 30
0.0
  0
VERTEX
  5
A9B0
  8
0
 10
157.31183968972621
 20
188.44595270859031
 30
0.0
  0
VERTEX
  5
A9B1
  8
0
 10
157.34737237369541
 20
188.43832000145471
 30
0.0
  0
VERTEX
  5
A9B2
  8
0
 10
157.3830512244304
 20
188.4314156938228
 30
0.0
  0
VERTEX
  5
A9B3
  8
0
 10
157.4009400392772
 20
188.4282376872718
 30
0.0
  0
VERTEX
  5
A9B4
  8
0
 10
157.4188595093878
 20
188.42524281220921
 30
0.0
  0
VERTEX
  5
A9B5
  8
0
 10
157.45477832910231
 20
188.4198042250884
 30
0.0
  0
VERTEX
  5
A9B6
  8
0
 10
157.49078319896009
 20
188.4151028359081
 30
0.0
  0
VERTEX
  5
A9B7
  8
0
 10
157.5268492137468
 20
188.41114050028111
 30
0.0
  0
VERTEX
  5
A9B8
  8
0
 10
157.56295116034249
 20
188.40791798566639
 30
0.0
  0
VERTEX
  5
A9B9
  8
0
 10
157.5990636309229
 20
188.40543494192551
 30
0.0
  0
VERTEX
  5
A9BA
  8
0
 10
157.61711584750691
 20
188.40447030178819
 30
0.0
  0
VERTEX
  5
A9BB
  8
0
 10
157.63516113672591
 20
188.40368988256631
 30
0.0
  0
VERTEX
  5
A9BC
  8
0
 10
157.6712182224951
 20
188.4026801765705
 30
0.0
  0
VERTEX
  5
A9BD
  8
0
 10
157.70720958175141
 20
188.40240205075429
 30
0.0
  0
VERTEX
  5
A9BE
  8
0
 10
157.743110173075
 20
188.40285060272001
 30
0.0
  0
VERTEX
  5
A9BF
  8
0
 10
157.77889531728459
 20
188.4040198236541
 30
0.0
  0
VERTEX
  5
A9C0
  8
0
 10
157.81454044777149
 20
188.4059026077027
 30
0.0
  0
VERTEX
  5
A9C1
  8
0
 10
157.8323027525152
 20
188.40710905663971
 30
0.0
  0
VERTEX
  5
A9C2
  8
0
 10
157.8500207140263
 20
188.4084907157696
 30
0.0
  0
VERTEX
  5
A9C3
  8
0
 10
157.8853110367379
 20
188.4117747349689
 30
0.0
  0
VERTEX
  5
A9C4
  8
0
 10
157.92038623426421
 20
188.41574405048479
 30
0.0
  0
VERTEX
  5
A9C5
  8
0
 10
157.9552211468357
 20
188.4203868292681
 30
0.0
  0
VERTEX
  5
A9C6
  8
0
 10
157.989790758526
 20
188.425690015257
 30
0.0
  0
VERTEX
  5
A9C7
  8
0
 10
158.0240703171564
 20
188.43163933589111
 30
0.0
  0
VERTEX
  5
A9C8
  8
0
 10
158.04109369273209
 20
188.434851508013
 30
0.0
  0
VERTEX
  5
A9C9
  8
0
 10
158.05803545239701
 20
188.43821931980091
 30
0.0
  0
VERTEX
  5
A9CA
  8
0
 10
158.09166229242669
 20
188.4454133256697
 30
0.0
  0
VERTEX
  5
A9CB
  8
0
 10
158.12502470356549
 20
188.45322731705139
 30
0.0
  0
VERTEX
  5
A9CC
  8
0
 10
158.15840181865761
 20
188.46172830673891
 30
0.0
  0
VERTEX
  5
A9CD
  8
0
 10
158.191787893884
 20
188.47092576378529
 30
0.0
  0
VERTEX
  5
A9CE
  8
0
 10
158.22515505220051
 20
188.48082295808919
 30
0.0
  0
VERTEX
  5
A9CF
  8
0
 10
158.24182285772969
 20
188.4860346450198
 30
0.0
  0
VERTEX
  5
A9D0
  8
0
 10
158.25847554410481
 20
188.49142194251019
 30
0.0
  0
VERTEX
  5
A9D1
  8
0
 10
158.29172185943739
 20
188.50272358287131
 30
0.0
  0
VERTEX
  5
A9D2
  8
0
 10
158.32486683503879
 20
188.51472759794231
 30
0.0
  0
VERTEX
  5
A9D3
  8
0
 10
158.35788375855179
 20
188.5274326094538
 30
0.0
  0
VERTEX
  5
A9D4
  8
0
 10
158.3907464685405
 20
188.54083620227061
 30
0.0
  0
VERTEX
  5
A9D5
  8
0
 10
158.42342945098059
 20
188.55493499487989
 30
0.0
  0
VERTEX
  5
A9D6
  8
0
 10
158.4396957711775
 20
188.5622437898557
 30
0.0
  0
VERTEX
  5
A9D7
  8
0
 10
158.45590793067419
 20
188.56972471975149
 30
0.0
  0
VERTEX
  5
A9D8
  8
0
 10
158.4881578126803
 20
188.58520024229369
 30
0.0
  0
VERTEX
  5
A9D9
  8
0
 10
158.5201552732496
 20
188.6013553890991
 30
0.0
  0
VERTEX
  5
A9DA
  8
0
 10
158.53605195089369
 20
188.6096855924209
 30
0.0
  0
VERTEX
  5
A9DB
  8
0
 10
158.55187668312121
 20
188.61818289249661
 30
0.0
  0
VERTEX
  5
A9DC
  8
0
 10
158.58329871195349
 20
188.6356744216157
 30
0.0
  0
VERTEX
  5
A9DD
  8
0
 10
158.61439842991081
 20
188.65382062302001
 30
0.0
  0
VERTEX
  5
A9DE
  8
0
 10
158.6298203899691
 20
188.66313603510051
 30
0.0
  0
VERTEX
  5
A9DF
  8
0
 10
158.64515340358409
 20
188.6726111694436
 30
0.0
  0
VERTEX
  5
A9E0
  8
0
 10
158.67554178645679
 20
188.69203481661469
 30
0.0
  0
VERTEX
  5
A9E1
  8
0
 10
158.7055424040787
 20
188.71207946821161
 30
0.0
  0
VERTEX
  5
A9E2
  8
0
 10
158.73513483404511
 20
188.73273224903301
 30
0.0
  0
VERTEX
  5
A9E3
  8
0
 10
158.7642995589801
 20
188.75397964469971
 30
0.0
  0
VERTEX
  5
A9E4
  8
0
 10
158.79302351867329
 20
188.77581185976459
 30
0.0
  0
VERTEX
  5
A9E5
  8
0
 10
158.8072157444073
 20
188.78694376107771
 30
0.0
  0
VERTEX
  5
A9E6
  8
0
 10
158.821291735903
 20
188.7982170069715
 30
0.0
  0
VERTEX
  5
A9E7
  8
0
 10
158.8490859775128
 20
188.82117960639491
 30
0.0
  0
VERTEX
  5
A9E8
  8
0
 10
158.8763884767902
 20
188.8446832085499
 30
0.0
  0
VERTEX
  5
A9E9
  8
0
 10
158.90318203120839
 20
188.86871044494521
 30
0.0
  0
VERTEX
  5
A9EA
  8
0
 10
158.92945009328801
 20
188.89324308566819
 30
0.0
  0
VERTEX
  5
A9EB
  8
0
 10
158.95517685476719
 20
188.91826210395649
 30
0.0
  0
VERTEX
  5
A9EC
  8
0
 10
158.96783252906971
 20
188.93094785840751
 30
0.0
  0
VERTEX
  5
A9ED
  8
0
 10
158.9803473242491
 20
188.94374774778609
 30
0.0
  0
VERTEX
  5
A9EE
  8
0
 10
159.00494739845959
 20
188.9696796185965
 30
0.0
  0
VERTEX
  5
A9EF
  8
0
 10
159.02896392721709
 20
188.9960367573278
 30
0.0
  0
VERTEX
  5
A9F0
  8
0
 10
159.0523847616206
 20
189.0227977257484
 30
0.0
  0
VERTEX
  5
A9F1
  8
0
 10
159.07519859933561
 20
189.0499404538611
 30
0.0
  0
VERTEX
  5
A9F2
  8
0
 10
159.0973947495059
 20
189.07744193890699
 30
0.0
  0
VERTEX
  5
A9F3
  8
0
 10
159.10825803099101
 20
189.0913197713387
 30
0.0
  0
VERTEX
  5
A9F4
  8
0
 10
159.11896319021389
 20
189.105278249923
 30
0.0
  0
VERTEX
  5
A9F5
  8
0
 10
159.13989466826251
 20
189.13342459411541
 30
0.0
  0
VERTEX
  5
A9F6
  8
0
 10
159.16018078984979
 20
189.1618553892624
 30
0.0
  0
VERTEX
  5
A9F7
  8
0
 10
159.179814102352
 20
189.19054434199299
 30
0.0
  0
VERTEX
  5
A9F8
  8
0
 10
159.19878816745779
 20
189.21946453195929
 30
0.0
  0
VERTEX
  5
A9F9
  8
0
 10
159.217097625885
 20
189.24858850204981
 30
0.0
  0
VERTEX
  5
A9FA
  8
0
 10
159.22600176193609
 20
189.26321820114271
 30
0.0
  0
VERTEX
  5
A9FB
  8
0
 10
159.23473825388319
 20
189.277888354921
 30
0.0
  0
VERTEX
  5
A9FC
  8
0
 10
159.25174656508241
 20
189.3074060431147
 30
0.0
  0
VERTEX
  5
A9FD
  8
0
 10
159.2682848034334
 20
189.3374274625742
 30
0.0
  0
VERTEX
  5
A9FE
  8
0
 10
159.28434805904661
 20
189.36797019630811
 30
0.0
  0
VERTEX
  5
A9FF
  8
0
 10
159.29991105663521
 20
189.3990144194924
 30
0.0
  0
VERTEX
  5
AA00
  8
0
 10
159.31494969394771
 20
189.4305394489995
 30
0.0
  0
VERTEX
  5
AA01
  8
0
 10
159.3222651823622
 20
189.4464755968136
 30
0.0
  0
VERTEX
  5
AA02
  8
0
 10
159.32944110607531
 20
189.46252386112991
 30
0.0
  0
VERTEX
  5
AA03
  8
0
 10
159.34336371819811
 20
189.4949456150232
 30
0.0
  0
VERTEX
  5
AA04
  8
0
 10
159.35669728688961
 20
189.5277821823085
 30
0.0
  0
VERTEX
  5
AA05
  8
0
 10
159.36313722550369
 20
189.54434888097171
 30
0.0
  0
VERTEX
  5
AA06
  8
0
 10
159.36942292991759
 20
189.56101068348491
 30
0.0
  0
VERTEX
  5
AA07
  8
0
 10
159.38152314427819
 20
189.5946080313654
 30
0.0
  0
VERTEX
  5
AA08
  8
0
 10
159.39298178390291
 20
189.6285509956067
 30
0.0
  0
VERTEX
  5
AA09
  8
0
 10
159.39846579662361
 20
189.64564468794489
 30
0.0
  0
VERTEX
  5
AA0A
  8
0
 10
159.40378389550551
 20
189.66281581238059
 30
0.0
  0
VERTEX
  5
AA0B
  8
0
 10
159.41391566044911
 20
189.69737796906861
 30
0.0
  0
VERTEX
  5
AA0C
  8
0
 10
159.42336445169539
 20
189.7322123086835
 30
0.0
  0
VERTEX
  5
AA0D
  8
0
 10
159.43211888451739
 20
189.76729315221041
 30
0.0
  0
VERTEX
  5
AA0E
  8
0
 10
159.4401688553973
 20
189.80259442346619
 30
0.0
  0
VERTEX
  5
AA0F
  8
0
 10
159.44750556926959
 20
189.83808977689861
 30
0.0
  0
VERTEX
  5
AA10
  8
0
 10
159.4509040682328
 20
189.85590195998861
 30
0.0
  0
VERTEX
  5
AA11
  8
0
 10
159.45412155513799
 20
189.8737527287314
 30
0.0
  0
VERTEX
  5
AA12
  8
0
 10
159.46001066995839
 20
189.9095567918678
 30
0.0
  0
VERTEX
  5
AA13
  8
0
 10
159.4651685442916
 20
189.9454790217703
 30
0.0
  0
VERTEX
  5
AA14
  8
0
 10
159.46959225970539
 20
189.9815006112446
 30
0.0
  0
VERTEX
  5
AA15
  8
0
 10
159.47327879008611
 20
190.01759472156411
 30
0.0
  0
VERTEX
  5
AA16
  8
0
 10
159.4762263444191
 20
190.0537338570204
 30
0.0
  0
VERTEX
  5
AA17
  8
0
 10
159.47742280422079
 20
190.07181165199489
 30
0.0
  0
VERTEX
  5
AA18
  8
0
 10
159.4784344443853
 20
190.08989029811181
 30
0.0
  0
VERTEX
  5
AA19
  8
0
 10
159.4799039430838
 20
190.1260362327086
 30
0.0
  0
VERTEX
  5
AA1A
  8
0
 10
159.48063703159531
 20
190.1621438886084
 30
0.0
  0
VERTEX
  5
AA1B
  8
0
 10
159.48072847145491
 20
190.18017472717631
 30
0.0
  0
SEQEND
  5
AA1C
  8
0
  0
POLYLINE
  5
A260
  8
0
 66
     1
 10
0.0
 20
0.0
 30
0.0
  0
VERTEX
  5
AA1D
  8
0
 10
159.48072847145491
 20
232.978036448241
 30
0.0
  0
VERTEX
  5
AA1E
  8
0
 10
159.48063703159531
 20
232.99606728680891
 30
0.0
  0
VERTEX
  5
AA1F
  8
0
 10
159.4799039430838
 20
233.03217494270871
 30
0.0
  0
VERTEX
  5
AA20
  8
0
 10
159.4784344443853
 20
233.0683208773055
 30
0.0
  0
VERTEX
  5
AA21
  8
0
 10
159.47742280422079
 20
233.08639952342239
 30
0.0
  0
VERTEX
  5
AA22
  8
0
 10
159.4762263444191
 20
233.1044773183969
 30
0.0
  0
VERTEX
  5
AA23
  8
0
 10
159.47327879008611
 20
233.1406164538532
 30
0.0
  0
VERTEX
  5
AA24
  8
0
 10
159.46959225970539
 20
233.17671056417271
 30
0.0
  0
VERTEX
  5
AA25
  8
0
 10
159.4651685442916
 20
233.2127321536471
 30
0.0
  0
VERTEX
  5
AA26
  8
0
 10
159.46001066995839
 20
233.24865438354959
 30
0.0
  0
VERTEX
  5
AA27
  8
0
 10
159.45412155513799
 20
233.2844584466859
 30
0.0
  0
VERTEX
  5
AA28
  8
0
 10
159.4509040682328
 20
233.30230921542881
 30
0.0
  0
VERTEX
  5
AA29
  8
0
 10
159.44750556926959
 20
233.32012139851869
 30
0.0
  0
VERTEX
  5
AA2A
  8
0
 10
159.4401688553973
 20
233.3556167519512
 30
0.0
  0
VERTEX
  5
AA2B
  8
0
 10
159.43211888451739
 20
233.39091802320689
 30
0.0
  0
VERTEX
  5
AA2C
  8
0
 10
159.42336445169539
 20
233.42599886673381
 30
0.0
  0
VERTEX
  5
AA2D
  8
0
 10
159.41391566044911
 20
233.46083320634881
 30
0.0
  0
VERTEX
  5
AA2E
  8
0
 10
159.40378389550551
 20
233.49539536303681
 30
0.0
  0
VERTEX
  5
AA2F
  8
0
 10
159.39846579662361
 20
233.51256648747241
 30
0.0
  0
VERTEX
  5
AA30
  8
0
 10
159.39298178390291
 20
233.52966017981061
 30
0.0
  0
VERTEX
  5
AA31
  8
0
 10
159.38152314427819
 20
233.563603144052
 30
0.0
  0
VERTEX
  5
AA32
  8
0
 10
159.36942292991759
 20
233.5972004919324
 30
0.0
  0
VERTEX
  5
AA33
  8
0
 10
159.36313722550381
 20
233.6138622944456
 30
0.0
  0
VERTEX
  5
AA34
  8
0
 10
159.35669728688961
 20
233.63042899310881
 30
0.0
  0
VERTEX
  5
AA35
  8
0
 10
159.34336371819811
 20
233.66326556039419
 30
0.0
  0
VERTEX
  5
AA36
  8
0
 10
159.32944110607531
 20
233.6956873142874
 30
0.0
  0
VERTEX
  5
AA37
  8
0
 10
159.3222651823622
 20
233.71173557860379
 30
0.0
  0
VERTEX
  5
AA38
  8
0
 10
159.31494969394771
 20
233.72767172641781
 30
0.0
  0
VERTEX
  5
AA39
  8
0
 10
159.29991105663521
 20
233.7591967559249
 30
0.0
  0
VERTEX
  5
AA3A
  8
0
 10
159.28434805904661
 20
233.79024097910931
 30
0.0
  0
VERTEX
  5
AA3B
  8
0
 10
159.2682848034334
 20
233.82078371284319
 30
0.0
  0
VERTEX
  5
AA3C
  8
0
 10
159.25174656508241
 20
233.85080513230261
 30
0.0
  0
VERTEX
  5
AA3D
  8
0
 10
159.23473825388319
 20
233.8803228204963
 30
0.0
  0
VERTEX
  5
AA3E
  8
0
 10
159.22600176193609
 20
233.8949929742746
 30
0.0
  0
VERTEX
  5
AA3F
  8
0
 10
159.217097625885
 20
233.90962267336749
 30
0.0
  0
VERTEX
  5
AA40
  8
0
 10
159.19878816745779
 20
233.93874664345799
 30
0.0
  0
VERTEX
  5
AA41
  8
0
 10
159.179814102352
 20
233.96766683342429
 30
0.0
  0
VERTEX
  5
AA42
  8
0
 10
159.16018078984979
 20
233.99635578615491
 30
0.0
  0
VERTEX
  5
AA43
  8
0
 10
159.13989466826251
 20
234.0247865813019
 30
0.0
  0
VERTEX
  5
AA44
  8
0
 10
159.11896319021389
 20
234.05293292549439
 30
0.0
  0
VERTEX
  5
AA45
  8
0
 10
159.10825803099101
 20
234.06689140407869
 30
0.0
  0
VERTEX
  5
AA46
  8
0
 10
159.0973947495059
 20
234.08076923651041
 30
0.0
  0
VERTEX
  5
AA47
  8
0
 10
159.07519859933561
 20
234.10827072155621
 30
0.0
  0
VERTEX
  5
AA48
  8
0
 10
159.0523847616206
 20
234.1354134496689
 30
0.0
  0
VERTEX
  5
AA49
  8
0
 10
159.02896392721709
 20
234.16217441808951
 30
0.0
  0
VERTEX
  5
AA4A
  8
0
 10
159.00494739845959
 20
234.18853155682089
 30
0.0
  0
VERTEX
  5
AA4B
  8
0
 10
158.9803473242491
 20
234.2144634276313
 30
0.0
  0
VERTEX
  5
AA4C
  8
0
 10
158.96783252906971
 20
234.2272633170098
 30
0.0
  0
VERTEX
  5
AA4D
  8
0
 10
158.95517685476719
 20
234.23994907146081
 30
0.0
  0
VERTEX
  5
AA4E
  8
0
 10
158.92945009328781
 20
234.26496808974909
 30
0.0
  0
VERTEX
  5
AA4F
  8
0
 10
158.90318203120839
 20
234.2895007304721
 30
0.0
  0
VERTEX
  5
AA50
  8
0
 10
158.8763884767902
 20
234.3135279668675
 30
0.0
  0
VERTEX
  5
AA51
  8
0
 10
158.8490859775128
 20
234.337031569022
 30
0.0
  0
VERTEX
  5
AA52
  8
0
 10
158.821291735903
 20
234.35999416844589
 30
0.0
  0
VERTEX
  5
AA53
  8
0
 10
158.8072157444073
 20
234.3712674143396
 30
0.0
  0
VERTEX
  5
AA54
  8
0
 10
158.79302351867329
 20
234.38239931565269
 30
0.0
  0
VERTEX
  5
AA55
  8
0
 10
158.7642995589801
 20
234.40423153071771
 30
0.0
  0
VERTEX
  5
AA56
  8
0
 10
158.73513483404511
 20
234.4254789263843
 30
0.0
  0
VERTEX
  5
AA57
  8
0
 10
158.7055424040787
 20
234.44613170720569
 30
0.0
  0
VERTEX
  5
AA58
  8
0
 10
158.67554178645679
 20
234.46617635880261
 30
0.0
  0
VERTEX
  5
AA59
  8
0
 10
158.64515340358409
 20
234.48560000597379
 30
0.0
  0
VERTEX
  5
AA5A
  8
0
 10
158.6298203899691
 20
234.49507514031691
 30
0.0
  0
VERTEX
  5
AA5B
  8
0
 10
158.61439842991081
 20
234.50439055239741
 30
0.0
  0
VERTEX
  5
AA5C
  8
0
 10
158.58329871195349
 20
234.52253675380169
 30
0.0
  0
VERTEX
  5
AA5D
  8
0
 10
158.55187668312121
 20
234.5400282829207
 30
0.0
  0
VERTEX
  5
AA5E
  8
0
 10
158.53605195089369
 20
234.54852558299649
 30
0.0
  0
VERTEX
  5
AA5F
  8
0
 10
158.5201552732496
 20
234.55685578631821
 30
0.0
  0
VERTEX
  5
AA60
  8
0
 10
158.4881578126803
 20
234.5730109331237
 30
0.0
  0
VERTEX
  5
AA61
  8
0
 10
158.45590793067419
 20
234.58848645566579
 30
0.0
  0
VERTEX
  5
AA62
  8
0
 10
158.4396957711775
 20
234.59596738556161
 30
0.0
  0
VERTEX
  5
AA63
  8
0
 10
158.42342945098059
 20
234.60327618053751
 30
0.0
  0
VERTEX
  5
AA64
  8
0
 10
158.3907464685405
 20
234.6173749731467
 30
0.0
  0
VERTEX
  5
AA65
  8
0
 10
158.35788375855179
 20
234.63077856596351
 30
0.0
  0
VERTEX
  5
AA66
  8
0
 10
158.32486683503879
 20
234.64348357747511
 30
0.0
  0
VERTEX
  5
AA67
  8
0
 10
158.29172185943739
 20
234.655487592546
 30
0.0
  0
VERTEX
  5
AA68
  8
0
 10
158.25847554410481
 20
234.66678923290721
 30
0.0
  0
VERTEX
  5
AA69
  8
0
 10
158.24182285772969
 20
234.67217653039759
 30
0.0
  0
VERTEX
  5
AA6A
  8
0
 10
158.22515505220051
 20
234.67738821732809
 30
0.0
  0
VERTEX
  5
AA6B
  8
0
 10
158.191787893884
 20
234.6872854116321
 30
0.0
  0
VERTEX
  5
AA6C
  8
0
 10
158.15840181865761
 20
234.69648286867849
 30
0.0
  0
VERTEX
  5
AA6D
  8
0
 10
158.12502470356549
 20
234.70498385836601
 30
0.0
  0
VERTEX
  5
AA6E
  8
0
 10
158.09166229242669
 20
234.7127978497476
 30
0.0
  0
VERTEX
  5
AA6F
  8
0
 10
158.05803545239701
 20
234.7199918556164
 30
0.0
  0
VERTEX
  5
AA70
  8
0
 10
158.04109369273209
 20
234.7233596674044
 30
0.0
  0
VERTEX
  5
AA71
  8
0
 10
158.0240703171564
 20
234.72657183952629
 30
0.0
  0
VERTEX
  5
AA72
  8
0
 10
157.989790758526
 20
234.7325211601603
 30
0.0
  0
VERTEX
  5
AA73
  8
0
 10
157.95522114683561
 20
234.73782434614921
 30
0.0
  0
VERTEX
  5
AA74
  8
0
 10
157.92038623426421
 20
234.7424671249326
 30
0.0
  0
VERTEX
  5
AA75
  8
0
 10
157.8853110367379
 20
234.74643644044841
 30
0.0
  0
VERTEX
  5
AA76
  8
0
 10
157.8500207140263
 20
234.7497204596477
 30
0.0
  0
VERTEX
  5
AA77
  8
0
 10
157.8323027525152
 20
234.75110211877771
 30
0.0
  0
VERTEX
  5
AA78
  8
0
 10
157.81454044777149
 20
234.75230856771461
 30
0.0
  0
VERTEX
  5
AA79
  8
0
 10
157.77889531728459
 20
234.75419135176321
 30
0.0
  0
VERTEX
  5
AA7A
  8
0
 10
157.743110173075
 20
234.7553605726973
 30
0.0
  0
VERTEX
  5
AA7B
  8
0
 10
157.70720958175141
 20
234.7558091246631
 30
0.0
  0
VERTEX
  5
AA7C
  8
0
 10
157.67121822249501
 20
234.75553099884681
 30
0.0
  0
VERTEX
  5
AA7D
  8
0
 10
157.63516113672591
 20
234.754521292851
 30
0.0
  0
VERTEX
  5
AA7E
  8
0
 10
157.6171158475068
 20
234.75374087362911
 30
0.0
  0
VERTEX
  5
AA7F
  8
0
 10
157.5990636309229
 20
234.75277623349189
 30
0.0
  0
VERTEX
  5
AA80
  8
0
 10
157.56295116034241
 20
234.75029318975089
 30
0.0
  0
VERTEX
  5
AA81
  8
0
 10
157.52684921374669
 20
234.7470706751362
 30
0.0
  0
VERTEX
  5
AA82
  8
0
 10
157.49078319896
 20
234.74310833950929
 30
0.0
  0
VERTEX
  5
AA83
  8
0
 10
157.45477832910231
 20
234.73840695032891
 30
0.0
  0
VERTEX
  5
AA84
  8
0
 10
157.4188595093878
 20
234.7329683632081
 30
0.0
  0
VERTEX
  5
AA85
  8
0
 10
157.4009400392772
 20
234.72997348814559
 30
0.0
  0
VERTEX
  5
AA86
  8
0
 10
157.3830512244304
 20
234.72679548159451
 30
0.0
  0
VERTEX
  5
AA87
  8
0
 10
157.34737237369541
 20
234.71989117396271
 30
0.0
  0
VERTEX
  5
AA88
  8
0
 10
157.3118396897261
 20
234.712258466827
 30
0.0
  0
VERTEX
  5
AA89
  8
0
 10
157.29413564330821
 20
234.70817057071619
 30
0.0
  0
VERTEX
  5
AA8A
  8
0
 10
157.27647713945481
 20
234.70390264662069
 30
0.0
  0
VERTEX
  5
AA8B
  8
0
 10
157.24130879442029
 20
234.69483014114959
 30
0.0
  0
VERTEX
  5
AA8C
  8
0
 10
157.20635866258689
 20
234.68504851082821
 30
0.0
  0
VERTEX
  5
AA8D
  8
0
 10
157.18897288286729
 20
234.6798944438317
 30
0.0
  0
VERTEX
  5
AA8E
  8
0
 10
157.17165057131569
 20
234.67456643829081
 30
0.0
  0
VERTEX
  5
AA8F
  8
0
 10
157.1372080531618
 20
234.66339370765601
 30
0.0
  0
VERTEX
  5
AA90
  8
0
 10
157.10305423438049
 20
234.65154117344599
 30
0.0
  0
VERTEX
  5
AA91
  8
0
 10
157.0692117260223
 20
234.63902071909871
 30
0.0
  0
VERTEX
  5
AA92
  8
0
 10
157.03570251749781
 20
234.62584520490711
 30
0.0
  0
VERTEX
  5
AA93
  8
0
 10
157.0025478796602
 20
234.6120284082206
 30
0.0
  0
VERTEX
  5
AA94
  8
0
 10
156.98611000170021
 20
234.6048840899968
 30
0.0
  0
VERTEX
  5
AA95
  8
0
 10
156.9697685161006
 20
234.5975850648758
 30
0.0
  0
VERTEX
  5
AA96
  8
0
 10
156.93738498041219
 20
234.58253106207869
 30
0.0
  0
VERTEX
  5
AA97
  8
0
 10
156.90541766169719
 20
234.5668834799155
 30
0.0
  0
VERTEX
  5
AA98
  8
0
 10
156.87388665388539
 20
234.5506605753246
 30
0.0
  0
VERTEX
  5
AA99
  8
0
 10
156.8428116305156
 20
234.53388175519939
 30
0.0
  0
VERTEX
  5
AA9A
  8
0
 10
156.81221172534711
 20
234.5165675390738
 30
0.0
  0
VERTEX
  5
AA9B
  8
0
 10
156.79709574569199
 20
234.50771636259259
 30
0.0
  0
VERTEX
  5
AA9C
  8
0
 10
156.78210541863211
 20
234.49873951149431
 30
0.0
  0
VERTEX
  5
AA9D
  8
0
 10
156.75251042881939
 20
234.480420264081
 30
0.0
  0
VERTEX
  5
AA9E
  8
0
 10
156.7234436094179
 20
234.46163332712899
 30
0.0
  0
VERTEX
  5
AA9F
  8
0
 10
156.70911326955471
 20
234.4520720657122
 30
0.0
  0
SEQEND
  5
AAA0
  8
0
  0
ARC
  5
A261
  8
0
 10
172.1307284714548
 20
211.57910558770871
 30
0.0
 40
27.58620689655173
 50
123.9889876784316
 51
236.0110123215683
  0
LINE
  5
A262
  8
1
 10
172.1307284714548
 20
166.02064477566941
 30
0.0
 11
172.1307284714548
 21
257.13756639974793
 31
0.0
  0
LINE
  5
A263
  8
1
 10
126.5722676594156
 20
211.57910558770871
 30
0.0
 11
217.6891892834941
 21
211.57910558770871
 31
0.0
  0
LINE
  5
A264
  8
1
 10
158.82226765941559
 20
240.57910558770871
 30
0.0
 11
185.4391892834941
 21
240.57910558770871
 31
0.0
  0
LINE
  5
A265
  8
2
 10
176.1307284714548
 20
74.626023865863431
 30
0.0
 11
176.1307284714548
 21
57.626023865863431
 31
0.0
  0
LINE
  5
A266
  8
2
 10
168.1307284714548
 20
57.626023865863431
 30
0.0
 11
168.1307284714548
 21
74.626023865863431
 31
0.0
  0
LINE
  5
A267
  8
0
 10
181.1307284714548
 20
57.826023865863696
 30
0.0
 11
181.1307284714548
 21
57.626023865863431
 31
0.0
  0
LINE
  5
A268
  8
0
 10
163.1307284714548
 20
57.626023865863431
 30
0.0
 11
163.1307284714548
 21
57.826023865863696
 31
0.0
  0
ARC
  5
A269
  8
0
 10
160.1307284714548
 20
58.326023865861941
 30
0.0
 40
0.4999999999999999
 50
180.0
 51
270.0
  0
ARC
  5
A26A
  8
0
 10
184.1307284714548
 20
58.326023865857557
 30
0.0
 40
0.4999999999999983
 50
270.0
 51
0.0
  0
LINE
  5
A26B
  8
0
 10
184.6307284714548
 20
61.626023865837283
 30
0.0
 11
184.6307284714548
 21
58.326023865857557
 31
0.0
  0
LINE
  5
A26C
  8
0
 10
159.6307284714548
 20
58.326023865861941
 30
0.0
 11
159.6307284714548
 21
61.62602386584166
 31
0.0
  0
ARC
  5
A26D
  8
0
 10
138.1307284714548
 20
80.626023865863431
 30
0.0
 40
6.0000000000000169
 50
180.0
 51
270.0
  0
ARC
  5
A26E
  8
0
 10
206.13072847145489
 20
80.626023865863431
 30
0.0
 40
6.0000000000000213
 50
270.0
 51
0.0
  0
LINE
  5
A26F
  8
0
 10
212.13072847145489
 20
84.256278909290486
 30
0.0
 11
212.13072847145489
 21
80.626023865863431
 31
0.0
  0
LINE
  5
A270
  8
0
 10
132.1307284714548
 20
80.626023865863431
 30
0.0
 11
132.1307284714548
 21
84.256278909290486
 31
0.0
  0
ARC
  5
A271
  8
0
 10
150.1307284714544
 20
84.256278909290486
 30
0.0
 40
17.999999999999559
 50
165.00000000000551
 51
180.0
  0
ARC
  5
A272
  8
0
 10
194.13072847145531
 20
84.256278909290486
 30
0.0
 40
17.999999999999559
 50
0.0
 51
14.999999999994451
  0
LINE
  5
A273
  8
0
 10
210.8805112258263
 20
91.291898147048059
 30
0.0
 11
211.5173933446581
 21
88.915021721135517
 31
0.0
  0
LINE
  5
A274
  8
0
 10
132.74406359825161
 20
88.915021721135517
 30
0.0
 11
133.38094571708331
 21
91.291898147048059
 31
0.0
  0
ARC
  5
A275
  8
0
 10
135.11961220440361
 20
90.826023865863704
 30
0.0
 40
1.7999999999999881
 50
90.0
 51
165.00000000000551
  0
ARC
  5
A276
  8
0
 10
209.14184473850599
 20
90.826023865863704
 30
0.0
 40
1.7999999999999901
 50
14.999999999994451
 51
90.0
  0
LINE
  5
A277
  8
0
 10
163.1307284714548
 20
57.626023865863431
 30
0.0
 11
181.1307284714548
 21
57.626023865863431
 31
0.0
  0
LINE
  5
A278
  8
2
 10
161.8807284714548
 20
77.626023865863431
 30
0.0
 11
182.3807284714548
 21
77.626023865863431
 31
0.0
  0
LINE
  5
A279
  8
0
 10
160.1307284714548
 20
57.826023865861941
 30
0.0
 11
184.1307284714548
 21
57.826023865857557
 31
0.0
  0
LINE
  5
A27A
  8
0
 10
138.1307284714548
 20
74.626023865863431
 30
0.0
 11
206.13072847145489
 21
74.626023865863431
 31
0.0
  0
LINE
  5
A27B
  8
0
 10
135.11961220440361
 20
92.626023865863417
 30
0.0
 11
209.14184473850599
 21
92.626023865863417
 31
0.0
  0
LINE
  5
A27C
  8
0
 10
159.1307284714544
 20
61.626023865856439
 30
0.0
 11
185.1307284714554
 21
61.626023865870359
 31
0.0
  0
LINE
  5
A27D
  8
1
 10
172.1307284714548
 20
143.1844846779027
 30
0.0
 11
172.1307284714548
 21
52.067563053824188
 31
0.0
  0
LINE
  5
A27E
  8
1
 10
39.79074850872064
 20
240.57910558770871
 30
0.0
 11
104.3603255878113
 21
240.57910558770871
 31
0.0
  0
LINE
  5
A27F
  8
0
 10
19.001864775772098
 20
202.57910558770871
 30
0.0
 11
18.80186477577206
 21
202.57910558770871
 31
0.0
  0
LINE
  5
A280
  8
0
 10
18.80186477577206
 20
220.57910558770871
 30
0.0
 11
19.001864775772098
 21
220.57910558770871
 31
0.0
  0
ARC
  5
A281
  8
0
 10
19.501864775772098
 20
223.57910558770871
 30
0.0
 40
0.4999999999999999
 50
90.0
 51
180.0
  0
ARC
  5
A282
  8
0
 10
19.501864775772098
 20
199.5791055877086
 30
0.0
 40
0.4999999999999983
 50
180.0
 51
270.0
  0
LINE
  5
A283
  8
0
 10
22.801864775752051
 20
199.07910558770871
 30
0.0
 11
19.501864775772098
 21
199.07910558770871
 31
0.0
  0
LINE
  5
A284
  8
0
 10
19.501864775772098
 20
224.07910558770871
 30
0.0
 11
22.801864775752051
 21
224.07910558770871
 31
0.0
  0
ARC
  5
A285
  8
0
 10
41.80186477577206
 20
245.57910558770871
 30
0.0
 40
6.0000000000000169
 50
90.0
 51
180.0
  0
ARC
  5
A286
  8
0
 10
41.80186477577206
 20
177.57910558770871
 30
0.0
 40
6.0000000000000213
 50
180.0
 51
270.0
  0
LINE
  5
A287
  8
0
 10
45.432119819198981
 20
171.57910558770871
 30
0.0
 11
41.80186477577206
 21
171.57910558770871
 31
0.0
  0
LINE
  5
A288
  8
0
 10
41.80186477577206
 20
251.57910558770871
 30
0.0
 11
45.432119819198981
 21
251.57910558770871
 31
0.0
  0
ARC
  5
A289
  8
0
 10
45.432119819199102
 20
233.57910558770911
 30
0.0
 40
17.999999999999559
 50
75.000000000001947
 51
90.0
  0
ARC
  5
A28A
  8
0
 10
45.432119819199102
 20
189.5791055877082
 30
0.0
 40
17.999999999999559
 50
270.0
 51
284.99999999999801
  0
LINE
  5
A28B
  8
0
 10
52.467739056956589
 20
172.82932283333699
 30
0.0
 11
50.090862631044267
 21
172.19244071450541
 31
0.0
  0
LINE
  5
A28C
  8
0
 10
50.090862631044267
 20
250.9657704609119
 30
0.0
 11
52.467739056956589
 21
250.32888834208029
 31
0.0
  0
ARC
  5
A28D
  8
0
 10
52.001864775772113
 20
248.5902218547601
 30
0.0
 40
1.7999999999999881
 50
0.0
 51
75.000000000001947
  0
ARC
  5
A28E
  8
0
 10
52.001864775772113
 20
174.56798932065769
 30
0.0
 40
1.7999999999999901
 50
284.99999999999801
 51
0.0
  0
LINE
  5
A28F
  8
0
 10
35.008720807744112
 20
185.19102735389541
 30
0.0
 11
22.801864775752051
 21
199.07910558770871
 31
0.0
  0
LINE
  5
A290
  8
0
 10
22.801864775752051
 20
224.07910558770871
 30
0.0
 11
35.008720807744112
 21
237.96718382152201
 31
0.0
  0
ARC
  5
A291
  8
0
 10
32.201864775772151
 20
240.2214152239701
 30
0.0
 40
3.5999999999999721
 50
321.23148998350439
 51
0.0
  0
ARC
  5
A292
  8
0
 10
32.201864775772151
 20
182.93679595144721
 30
0.0
 40
3.5999999999999721
 50
0.0
 51
38.768510016495583
  0
LINE
  5
A293
  8
0
 10
18.80186477577206
 20
220.57910558770871
 30
0.0
 11
18.80186477577206
 21
202.57910558770871
 31
0.0
  0
LINE
  5
A294
  8
0
 10
19.001864775772098
 20
223.57910558770871
 30
0.0
 11
19.001864775772098
 21
199.5791055877086
 31
0.0
  0
LINE
  5
A295
  8
0
 10
35.80186477577206
 20
245.57910558770871
 30
0.0
 11
35.80186477577206
 21
177.57910558770871
 31
0.0
  0
LINE
  5
A296
  8
0
 10
53.80186477577206
 20
248.5902218547601
 30
0.0
 11
53.80186477577206
 21
174.56798932065769
 31
0.0
  0
LINE
  5
A297
  8
1
 10
47.801864775772053
 20
248.5902218547601
 30
0.0
 11
47.801864775772053
 21
232.5679893206574
 31
0.0
  0
LINE
  5
A298
  8
0
 10
22.801864775752051
 20
224.07910558770871
 30
0.0
 11
22.801864775752051
 21
199.07910558770871
 31
0.0
  0
POLYLINE
  5
A299
  8
0
 66
     1
 10
0.0
 20
0.0
 30
0.0
  0
VERTEX
  5
AAA1
  8
0
 10
35.80186477577206
 20
235.94483939743219
 30
0.0
  0
VERTEX
  5
AAA2
  8
0
 10
32.287717501810221
 20
230.7879180325165
 30
0.0
  0
VERTEX
  5
AAA3
  8
0
 10
29.909357390740411
 20
227.1201236830814
 30
0.0
  0
VERTEX
  5
AAA4
  8
0
 10
28.13046414641121
 20
224.13533284241001
 30
0.0
  0
VERTEX
  5
AAA5
  8
0
 10
27.41186482689011
 20
222.8291538938559
 30
0.0
  0
VERTEX
  5
AAA6
  8
0
 10
26.787043235182409
 20
221.62040460788941
 30
0.0
  0
VERTEX
  5
AAA7
  8
0
 10
25.775260827985448
 20
219.4353428361357
 30
0.0
  0
VERTEX
  5
AAA8
  8
0
 10
25.310220518193091
 20
218.27317754471659
 30
0.0
  0
VERTEX
  5
AAA9
  8
0
 10
25.19238104259432
 20
217.95344429970939
 30
0.0
  0
VERTEX
  5
AAAA
  8
0
 10
25.08085894452859
 20
217.63859818603331
 30
0.0
  0
VERTEX
  5
AAAB
  8
0
 10
25.027411422783079
 20
217.48291456293211
 30
0.0
  0
VERTEX
  5
AAAC
  8
0
 10
24.975478199552409
 20
217.32834241763911
 30
0.0
  0
VERTEX
  5
AAAD
  8
0
 10
24.876074903006611
 20
217.0223925799184
 30
0.0
  0
VERTEX
  5
AAAE
  8
0
 10
24.782496594209871
 20
216.7204756680533
 30
0.0
  0
VERTEX
  5
AAAF
  8
0
 10
24.694601639542501
 20
216.4223291922647
 30
0.0
  0
VERTEX
  5
AAB0
  8
0
 10
24.612258669541351
 20
216.1277003434754
 30
0.0
  0
VERTEX
  5
AAB1
  8
0
 10
24.535346065644031
 20
215.8363452135315
 30
0.0
  0
VERTEX
  5
AAB2
  8
0
 10
24.498890695515801
 20
215.69182132496121
 30
0.0
  0
VERTEX
  5
AAB3
  8
0
 10
24.463751492690221
 20
215.5480280646573
 30
0.0
  0
VERTEX
  5
AAB4
  8
0
 10
24.397371473701579
 20
215.26252064332419
 30
0.0
  0
VERTEX
  5
AAB5
  8
0
 10
24.336111003834731
 20
214.9796015341183
 30
0.0
  0
VERTEX
  5
AAB6
  8
0
 10
24.279883200739739
 20
214.69905554959291
 30
0.0
  0
VERTEX
  5
AAB7
  8
0
 10
24.228608988857221
 20
214.42067315239839
 30
0.0
  0
VERTEX
  5
AAB8
  8
0
 10
24.18221681546277
 20
214.14424990630619
 30
0.0
  0
VERTEX
  5
AAB9
  8
0
 10
24.16083112686977
 20
214.00671034419361
 30
0.0
  0
VERTEX
  5
AABA
  8
0
 10
24.140642396517141
 20
213.86958595297099
 30
0.0
  0
VERTEX
  5
AABB
  8
0
 10
24.103828490606141
 20
213.59648551152921
 30
0.0
  0
VERTEX
  5
AABC
  8
0
 10
24.071724699466021
 20
213.32475639831341
 30
0.0
  0
VERTEX
  5
AABD
  8
0
 10
24.04428729378003
 20
213.05420956413599
 30
0.0
  0
VERTEX
  5
AABE
  8
0
 10
24.021479063111201
 20
212.7846586467569
 30
0.0
  0
VERTEX
  5
AABF
  8
0
 10
24.003269189001688
 20
212.51591953625831
 30
0.0
  0
VERTEX
  5
AAC0
  8
0
 10
23.99588072652023
 20
212.3817973856105
 30
0.0
  0
VERTEX
  5
AAC1
  8
0
 10
23.989633140427831
 20
212.247809951173
 30
0.0
  0
VERTEX
  5
AAC2
  8
0
 10
23.980552590944399
 20
211.98014902329331
 30
0.0
  0
VERTEX
  5
AAC3
  8
0
 10
23.976015356993909
 20
211.71275688915529
 30
0.0
  0
VERTEX
  5
AAC4
  8
0
 10
23.975448345187829
 20
211.57910558770919
 30
0.0
  0
VERTEX
  5
AAC5
  8
0
 10
23.976015356994139
 20
211.4454542862625
 30
0.0
  0
VERTEX
  5
AAC6
  8
0
 10
23.98055259094485
 20
211.17806215212499
 30
0.0
  0
VERTEX
  5
AAC7
  8
0
 10
23.989633140428509
 20
210.91040122424491
 30
0.0
  0
VERTEX
  5
AAC8
  8
0
 10
23.995880726521019
 20
210.77641378980769
 30
0.0
  0
VERTEX
  5
AAC9
  8
0
 10
24.003269189002602
 20
210.64229163915959
 30
0.0
  0
VERTEX
  5
AACA
  8
0
 10
24.021479063112341
 20
210.37355252866089
 30
0.0
  0
VERTEX
  5
AACB
  8
0
 10
24.044287293781512
 20
210.1040016112818
 30
0.0
  0
VERTEX
  5
AACC
  8
0
 10
24.071724699467609
 20
209.83345477710441
 30
0.0
  0
VERTEX
  5
AACD
  8
0
 10
24.10382849060807
 20
209.56172566388821
 30
0.0
  0
VERTEX
  5
AACE
  8
0
 10
24.140642396519301
 20
209.2886252224468
 30
0.0
  0
VERTEX
  5
AACF
  8
0
 10
24.16083112687204
 20
209.15150083122381
 30
0.0
  0
VERTEX
  5
AAD0
  8
0
 10
24.182216815465271
 20
209.01396126911121
 30
0.0
  0
VERTEX
  5
AAD1
  8
0
 10
24.22860898885995
 20
208.73753802301891
 30
0.0
  0
VERTEX
  5
AAD2
  8
0
 10
24.279883200742692
 20
208.45915562582491
 30
0.0
  0
VERTEX
  5
AAD3
  8
0
 10
24.33611100383791
 20
208.17860964129909
 30
0.0
  0
VERTEX
  5
AAD4
  8
0
 10
24.39737147370499
 20
207.89569053209311
 30
0.0
  0
VERTEX
  5
AAD5
  8
0
 10
24.463751492693859
 20
207.61018311076009
 30
0.0
  0
VERTEX
  5
AAD6
  8
0
 10
24.498890695519549
 20
207.4663898504557
 30
0.0
  0
VERTEX
  5
AAD7
  8
0
 10
24.5353460656479
 20
207.32186596188529
 30
0.0
  0
VERTEX
  5
AAD8
  8
0
 10
24.61225866954544
 20
207.03051083194151
 30
0.0
  0
VERTEX
  5
AAD9
  8
0
 10
24.694601639546821
 20
206.73588198315221
 30
0.0
  0
VERTEX
  5
AADA
  8
0
 10
24.782496594214422
 20
206.43773550736319
 30
0.0
  0
VERTEX
  5
AADB
  8
0
 10
24.876074903011389
 20
206.13581859549799
 30
0.0
  0
VERTEX
  5
AADC
  8
0
 10
24.975478199557301
 20
205.8298687577774
 30
0.0
  0
VERTEX
  5
AADD
  8
0
 10
25.027411422788191
 20
205.67529661248429
 30
0.0
  0
VERTEX
  5
AADE
  8
0
 10
25.080858944533698
 20
205.51961298938321
 30
0.0
  0
VERTEX
  5
AADF
  8
0
 10
25.192381042599781
 20
205.20476687570709
 30
0.0
  0
VERTEX
  5
AAE0
  8
0
 10
25.310220518198658
 20
204.88503363069941
 30
0.0
  0
VERTEX
  5
AAE1
  8
0
 10
25.434566255722761
 20
204.5601030611335
 30
0.0
  0
VERTEX
  5
AAE2
  8
0
 10
25.565620810163072
 20
204.2296504488038
 30
0.0
  0
VERTEX
  5
AAE3
  8
0
 10
25.703601295116641
 20
203.8933353417749
 30
0.0
  0
VERTEX
  5
AAE4
  8
0
 10
25.775260827991591
 20
203.72286833927981
 30
0.0
  0
VERTEX
  5
AAE5
  8
0
 10
25.848740355867111
 20
203.5508002447589
 30
0.0
  0
VERTEX
  5
AAE6
  8
0
 10
26.001287236209919
 20
203.201669197543
 30
0.0
  0
VERTEX
  5
AAE7
  8
0
 10
26.161508948780241
 20
202.84554622904781
 30
0.0
  0
VERTEX
  5
AAE8
  8
0
 10
26.787043235189341
 20
201.53780656752559
 30
0.0
  0
VERTEX
  5
AAE9
  8
0
 10
27.411864826897158
 20
200.32905728155879
 30
0.0
  0
VERTEX
  5
AAEA
  8
0
 10
28.130464146418259
 20
199.0228783330042
 30
0.0
  0
VERTEX
  5
AAEB
  8
0
 10
29.909357390746319
 20
196.03808749233229
 30
0.0
  0
VERTEX
  5
AAEC
  8
0
 10
32.287717501813063
 20
192.3702931428991
 30
0.0
  0
VERTEX
  5
AAED
  8
0
 10
35.80186477577206
 20
187.21337177798199
 30
0.0
  0
SEQEND
  5
AAEE
  8
0
  0
LINE
  5
A29A
  8
1
 10
59.360325587811303
 20
211.57910558770891
 30
0.0
 11
13.443403963732861
 21
211.57910558770871
 31
0.0
  0
LINE
  5
A29B
  8
2
 10
163.1307284714548
 20
57.826023865863696
 30
0.0
 11
163.1307284714548
 21
73.626023865863431
 31
0.0
  0
LINE
  5
A29C
  8
2
 10
182.3807284714548
 20
77.626023865863431
 30
0.0
 11
182.3807284714548
 21
74.626023865863431
 31
0.0
  0
LINE
  5
A29D
  8
2
 10
161.8807284714548
 20
77.626023865863431
 30
0.0
 11
161.8807284714548
 21
74.626023865863431
 31
0.0
  0
LINE
  5
A29E
  8
2
 10
164.1307284714548
 20
74.626023865863431
 30
0.0
 11
164.1307284714548
 21
73.626023865863431
 31
0.0
  0
LINE
  5
A29F
  8
0
 10
163.1307284714548
 20
74.626023865863431
 30
0.0
 11
163.1307284714544
 21
61.626023865841262
 31
0.0
  0
LINE
  5
A2A0
  8
0
 10
172.1307284714548
 20
182.2471956702816
 30
0.0
 11
170.27156791273589
 21
182.2471956702816
 31
0.0
  0
LINE
  5
A2A1
  8
0
 10
185.1307284714492
 20
73.480235241259024
 30
0.0
 11
185.1307284714554
 21
61.626023865843422
 31
0.0
  0
LINE
  5
A2A2
  8
2
 10
164.1307284714548
 20
73.626023865863431
 30
0.0
 11
163.1307284714548
 21
73.626023865863431
 31
0.0
  0
LINE
  5
A2A3
  8
2
 10
181.1307284714548
 20
57.826023865863696
 30
0.0
 11
181.1307284714548
 21
73.626023865863431
 31
0.0
  0
LINE
  5
A2A4
  8
2
 10
180.1307284714548
 20
74.626023865863431
 30
0.0
 11
180.1307284714548
 21
73.626023865863431
 31
0.0
  0
LINE
  5
A2A5
  8
0
 10
181.1307284714548
 20
74.626023865863431
 30
0.0
 11
181.13072847145531
 21
61.626023865841262
 31
0.0
  0
LINE
  5
A2A6
  8
2
 10
180.1307284714548
 20
73.626023865863431
 30
0.0
 11
181.1307284714548
 21
73.626023865863431
 31
0.0
  0
LINE
  5
A2A7
  8
2
 10
35.80186477577206
 20
207.57910558770871
 30
0.0
 11
18.80186477577206
 21
207.57910558770871
 31
0.0
  0
LINE
  5
A2A8
  8
2
 10
18.80186477577206
 20
215.57910558770871
 30
0.0
 11
35.80186477577206
 21
215.57910558770871
 31
0.0
  0
LINE
  5
A2A9
  8
2
 10
38.80186477577206
 20
221.82910558770871
 30
0.0
 11
38.80186477577206
 21
201.32910558770871
 31
0.0
  0
LINE
  5
A2AA
  8
2
 10
19.001864775772329
 20
220.57910558770871
 30
0.0
 11
34.80186477577206
 21
220.57910558770871
 31
0.0
  0
LINE
  5
A2AB
  8
2
 10
38.80186477577206
 20
201.32910558770871
 30
0.0
 11
35.80186477577206
 21
201.32910558770871
 31
0.0
  0
LINE
  5
A2AC
  8
2
 10
38.80186477577206
 20
221.82910558770871
 30
0.0
 11
35.80186477577206
 21
221.82910558770871
 31
0.0
  0
LINE
  5
A2AD
  8
2
 10
35.80186477577206
 20
219.57910558770871
 30
0.0
 11
34.80186477577206
 21
219.57910558770871
 31
0.0
  0
LINE
  5
A2AE
  8
2
 10
19.001864775772329
 20
202.57910558770871
 30
0.0
 11
34.80186477577206
 21
202.57910558770871
 31
0.0
  0
LINE
  5
A2AF
  8
2
 10
35.80186477577206
 20
203.57910558770871
 30
0.0
 11
34.80186477577206
 21
203.57910558770871
 31
0.0
  0
LINE
  5
A2B0
  8
2
 10
34.80186477577206
 20
220.57910558770871
 30
0.0
 11
34.80186477577206
 21
219.57910558770871
 31
0.0
  0
LINE
  5
A2B1
  8
2
 10
34.80186477577206
 20
203.57910558770871
 30
0.0
 11
34.80186477577206
 21
202.57910558770871
 31
0.0
  0
ARC
  5
A2B2
  8
0
 10
200.7730381077163
 20
71.026023865863394
 30
0.0
 40
3.6000000000000649
 50
90.0
 51
107.0593340211457
  0
POLYLINE
  5
A2B3
  8
0
 66
     1
 10
0.0
 20
0.0
 30
0.0
  0
VERTEX
  5
AAEF
  8
0
 10
187.55234327798789
 20
74.467629160370052
 30
0.0
  0
VERTEX
  5
AAF0
  8
0
 10
187.54323796680291
 20
74.467619462379389
 30
0.0
  0
VERTEX
  5
AAF1
  8
0
 10
187.5249188870477
 20
74.467541895737654
 30
0.0
  0
VERTEX
  5
AAF2
  8
0
 10
187.5064572534379
 20
74.467386764963067
 30
0.0
  0
VERTEX
  5
AAF3
  8
0
 10
187.4971737521351
 20
74.467280098151605
 30
0.0
  0
VERTEX
  5
AAF4
  8
0
 10
187.48785554138399
 20
74.46715401519441
 30
0.0
  0
VERTEX
  5
AAF5
  8
0
 10
187.46911623573601
 20
74.466843533527936
 30
0.0
  0
VERTEX
  5
AAF6
  8
0
 10
187.45024183082751
 20
74.466455149216927
 30
0.0
  0
VERTEX
  5
AAF7
  8
0
 10
187.4312348305165
 20
74.465988633864072
 30
0.0
  0
VERTEX
  5
AAF8
  8
0
 10
187.41209774822221
 20
74.465443701594722
 30
0.0
  0
VERTEX
  5
AAF9
  8
0
 10
187.39283310695981
 20
74.464820009219693
 30
0.0
  0
VERTEX
  5
AAFA
  8
0
 10
187.38315374279119
 20
74.464478505112311
 30
0.0
  0
VERTEX
  5
AAFB
  8
0
 10
187.37344343937841
 20
74.464117156388511
 30
0.0
  0
VERTEX
  5
AAFC
  8
0
 10
187.353931287796
 20
74.463334685726295
 30
0.0
  0
VERTEX
  5
AAFD
  8
0
 10
187.3342992042412
 20
74.462472082964723
 30
0.0
  0
VERTEX
  5
AAFE
  8
0
 10
187.31454975049709
 20
74.461528777057083
 30
0.0
  0
VERTEX
  5
AAFF
  8
0
 10
187.2946854981503
 20
74.460504140286957
 30
0.0
  0
VERTEX
  5
AB00
  8
0
 10
187.2747090286482
 20
74.459397488365994
 30
0.0
  0
VERTEX
  5
AB01
  8
0
 10
187.2646795218777
 20
74.458813177436241
 30
0.0
  0
VERTEX
  5
AB02
  8
0
 10
187.25462293336179
 20
74.458208080518943
 30
0.0
  0
VERTEX
  5
AB03
  8
0
 10
187.2344298136596
 20
74.456935119561422
 30
0.0
  0
VERTEX
  5
AB04
  8
0
 10
187.2141322809895
 20
74.455577751970395
 30
0.0
  0
VERTEX
  5
AB05
  8
0
 10
187.20394517864781
 20
74.454867133569664
 30
0.0
  0
VERTEX
  5
AB06
  8
0
 10
187.1937329569723
 20
74.45413506793966
 30
0.0
  0
VERTEX
  5
AB07
  8
0
 10
187.1732357358953
 20
74.452606198040939
 30
0.0
  0
VERTEX
  5
AB08
  8
0
 10
187.15265988672161
 20
74.450991472078385
 30
0.0
  0
VERTEX
  5
AB09
  8
0
 10
187.14234525081071
 20
74.450151804330289
 30
0.0
  0
VERTEX
  5
AB0A
  8
0
 10
187.132013258439
 20
74.449290460810062
 30
0.0
  0
VERTEX
  5
AB0B
  8
0
 10
187.11129855964029
 20
74.447502309431002
 30
0.0
  0
VERTEX
  5
AB0C
  8
0
 10
187.0905185046515
 20
74.445626112228624
 30
0.0
  0
VERTEX
  5
AB0D
  8
0
 10
187.06967581397009
 20
74.44366091339225
 30
0.0
  0
VERTEX
  5
AB0E
  8
0
 10
187.04877321466861
 20
74.441605707799226
 30
0.0
  0
VERTEX
  5
AB0F
  8
0
 10
187.02781344076101
 20
74.439459441788586
 30
0.0
  0
VERTEX
  5
AB10
  8
0
 10
187.01731296969029
 20
74.438351818771025
 30
0.0
  0
VERTEX
  5
AB11
  8
0
 10
187.00679923353681
 20
74.43722101391495
 30
0.0
  0
VERTEX
  5
AB12
  8
0
 10
186.9857333418615
 20
74.434889275693877
 30
0.0
  0
VERTEX
  5
AB13
  8
0
 10
186.9646185224471
 20
74.432463032327178
 30
0.0
  0
VERTEX
  5
AB14
  8
0
 10
186.94345754009251
 20
74.429941043422787
 30
0.0
  0
VERTEX
  5
AB15
  8
0
 10
186.92225316789441
 20
74.427322023697783
 30
0.0
  0
VERTEX
  5
AB16
  8
0
 10
186.90100818743159
 20
74.424604643676943
 30
0.0
  0
VERTEX
  5
AB17
  8
0
 10
186.89037134070281
 20
74.423208641178917
 30
0.0
  0
VERTEX
  5
AB18
  8
0
 10
186.87972538892151
 20
74.421787530375241
 30
0.0
  0
VERTEX
  5
AB19
  8
0
 10
186.85840757134989
 20
74.418869267978593
 30
0.0
  0
VERTEX
  5
AB1A
  8
0
 10
186.8370575425767
 20
74.415848398511116
 30
0.0
  0
VERTEX
  5
AB1B
  8
0
 10
186.8156781194146
 20
74.412723422498857
 30
0.0
  0
VERTEX
  5
AB1C
  8
0
 10
186.7942721276838
 20
74.409492799625696
 30
0.0
  0
VERTEX
  5
AB1D
  8
0
 10
186.7728424022425
 20
74.406154949382199
 30
0.0
  0
VERTEX
  5
AB1E
  8
0
 10
186.76211952774671
 20
74.404445309256062
 30
0.0
  0
VERTEX
  5
AB1F
  8
0
 10
186.75139178699189
 20
74.402708251710465
 30
0.0
  0
VERTEX
  5
AB20
  8
0
 10
186.72992313485801
 20
74.39915104764259
 30
0.0
  0
VERTEX
  5
AB21
  8
0
 10
186.70843930774799
 20
74.395481639933223
 30
0.0
  0
VERTEX
  5
AB22
  8
0
 10
186.6869431764824
 20
74.391698293691206
 30
0.0
  0
VERTEX
  5
AB23
  8
0
 10
186.66543762070339
 20
74.387799237000763
 30
0.0
  0
VERTEX
  5
AB24
  8
0
 10
186.6439255287562
 20
74.383782661542682
 30
0.0
  0
VERTEX
  5
AB25
  8
0
 10
186.63316793667289
 20
74.381729729374001
 30
0.0
  0
VERTEX
  5
AB26
  8
0
 10
186.6224097975475
 20
74.379646723210044
 30
0.0
  0
VERTEX
  5
AB27
  8
0
 10
186.60089783146151
 20
74.375390445722573
 30
0.0
  0
VERTEX
  5
AB28
  8
0
 10
186.5794250203819
 20
74.371018700084733
 30
0.0
  0
VERTEX
  5
AB29
  8
0
 10
186.5579999758414
 20
74.366531404766192
 30
0.0
  0
VERTEX
  5
AB2A
  8
0
 10
186.5366246978837
 20
74.361927162859047
 30
0.0
  0
VERTEX
  5
AB2B
  8
0
 10
186.51530118457569
 20
74.357204552014991
 30
0.0
  0
VERTEX
  5
AB2C
  8
0
 10
186.5046594638651
 20
74.354798407101953
 30
0.0
  0
VERTEX
  5
AB2D
  8
0
 10
186.4940314333939
 20
74.352362125664968
 30
0.0
  0
VERTEX
  5
AB2E
  8
0
 10
186.47281744245649
 20
74.34739841422288
 30
0.0
  0
VERTEX
  5
AB2F
  8
0
 10
186.4516612116044
 20
74.34231192627476
 30
0.0
  0
VERTEX
  5
AB30
  8
0
 10
186.44110538186339
 20
74.339722169364904
 30
0.0
  0
VERTEX
  5
AB31
  8
0
 10
186.43056474333039
 20
74.337101149754744
 30
0.0
  0
VERTEX
  5
AB32
  8
0
 10
186.4095300435599
 20
74.331764553106041
 30
0.0
  0
VERTEX
  5
AB33
  8
0
 10
186.3885591222853
 20
74.326300586422803
 30
0.0
  0
VERTEX
  5
AB34
  8
0
 10
186.37809820794189
 20
74.323520350232229
 30
0.0
  0
VERTEX
  5
AB35
  8
0
 10
186.36765399405499
 20
74.320707682575176
 30
0.0
  0
VERTEX
  5
AB36
  8
0
 10
186.34681667832251
 20
74.314984258316144
 30
0.0
  0
VERTEX
  5
AB37
  8
0
 10
186.32604919965701
 20
74.309128715366114
 30
0.0
  0
VERTEX
  5
AB38
  8
0
 10
186.30535358782049
 20
74.303139441476105
 30
0.0
  0
VERTEX
  5
AB39
  8
0
 10
186.28473187771391
 20
74.297014811464578
 30
0.0
  0
VERTEX
  5
AB3A
  8
0
 10
186.26418610919919
 20
74.290753188228337
 30
0.0
  0
VERTEX
  5
AB3B
  8
0
 10
186.2539423417804
 20
74.287570489539576
 30
0.0
  0
VERTEX
  5
AB3C
  8
0
 10
186.24371832679839
 20
74.284352923727056
 30
0.0
  0
VERTEX
  5
AB3D
  8
0
 10
186.2233305792798
 20
74.277812359932796
 30
0.0
  0
VERTEX
  5
AB3E
  8
0
 10
186.20302491913139
 20
74.271129829748588
 30
0.0
  0
VERTEX
  5
AB3F
  8
0
 10
186.18280340193061
 20
74.264303657891105
 30
0.0
  0
VERTEX
  5
AB40
  8
0
 10
186.16266808561559
 20
74.257332161732393
 30
0.0
  0
VERTEX
  5
AB41
  8
0
 10
186.14262102966379
 20
74.250213652104776
 30
0.0
  0
VERTEX
  5
AB42
  8
0
 10
186.13263124310961
 20
74.246598737774534
 30
0.0
  0
VERTEX
  5
AB43
  8
0
 10
186.12266429418321
 20
74.242946434058922
 30
0.0
  0
VERTEX
  5
AB44
  8
0
 10
186.10279993892709
 20
74.235528807576429
 30
0.0
  0
VERTEX
  5
AB45
  8
0
 10
186.08303002223329
 20
74.227959068234213
 30
0.0
  0
VERTEX
  5
AB46
  8
0
 10
186.06335659989929
 20
74.220235507817961
 30
0.0
  0
VERTEX
  5
AB47
  8
0
 10
186.04378172399919
 20
74.21235641488056
 30
0.0
  0
VERTEX
  5
AB48
  8
0
 10
186.02430744164889
 20
74.204320075245946
 30
0.0
  0
VERTEX
  5
AB49
  8
0
 10
186.01460866110909
 20
74.200242401601827
 30
0.0
  0
VERTEX
  5
AB4A
  8
0
 10
186.00493579372829
 20
74.196124772453459
 30
0.0
  0
VERTEX
  5
AB4B
  8
0
 10
185.98566881356709
 20
74.187768788141966
 30
0.0
  0
VERTEX
  5
AB4C
  8
0
 10
185.96651212092519
 20
74.179252020703188
 30
0.0
  0
VERTEX
  5
AB4D
  8
0
 10
185.94747125412431
 20
74.170574496602967
 30
0.0
  0
VERTEX
  5
AB4E
  8
0
 10
185.92854739548901
 20
74.161734355156554
 30
0.0
  0
VERTEX
  5
AB4F
  8
0
 10
185.909741729187
 20
74.152729715079658
 30
0.0
  0
VERTEX
  5
AB50
  8
0
 10
185.90038358987499
 20
74.148165115066135
 30
0.0
  0
VERTEX
  5
AB51
  8
0
 10
185.8910554454917
 20
74.143558676512839
 30
0.0
  0
VERTEX
  5
AB52
  8
0
 10
185.87248974105859
 20
74.134219321319961
 30
0.0
  0
VERTEX
  5
AB53
  8
0
 10
185.85404581912891
 20
74.124709713370066
 30
0.0
  0
VERTEX
  5
AB54
  8
0
 10
185.83572488966101
 20
74.115027898807512
 30
0.0
  0
VERTEX
  5
AB55
  8
0
 10
185.81752816939269
 20
74.105171906306168
 30
0.0
  0
VERTEX
  5
AB56
  8
0
 10
185.7994568818394
 20
74.095139747308167
 30
0.0
  0
VERTEX
  5
AB57
  8
0
 10
185.79046865951821
 20
74.090056979291603
 30
0.0
  0
VERTEX
  5
AB58
  8
0
 10
185.78151225722971
 20
74.084929416246723
 30
0.0
  0
VERTEX
  5
AB59
  8
0
 10
185.76369553238169
 20
74.074538890752123
 30
0.0
  0
VERTEX
  5
AB5A
  8
0
 10
185.74600795052271
 20
74.063966131840971
 30
0.0
  0
VERTEX
  5
AB5B
  8
0
 10
185.73721297841951
 20
74.058610773170585
 30
0.0
  0
VERTEX
  5
AB5C
  8
0
 10
185.72845076105841
 20
74.053209084084301
 30
0.0
  0
VERTEX
  5
AB5D
  8
0
 10
185.7110252192891
 20
74.042265675762792
 30
0.0
  0
VERTEX
  5
AB5E
  8
0
 10
185.69373258608161
 20
74.03113381899675
 30
0.0
  0
VERTEX
  5
AB5F
  8
0
 10
185.68513650564049
 20
74.025496565594494
 30
0.0
  0
VERTEX
  5
AB60
  8
0
 10
185.67657412749551
 20
74.019811409862086
 30
0.0
  0
VERTEX
  5
AB61
  8
0
 10
185.65955111436861
 20
74.008296328483084
 30
0.0
  0
VERTEX
  5
AB62
  8
0
 10
185.6426648218642
 20
73.996586439108341
 30
0.0
  0
VERTEX
  5
AB63
  8
0
 10
185.62591652898129
 20
73.984679590161704
 30
0.0
  0
VERTEX
  5
AB64
  8
0
 10
185.60930751803221
 20
73.972573614278645
 30
0.0
  0
VERTEX
  5
AB65
  8
0
 10
185.59283907408769
 20
73.960266328318539
 30
0.0
  0
VERTEX
  5
AB66
  8
0
 10
185.58465796693781
 20
73.954036507513138
 30
0.0
  0
VERTEX
  5
AB67
  8
0
 10
185.57651248439291
 20
73.947755533357395
 30
0.0
  0
VERTEX
  5
AB68
  8
0
 10
185.56032903775619
 20
73.935039014659196
 30
0.0
  0
VERTEX
  5
AB69
  8
0
 10
185.5442900239122
 20
73.922114541627252
 30
0.0
  0
VERTEX
  5
AB6A
  8
0
 10
185.52839673285979
 20
73.908979867737344
 30
0.0
  0
VERTEX
  5
AB6B
  8
0
 10
185.51265045417841
 20
73.895632730444504
 30
0.0
  0
VERTEX
  5
AB6C
  8
0
 10
185.4970524763217
 20
73.882070851076151
 30
0.0
  0
VERTEX
  5
AB6D
  8
0
 10
185.4893095023582
 20
73.875208666586786
 30
0.0
  0
VERTEX
  5
AB6E
  8
0
 10
185.48160408589109
 20
73.868291934700665
 30
0.0
  0
VERTEX
  5
AB6F
  8
0
 10
185.46630656688939
 20
73.854293669977324
 30
0.0
  0
VERTEX
  5
AB70
  8
0
 10
185.45116119995521
 20
73.840073728986226
 30
0.0
  0
VERTEX
  5
AB71
  8
0
 10
185.4436459726
 20
73.832879897835483
 30
0.0
  0
VERTEX
  5
AB72
  8
0
 10
185.4173629808185
 20
73.807270442664048
 30
0.0
  0
VERTEX
  5
AB73
  8
0
 10
185.3662673515696
 20
73.755756668139384
 30
0.0
  0
VERTEX
  5
AB74
  8
0
 10
185.3171947550465
 20
73.703943621528197
 30
0.0
  0
VERTEX
  5
AB75
  8
0
 10
185.29343940839789
 20
73.677961226361276
 30
0.0
  0
VERTEX
  5
AB76
  8
0
 10
185.27021583641769
 20
73.651948160290431
 30
0.0
  0
VERTEX
  5
AB77
  8
0
 10
185.2253947056108
 20
73.599891000136267
 30
0.0
  0
VERTEX
  5
AB78
  8
0
 10
185.1827875431425
 20
73.547895697885451
 30
0.0
  0
VERTEX
  5
AB79
  8
0
 10
185.1424414363014
 20
73.496087659969362
 30
0.0
  0
VERTEX
  5
AB7A
  8
0
 10
185.1307284714492
 20
73.480235241259024
 30
0.0
  0
SEQEND
  5
AB7B
  8
0
  0
LINE
  5
A2B4
  8
0
 10
199.7169353680066
 20
74.467629160370052
 30
0.0
 11
187.55234327798789
 21
74.467629160370052
 31
0.0
  0
POLYLINE
  5
A2B5
  8
0
 66
     1
 10
0.0
 20
0.0
 30
0.0
  0
VERTEX
  5
AB7C
  8
0
 10
187.31923210843519
 20
74.461759243653887
 30
0.0
  0
VERTEX
  5
AB7D
  8
0
 10
187.3594169864038
 20
74.463562245080539
 30
0.0
  0
VERTEX
  5
AB7E
  8
0
 10
187.4383278402232
 20
74.466171498031144
 30
0.0
  0
VERTEX
  5
AB7F
  8
0
 10
187.5149491856059
 20
74.467467606749778
 30
0.0
  0
VERTEX
  5
AB80
  8
0
 10
187.55234367334401
 20
74.467629160370052
 30
0.0
  0
SEQEND
  5
AB81
  8
0
  0
LINE
  5
A2B6
  8
0
 10
159.13072847146049
 20
73.480235241259024
 30
0.0
 11
159.13072847145429
 21
61.626023865843422
 31
0.0
  0
ARC
  5
A2B7
  8
0
 10
143.48841883519339
 20
71.026023865863394
 30
0.0
 40
3.6000000000000649
 50
72.94066597885417
 51
90.0
  0
POLYLINE
  5
A2B8
  8
0
 66
     1
 10
0.0
 20
0.0
 30
0.0
  0
VERTEX
  5
AB82
  8
0
 10
156.7091136649218
 20
74.467629160370052
 30
0.0
  0
VERTEX
  5
AB83
  8
0
 10
156.7182189761067
 20
74.467619462379389
 30
0.0
  0
VERTEX
  5
AB84
  8
0
 10
156.7365380558619
 20
74.467541895737654
 30
0.0
  0
VERTEX
  5
AB85
  8
0
 10
156.75499968947179
 20
74.467386764963067
 30
0.0
  0
VERTEX
  5
AB86
  8
0
 10
156.76428319077451
 20
74.467280098151605
 30
0.0
  0
VERTEX
  5
AB87
  8
0
 10
156.77360140152561
 20
74.46715401519441
 30
0.0
  0
VERTEX
  5
AB88
  8
0
 10
156.79234070717371
 20
74.466843533527936
 30
0.0
  0
VERTEX
  5
AB89
  8
0
 10
156.81121511208221
 20
74.466455149216927
 30
0.0
  0
VERTEX
  5
AB8A
  8
0
 10
156.8302221123931
 20
74.465988633864072
 30
0.0
  0
VERTEX
  5
AB8B
  8
0
 10
156.84935919468751
 20
74.465443701594722
 30
0.0
  0
VERTEX
  5
AB8C
  8
0
 10
156.86862383594979
 20
74.464820009219693
 30
0.0
  0
VERTEX
  5
AB8D
  8
0
 10
156.87830320011841
 20
74.464478505112311
 30
0.0
  0
VERTEX
  5
AB8E
  8
0
 10
156.8880135035312
 20
74.464117156388511
 30
0.0
  0
VERTEX
  5
AB8F
  8
0
 10
156.9075256551136
 20
74.463334685726295
 30
0.0
  0
VERTEX
  5
AB90
  8
0
 10
156.9271577386684
 20
74.462472082964723
 30
0.0
  0
VERTEX
  5
AB91
  8
0
 10
156.9469071924126
 20
74.461528777057083
 30
0.0
  0
VERTEX
  5
AB92
  8
0
 10
156.96677144475939
 20
74.460504140286957
 30
0.0
  0
VERTEX
  5
AB93
  8
0
 10
156.98674791426151
 20
74.459397488365994
 30
0.0
  0
VERTEX
  5
AB94
  8
0
 10
156.99677742103199
 20
74.458813177436241
 30
0.0
  0
VERTEX
  5
AB95
  8
0
 10
157.0068340095479
 20
74.458208080518943
 30
0.0
  0
VERTEX
  5
AB96
  8
0
 10
157.02702712925009
 20
74.456935119561422
 30
0.0
  0
VERTEX
  5
AB97
  8
0
 10
157.04732466192019
 20
74.455577751970395
 30
0.0
  0
VERTEX
  5
AB98
  8
0
 10
157.0575117642619
 20
74.454867133569664
 30
0.0
  0
VERTEX
  5
AB99
  8
0
 10
157.06772398593739
 20
74.45413506793966
 30
0.0
  0
VERTEX
  5
AB9A
  8
0
 10
157.0882212070143
 20
74.452606198040939
 30
0.0
  0
VERTEX
  5
AB9B
  8
0
 10
157.10879705618811
 20
74.450991472078385
 30
0.0
  0
VERTEX
  5
AB9C
  8
0
 10
157.1191116920989
 20
74.450151804330289
 30
0.0
  0
VERTEX
  5
AB9D
  8
0
 10
157.12944368447069
 20
74.449290460810062
 30
0.0
  0
VERTEX
  5
AB9E
  8
0
 10
157.1501583832694
 20
74.447502309431002
 30
0.0
  0
VERTEX
  5
AB9F
  8
0
 10
157.17093843825819
 20
74.445626112228624
 30
0.0
  0
VERTEX
  5
ABA0
  8
0
 10
157.1917811289396
 20
74.44366091339225
 30
0.0
  0
VERTEX
  5
ABA1
  8
0
 10
157.2126837282411
 20
74.441605707799226
 30
0.0
  0
VERTEX
  5
ABA2
  8
0
 10
157.2336435021486
 20
74.439459441788586
 30
0.0
  0
VERTEX
  5
ABA3
  8
0
 10
157.24414397321939
 20
74.438351818771025
 30
0.0
  0
VERTEX
  5
ABA4
  8
0
 10
157.25465770937279
 20
74.43722101391495
 30
0.0
  0
VERTEX
  5
ABA5
  8
0
 10
157.27572360104821
 20
74.434889275693877
 30
0.0
  0
VERTEX
  5
ABA6
  8
0
 10
157.29683842046251
 20
74.432463032327178
 30
0.0
  0
VERTEX
  5
ABA7
  8
0
 10
157.31799940281721
 20
74.429941043422787
 30
0.0
  0
VERTEX
  5
ABA8
  8
0
 10
157.33920377501531
 20
74.427322023697783
 30
0.0
  0
VERTEX
  5
ABA9
  8
0
 10
157.36044875547799
 20
74.424604643676943
 30
0.0
  0
VERTEX
  5
ABAA
  8
0
 10
157.3710856022069
 20
74.423208641178917
 30
0.0
  0
VERTEX
  5
ABAB
  8
0
 10
157.3817315539882
 20
74.421787530375241
 30
0.0
  0
VERTEX
  5
ABAC
  8
0
 10
157.40304937155969
 20
74.418869267978593
 30
0.0
  0
VERTEX
  5
ABAD
  8
0
 10
157.4243994003329
 20
74.415848398511116
 30
0.0
  0
VERTEX
  5
ABAE
  8
0
 10
157.445778823495
 20
74.412723422498857
 30
0.0
  0
VERTEX
  5
ABAF
  8
0
 10
157.46718481522589
 20
74.409492799625696
 30
0.0
  0
VERTEX
  5
ABB0
  8
0
 10
157.48861454066719
 20
74.406154949382199
 30
0.0
  0
VERTEX
  5
ABB1
  8
0
 10
157.49933741516301
 20
74.404445309256062
 30
0.0
  0
VERTEX
  5
ABB2
  8
0
 10
157.5100651559178
 20
74.402708251710465
 30
0.0
  0
VERTEX
  5
ABB3
  8
0
 10
157.53153380805159
 20
74.39915104764259
 30
0.0
  0
VERTEX
  5
ABB4
  8
0
 10
157.55301763516169
 20
74.395481639933223
 30
0.0
  0
VERTEX
  5
ABB5
  8
0
 10
157.57451376642729
 20
74.391698293691206
 30
0.0
  0
VERTEX
  5
ABB6
  8
0
 10
157.5960193222063
 20
74.387799237000763
 30
0.0
  0
VERTEX
  5
ABB7
  8
0
 10
157.61753141415349
 20
74.383782661542682
 30
0.0
  0
VERTEX
  5
ABB8
  8
0
 10
157.62828900623671
 20
74.381729729374001
 30
0.0
  0
VERTEX
  5
ABB9
  8
0
 10
157.6390471453621
 20
74.379646723210044
 30
0.0
  0
VERTEX
  5
ABBA
  8
0
 10
157.66055911144809
 20
74.375390445722573
 30
0.0
  0
VERTEX
  5
ABBB
  8
0
 10
157.68203192252781
 20
74.371018700084733
 30
0.0
  0
VERTEX
  5
ABBC
  8
0
 10
157.70345696706829
 20
74.366531404766192
 30
0.0
  0
VERTEX
  5
ABBD
  8
0
 10
157.72483224502599
 20
74.361927162859047
 30
0.0
  0
VERTEX
  5
ABBE
  8
0
 10
157.746155758334
 20
74.357204552014991
 30
0.0
  0
VERTEX
  5
ABBF
  8
0
 10
157.75679747904459
 20
74.354798407101953
 30
0.0
  0
VERTEX
  5
ABC0
  8
0
 10
157.7674255095157
 20
74.352362125664968
 30
0.0
  0
VERTEX
  5
ABC1
  8
0
 10
157.7886395004532
 20
74.34739841422288
 30
0.0
  0
VERTEX
  5
ABC2
  8
0
 10
157.8097957313052
 20
74.34231192627476
 30
0.0
  0
VERTEX
  5
ABC3
  8
0
 10
157.82035156104629
 20
74.339722169364904
 30
0.0
  0
VERTEX
  5
ABC4
  8
0
 10
157.8308921995793
 20
74.337101149754744
 30
0.0
  0
VERTEX
  5
ABC5
  8
0
 10
157.85192689934979
 20
74.331764553106041
 30
0.0
  0
VERTEX
  5
ABC6
  8
0
 10
157.87289782062439
 20
74.326300586422803
 30
0.0
  0
VERTEX
  5
ABC7
  8
0
 10
157.8833587349678
 20
74.323520350232229
 30
0.0
  0
VERTEX
  5
ABC8
  8
0
 10
157.8938029488547
 20
74.320707682575176
 30
0.0
  0
VERTEX
  5
ABC9
  8
0
 10
157.91464026458721
 20
74.314984258316144
 30
0.0
  0
VERTEX
  5
ABCA
  8
0
 10
157.9354077432526
 20
74.309128715366114
 30
0.0
  0
VERTEX
  5
ABCB
  8
0
 10
157.9561033550892
 20
74.303139441476105
 30
0.0
  0
VERTEX
  5
ABCC
  8
0
 10
157.97672506519569
 20
74.297014811464578
 30
0.0
  0
VERTEX
  5
ABCD
  8
0
 10
157.9972708337105
 20
74.290753188228337
 30
0.0
  0
VERTEX
  5
ABCE
  8
0
 10
158.00751460112929
 20
74.287570489539576
 30
0.0
  0
VERTEX
  5
ABCF
  8
0
 10
158.01773861611119
 20
74.284352923727056
 30
0.0
  0
VERTEX
  5
ABD0
  8
0
 10
158.03812636362991
 20
74.277812359932796
 30
0.0
  0
VERTEX
  5
ABD1
  8
0
 10
158.05843202377829
 20
74.271129829748588
 30
0.0
  0
VERTEX
  5
ABD2
  8
0
 10
158.07865354097899
 20
74.264303657891105
 30
0.0
  0
VERTEX
  5
ABD3
  8
0
 10
158.09878885729401
 20
74.257332161732393
 30
0.0
  0
VERTEX
  5
ABD4
  8
0
 10
158.1188359132459
 20
74.250213652104776
 30
0.0
  0
VERTEX
  5
ABD5
  8
0
 10
158.1288256998001
 20
74.246598737774534
 30
0.0
  0
VERTEX
  5
ABD6
  8
0
 10
158.13879264872651
 20
74.242946434058922
 30
0.0
  0
VERTEX
  5
ABD7
  8
0
 10
158.1586570039826
 20
74.235528807576429
 30
0.0
  0
VERTEX
  5
ABD8
  8
0
 10
158.1784269206764
 20
74.227959068234213
 30
0.0
  0
VERTEX
  5
ABD9
  8
0
 10
158.1981003430104
 20
74.220235507817961
 30
0.0
  0
VERTEX
  5
ABDA
  8
0
 10
158.2176752189105
 20
74.21235641488056
 30
0.0
  0
VERTEX
  5
ABDB
  8
0
 10
158.23714950126069
 20
74.204320075245946
 30
0.0
  0
VERTEX
  5
ABDC
  8
0
 10
158.2468482818006
 20
74.200242401601827
 30
0.0
  0
VERTEX
  5
ABDD
  8
0
 10
158.25652114918131
 20
74.196124772453459
 30
0.0
  0
VERTEX
  5
ABDE
  8
0
 10
158.27578812934249
 20
74.187768788141966
 30
0.0
  0
VERTEX
  5
ABDF
  8
0
 10
158.29494482198439
 20
74.179252020703188
 30
0.0
  0
VERTEX
  5
ABE0
  8
0
 10
158.31398568878529
 20
74.170574496602967
 30
0.0
  0
VERTEX
  5
ABE1
  8
0
 10
158.33290954742071
 20
74.161734355156554
 30
0.0
  0
VERTEX
  5
ABE2
  8
0
 10
158.3517152137226
 20
74.152729715079658
 30
0.0
  0
VERTEX
  5
ABE3
  8
0
 10
158.3610733530347
 20
74.148165115066135
 30
0.0
  0
VERTEX
  5
ABE4
  8
0
 10
158.37040149741799
 20
74.143558676512839
 30
0.0
  0
VERTEX
  5
ABE5
  8
0
 10
158.38896720185099
 20
74.134219321319961
 30
0.0
  0
VERTEX
  5
ABE6
  8
0
 10
158.4074111237808
 20
74.124709713370066
 30
0.0
  0
VERTEX
  5
ABE7
  8
0
 10
158.42573205324859
 20
74.115027898807512
 30
0.0
  0
VERTEX
  5
ABE8
  8
0
 10
158.443928773517
 20
74.105171906306168
 30
0.0
  0
VERTEX
  5
ABE9
  8
0
 10
158.46200006107031
 20
74.095139747308167
 30
0.0
  0
VERTEX
  5
ABEA
  8
0
 10
158.47098828339151
 20
74.090056979291603
 30
0.0
  0
VERTEX
  5
ABEB
  8
0
 10
158.4799446856799
 20
74.084929416246723
 30
0.0
  0
VERTEX
  5
ABEC
  8
0
 10
158.497761410528
 20
74.074538890752123
 30
0.0
  0
VERTEX
  5
ABED
  8
0
 10
158.51544899238689
 20
74.063966131840971
 30
0.0
  0
VERTEX
  5
ABEE
  8
0
 10
158.52424396449021
 20
74.058610773170585
 30
0.0
  0
VERTEX
  5
ABEF
  8
0
 10
158.53300618185131
 20
74.053209084084301
 30
0.0
  0
VERTEX
  5
ABF0
  8
0
 10
158.55043172362059
 20
74.042265675762792
 30
0.0
  0
VERTEX
  5
ABF1
  8
0
 10
158.56772435682811
 20
74.03113381899675
 30
0.0
  0
VERTEX
  5
ABF2
  8
0
 10
158.5763204372692
 20
74.025496565594494
 30
0.0
  0
VERTEX
  5
ABF3
  8
0
 10
158.5848828154142
 20
74.019811409862086
 30
0.0
  0
VERTEX
  5
ABF4
  8
0
 10
158.60190582854111
 20
74.008296328483084
 30
0.0
  0
VERTEX
  5
ABF5
  8
0
 10
158.61879212104549
 20
73.996586439108341
 30
0.0
  0
VERTEX
  5
ABF6
  8
0
 10
158.6355404139284
 20
73.984679590161704
 30
0.0
  0
VERTEX
  5
ABF7
  8
0
 10
158.65214942487751
 20
73.972573614278645
 30
0.0
  0
VERTEX
  5
ABF8
  8
0
 10
158.668617868822
 20
73.960266328318539
 30
0.0
  0
VERTEX
  5
ABF9
  8
0
 10
158.67679897597191
 20
73.954036507513138
 30
0.0
  0
VERTEX
  5
ABFA
  8
0
 10
158.68494445851681
 20
73.947755533357395
 30
0.0
  0
VERTEX
  5
ABFB
  8
0
 10
158.7011279051535
 20
73.935039014659196
 30
0.0
  0
VERTEX
  5
ABFC
  8
0
 10
158.71716691899741
 20
73.922114541627252
 30
0.0
  0
VERTEX
  5
ABFD
  8
0
 10
158.73306021004981
 20
73.908979867737344
 30
0.0
  0
VERTEX
  5
ABFE
  8
0
 10
158.74880648873119
 20
73.895632730444504
 30
0.0
  0
VERTEX
  5
ABFF
  8
0
 10
158.76440446658791
 20
73.882070851076151
 30
0.0
  0
VERTEX
  5
AC00
  8
0
 10
158.77214744055149
 20
73.875208666586786
 30
0.0
  0
VERTEX
  5
AC01
  8
0
 10
158.77985285701851
 20
73.868291934700665
 30
0.0
  0
VERTEX
  5
AC02
  8
0
 10
158.79515037602019
 20
73.854293669977324
 30
0.0
  0
VERTEX
  5
AC03
  8
0
 10
158.81029574295451
 20
73.840073728986226
 30
0.0
  0
VERTEX
  5
AC04
  8
0
 10
158.81781097030961
 20
73.832879897835483
 30
0.0
  0
VERTEX
  5
AC05
  8
0
 10
158.84409396209111
 20
73.807270442664048
 30
0.0
  0
VERTEX
  5
AC06
  8
0
 10
158.89518959134011
 20
73.755756668139384
 30
0.0
  0
VERTEX
  5
AC07
  8
0
 10
158.9442621878631
 20
73.703943621528197
 30
0.0
  0
VERTEX
  5
AC08
  8
0
 10
158.96801753451169
 20
73.677961226361276
 30
0.0
  0
VERTEX
  5
AC09
  8
0
 10
158.991241106492
 20
73.651948160290431
 30
0.0
  0
VERTEX
  5
AC0A
  8
0
 10
159.03606223729889
 20
73.599891000136267
 30
0.0
  0
VERTEX
  5
AC0B
  8
0
 10
159.07866939976719
 20
73.547895697885451
 30
0.0
  0
VERTEX
  5
AC0C
  8
0
 10
159.11901550660829
 20
73.496087659969362
 30
0.0
  0
VERTEX
  5
AC0D
  8
0
 10
159.13072847146049
 20
73.480235241259024
 30
0.0
  0
SEQEND
  5
AC0E
  8
0
  0
LINE
  5
A2B9
  8
0
 10
144.54452157490309
 20
74.467629160370052
 30
0.0
 11
156.7091136649218
 21
74.467629160370052
 31
0.0
  0
POLYLINE
  5
A2BA
  8
0
 66
     1
 10
0.0
 20
0.0
 30
0.0
  0
VERTEX
  5
AC0F
  8
0
 10
156.9422248344745
 20
74.461759243653887
 30
0.0
  0
VERTEX
  5
AC10
  8
0
 10
156.9020399565058
 20
74.463562245080539
 30
0.0
  0
VERTEX
  5
AC11
  8
0
 10
156.82312910268649
 20
74.466171498031144
 30
0.0
  0
VERTEX
  5
AC12
  8
0
 10
156.74650775730379
 20
74.467467606749778
 30
0.0
  0
VERTEX
  5
AC13
  8
0
 10
156.70911326956571
 20
74.467629160370052
 30
0.0
  0
SEQEND
  5
AC14
  8
0
  0
LINE
  5
A2BB
  8
2
 10
182.3807284714548
 20
74.626023865863431
 30
0.0
 11
161.8807284714548
 21
74.626023865863544
 31
0.0
  0
ARC
  5
A2BC
  8
0
 10
92.051864775772046
 20
240.57910558770891
 30
0.0
 40
7.75
 50
270.0
 51
90.0
  0
LINE
  5
A2BD
  8
0
 10
72.371864775772053
 20
248.32910558770891
 30
0.0
 11
92.051864775772046
 21
248.32910558770891
 31
0.0
  0
LINE
  5
A2BE
  8
0
 10
92.051864775772046
 20
232.82910558770891
 30
0.0
 11
72.371864775772053
 21
232.82910558770891
 31
0.0
  0
ARC
  5
A2BF
  8
0
 10
72.371864775772053
 20
235.39910558770879
 30
0.0
 40
2.5699999999999958
 50
207.96107424920399
 51
270.0
  0
ARC
  5
A2C0
  8
0
 10
72.371864775772053
 20
245.75910558770889
 30
0.0
 40
2.5699999999999972
 50
90.0
 51
152.0389257508032
  0
LINE
  5
A2C1
  8
0
 10
55.001864775772049
 20
246.9641055877089
 30
0.0
 11
70.101870282386642
 21
246.9641055877089
 31
0.0
  0
LINE
  5
A2C2
  8
0
 10
70.101870282386642
 20
234.19410558770889
 30
0.0
 11
55.001864775772049
 21
234.19410558770889
 31
0.0
  0
ARC
  5
A2C3
  8
0
 10
55.001864775771992
 20
234.39410558770879
 30
0.0
 40
0.1999999999999886
 50
180.0
 51
270.0
  0
ARC
  5
A2C4
  8
0
 10
55.001864775771992
 20
246.76410558770891
 30
0.0
 40
0.1999999999999815
 50
90.0
 51
180.0
  0
LINE
  5
A2C5
  8
0
 10
53.802597108674149
 20
245.61029017979109
 30
0.0
 11
54.801864775772003
 21
245.750728091816
 31
0.0
  0
LINE
  5
A2C6
  8
0
 10
54.80186477577206
 20
235.40748308360159
 30
0.0
 11
53.80186477577206
 21
235.5480239183041
 31
0.0
  0
LINE
  5
A2C7
  8
0
 10
92.051864775772046
 20
232.82910558770891
 30
0.0
 11
92.051864775772046
 21
248.32910558770891
 31
0.0
  0
LINE
  5
A2C8
  8
0
 10
72.371864775772053
 20
232.82910558770891
 30
0.0
 11
72.371864775772053
 21
248.32910558770891
 31
0.0
  0
LINE
  5
A2C9
  8
0
 10
70.101870282386642
 20
234.19410558770889
 30
0.0
 11
70.101870282386642
 21
246.9641055877089
 31
0.0
  0
LINE
  5
A2CA
  8
0
 10
54.801864775772003
 20
234.39410558770879
 30
0.0
 11
54.801864775772003
 21
246.76410558770891
 31
0.0
  0
ARC
  5
A2CB
  8
0
 10
172.13072847145469
 20
130.8760238658634
 30
0.0
 40
7.75
 50
0.0
 51
180.0
  0
LINE
  5
A2CC
  8
0
 10
164.38072847145469
 20
111.1960238658634
 30
0.0
 11
164.38072847145469
 21
130.8760238658634
 31
0.0
  0
LINE
  5
A2CD
  8
0
 10
179.88072847145469
 20
130.8760238658634
 30
0.0
 11
179.88072847145469
 21
111.1960238658634
 31
0.0
  0
ARC
  5
A2CE
  8
0
 10
177.31072847145469
 20
111.1960238658634
 30
0.0
 40
2.5699999999999958
 50
297.96107424920029
 51
0.0
  0
ARC
  5
A2CF
  8
0
 10
166.95072847145471
 20
111.1960238658634
 30
0.0
 40
2.5699999999999972
 50
180.0
 51
242.03892575079951
  0
LINE
  5
A2D0
  8
0
 10
165.7457284714547
 20
93.826023865863363
 30
0.0
 11
165.7457284714547
 21
108.9260293724779
 31
0.0
  0
LINE
  5
A2D1
  8
0
 10
178.51572847145471
 20
108.9260293724779
 30
0.0
 11
178.51572847145471
 21
93.826023865863363
 31
0.0
  0
ARC
  5
A2D2
  8
0
 10
178.31572847145469
 20
93.826023865863306
 30
0.0
 40
0.1999999999999886
 50
270.0
 51
0.0
  0
ARC
  5
A2D3
  8
0
 10
165.94572847145469
 20
93.826023865863306
 30
0.0
 40
0.1999999999999815
 50
180.0
 51
270.0
  0
LINE
  5
A2D4
  8
0
 10
167.09954387937259
 20
92.626756198765463
 30
0.0
 11
166.95910596734751
 21
93.626023865863317
 31
0.0
  0
LINE
  5
A2D5
  8
0
 10
177.30235097556189
 20
93.626023865863374
 30
0.0
 11
177.1618101408595
 21
92.626023865863374
 31
0.0
  0
LINE
  5
A2D6
  8
0
 10
179.88072847145469
 20
130.8760238658634
 30
0.0
 11
164.38072847145469
 21
130.8760238658634
 31
0.0
  0
LINE
  5
A2D7
  8
0
 10
179.88072847145469
 20
111.1960238658634
 30
0.0
 11
164.38072847145469
 21
111.1960238658634
 31
0.0
  0
LINE
  5
A2D8
  8
0
 10
178.51572847145471
 20
108.9260293724779
 30
0.0
 11
165.7457284714547
 21
108.9260293724779
 31
0.0
  0
LINE
  5
A2D9
  8
0
 10
178.31572847145469
 20
93.626023865863317
 30
0.0
 11
165.94572847145469
 21
93.626023865863317
 31
0.0
  0
LINE
  5
A2DA
  8
1
 10
377.70138546080182
 20
240.57910558770871
 30
0.0
 11
394.41830708487998
 21
240.57910558770871
 31
0.0
  0
LINE
  5
A2DB
  8
1
 10
310.3556317014025
 20
86.593946813128127
 30
0.0
 11
289.76747972989881
 21
86.593946813128127
 31
0.0
  0
ARC
  5
A2DC
  8
0
 10
300.06155571565068
 20
86.593946813128127
 30
0.0
 40
7.75
 50
51.108155301492367
 51
128.89184469850761
  0
LINE
  5
A2DD
  8
1
 10
182.4248044572067
 20
86.593946813128127
 30
0.0
 11
161.8366524857029
 21
86.593946813128127
 31
0.0
  0
ARC
  5
A2DE
  8
0
 10
300.06155571565091
 20
193.3291055877086
 30
0.0
 40
7.75
 50
180.0
 51
0.0
  0
LINE
  5
A2DF
  8
0
 10
307.81155571565091
 20
213.0091055877088
 30
0.0
 11
307.81155571565091
 21
193.3291055877086
 31
0.0
  0
LINE
  5
A2E0
  8
0
 10
292.31155571565091
 20
193.3291055877086
 30
0.0
 11
292.31155571565091
 21
213.0091055877088
 31
0.0
  0
ARC
  5
A2E1
  8
0
 10
294.8815557156509
 20
213.0091055877088
 30
0.0
 40
2.5699999999999958
 50
117.96107424920029
 51
180.0
  0
ARC
  5
A2E2
  8
0
 10
305.24155571565092
 20
213.0091055877088
 30
0.0
 40
2.5699999999999972
 50
0.0
 51
62.038925750801049
  0
LINE
  5
A2E3
  8
0
 10
306.4465557156509
 20
230.37910558770861
 30
0.0
 11
306.4465557156509
 21
215.27910008109421
 31
0.0
  0
LINE
  5
A2E4
  8
0
 10
293.67655571565092
 20
215.27910008109421
 30
0.0
 11
293.67655571565092
 21
230.37910558770861
 31
0.0
  0
ARC
  5
A2E5
  8
0
 10
293.87655571565091
 20
230.37910558770881
 30
0.0
 40
0.1999999999999886
 50
90.0
 51
180.0
  0
ARC
  5
A2E6
  8
0
 10
306.2465557156508
 20
230.37910558770881
 30
0.0
 40
0.1999999999999815
 50
0.0
 51
90.0
  0
LINE
  5
A2E7
  8
0
 10
304.81155571565091
 20
233.57910558770871
 30
0.0
 11
305.23317821975809
 21
230.57910558770871
 31
0.0
  0
LINE
  5
A2E8
  8
0
 10
294.88993321154368
 20
230.57910558770871
 30
0.0
 11
295.31155571565091
 21
233.57910558770871
 31
0.0
  0
LINE
  5
A2E9
  8
0
 10
292.31155571565091
 20
193.3291055877086
 30
0.0
 11
307.81155571565091
 21
193.3291055877086
 31
0.0
  0
LINE
  5
A2EA
  8
0
 10
292.31155571565091
 20
213.0091055877088
 30
0.0
 11
307.81155571565091
 21
213.0091055877088
 31
0.0
  0
LINE
  5
A2EB
  8
0
 10
293.67655571565092
 20
215.27910008109421
 30
0.0
 11
306.4465557156509
 21
215.27910008109421
 31
0.0
  0
LINE
  5
A2EC
  8
0
 10
293.87655571565091
 20
230.57910558770871
 30
0.0
 11
306.2465557156508
 21
230.57910558770871
 31
0.0
  0
ARC
  5
A2ED
  8
0
 10
300.06155571565068
 20
240.5791055877088
 30
0.0
 40
7.300000000000078
 50
286.48297013802198
 51
253.5170298619779
  0
ARC
  5
A2EE
  8
0
 10
300.06155571565068
 20
240.57910558770871
 30
0.0
 40
4.75
 50
299.65239890649133
 51
240.3476010935087
  0
ARC
  5
A2EF
  8
0
 10
300.06155571565068
 20
240.57910558770871
 30
0.0
 40
5.0310816694047809
 50
297.8459802954327
 51
242.1540197045673
  0
LINE
  5
A2F0
  8
0
 10
295.3115557156508
 20
233.57910558770891
 30
0.0
 11
304.81155571565091
 21
233.57910558770871
 31
0.0
  0
ARC
  5
A2F1
  8
0
 10
298.71155571565072
 20
243.57910558770871
 30
0.0
 40
1.0
 50
90.0
 51
180.0
  0
LINE
  5
A2F2
  8
0
 10
297.71155571565072
 20
233.57910558770871
 30
0.0
 11
297.71155571565072
 21
243.57910558770871
 31
0.0
  0
ARC
  5
A2F3
  8
0
 10
301.41155571565071
 20
243.57910558770871
 30
0.0
 40
1.000000000000004
 50
0.0
 51
90.0
  0
LINE
  5
A2F4
  8
0
 10
298.71155571565072
 20
244.57910558770871
 30
0.0
 11
301.41155571565071
 21
244.57910558770871
 31
0.0
  0
LINE
  5
A2F5
  8
0
 10
302.41155571565071
 20
243.57910558770871
 30
0.0
 11
302.41155571565071
 21
233.57910558770871
 31
0.0
  0
ARC
  5
A2F6
  8
0
 10
300.06155571565068
 20
240.57910558770871
 30
0.0
 40
8.0000000000000018
 50
298.95502437185928
 51
241.0449756281393
  0
LINE
  5
A3FF
  8
0
 10
184.78072847145489
 20
232.978036448241
 30
0.0
 11
184.78072847145489
 21
190.18017472717631
 31
0.0
  0
LINE
  5
A400
  8
0
 10
159.48072847145491
 20
232.978036448241
 30
0.0
 11
159.48072847145491
 21
190.18017472717631
 31
0.0
  0
LINE
  5
A409
  8
0
 10
312.71155571565077
 20
232.978036448241
 30
0.0
 11
312.71155571565077
 21
190.18017472717631
 31
0.0
  0
LINE
  5
A40A
  8
0
 10
287.41155571565071
 20
232.978036448241
 30
0.0
 11
287.41155571565071
 21
190.18017472717631
 31
0.0
  0
TEXT
  5
A4AB
  8
0
 62
     3
 10
0.0
 20
0.0
 30
0.0
 40
10.0
  1
TWN80F
  7
STANDARD1
  0
ENDSEC
  0
EOF
