  0
SECTION
  2
HEADER
  9
$ACADVER
  1
AC1009
  9
$INSBASE
 10
0.0
 20
0.0
 30
0.0
  9
$EXTMIN
 10
0.0
 20
-2.960436562073669
 30
0.0
  9
$EXTMAX
 10
976.54959213443396
 20
545.51479646209157
 30
84.0
  9
$LIMMIN
 10
0.0
 20
0.0
  9
$LIMMAX
 10
375.0
 20
270.0
  9
$ORTHOMODE
 70
     1
  9
$REGENMODE
 70
     1
  9
$FILLMODE
 70
     1
  9
$QTEXTMODE
 70
     0
  9
$MIRRTEXT
 70
     0
  9
$DRAGMODE
 70
     2
  9
$LTSCALE
 40
10.0
  9
$OSMODE
 70
    55
  9
$ATTMODE
 70
     1
  9
$TEXTSIZE
 40
0.2
  9
$TRACEWID
 40
0.05
  9
$TEXTSTYLE
  7
STANDARD
  9
$CLAYER
  8
0
  9
$CELTYPE
  6
BYLAYER
  9
$CECOLOR
 62
   256
  9
$DIMSCALE
 40
1.0
  9
$DIMASZ
 40
3.0
  9
$DIMEXO
 40
2.0
  9
$DIMDLI
 40
0.38
  9
$DIMRND
 40
0.0
  9
$DIMDLE
 40
0.0
  9
$DIMEXE
 40
2.0
  9
$DIMTP
 40
0.0
  9
$DIMTM
 40
0.0
  9
$DIMTXT
 40
3.2000000000000002
  9
$DIMCEN
 40
0.0
  9
$DIMTSZ
 40
0.0
  9
$DIMTOL
 70
     0
  9
$DIMLIM
 70
     0
  9
$DIMTIH
 70
     0
  9
$DIMTOH
 70
     0
  9
$DIMSE1
 70
     0
  9
$DIMSE2
 70
     0
  9
$DIMTAD
 70
     1
  9
$DIMZIN
 70
     8
  9
$DIMBLK
  1

  9
$DIMASO
 70
     1
  9
$DIMSHO
 70
     0
  9
$DIMPOST
  1

  9
$DIMAPOST
  1

  9
$DIMALT
 70
     0
  9
$DIMALTD
 70
     2
  9
$DIMALTF
 40
25.399999999999999
  9
$DIMLFAC
 40
1.0
  9
$DIMTOFL
 70
     1
  9
$DIMTVP
 40
1.6000000000000001
  9
$DIMTIX
 70
     1
  9
$DIMSOXD
 70
     0
  9
$DIMSAH
 70
     0
  9
$DIMBLK1
  1

  9
$DIMBLK2
  1

  9
$DIMSTYLE
  2
STANDARD
  9
$DIMCLRD
 70
     0
  9
$DIMCLRE
 70
     0
  9
$DIMCLRT
 70
     0
  9
$DIMTFAC
 40
1.0
  9
$DIMGAP
 40
1.5
  9
$LUNITS
 70
     2
  9
$LUPREC
 70
     4
  9
$SKETCHINC
 40
0.1
  9
$FILLETRAD
 40
0.0
  9
$AUNITS
 70
     1
  9
$AUPREC
 70
     4
  9
$MENU
  1
E:\r13\win\SUPPORT\ACAD
  9
$ELEVATION
 40
0.0
  9
$PELEVATION
 40
0.0
  9
$THICKNESS
 40
0.0
  9
$LIMCHECK
 70
     0
  9
$BLIPMODE
 70
     0
  9
$CHAMFERA
 40
0.0
  9
$CHAMFERB
 40
0.0
  9
$SKPOLY
 70
     0
  9
$TDCREATE
 40
2449839.7800462958
  9
$TDUPDATE
 40
2456598.457613878
  9
$TDINDWG
 40
1.0450583795999999
  9
$TDUSRTIMER
 40
1.0450583795999999
  9
$USRTIMER
 70
     1
  9
$ANGBASE
 50
0.0
  9
$ANGDIR
 70
     0
  9
$PDMODE
 70
     0
  9
$PDSIZE
 40
0.0
  9
$PLINEWID
 40
0.0
  9
$COORDS
 70
     1
  9
$SPLFRAME
 70
     0
  9
$SPLINETYPE
 70
     6
  9
$SPLINESEGS
 70
     8
  9
$ATTDIA
 70
     0
  9
$ATTREQ
 70
     1
  9
$HANDLING
 70
     1
  9
$HANDSEED
  5
A537
  9
$SURFTAB1
 70
     6
  9
$SURFTAB2
 70
     6
  9
$SURFTYPE
 70
     6
  9
$SURFU
 70
     6
  9
$SURFV
 70
     6
  9
$UCSNAME
  2

  9
$UCSORG
 10
0.0
 20
0.0
 30
0.0
  9
$UCSXDIR
 10
1.0
 20
0.0
 30
0.0
  9
$UCSYDIR
 10
0.0
 20
1.0
 30
0.0
  9
$PUCSNAME
  2

  9
$PUCSORG
 10
0.0
 20
0.0
 30
0.0
  9
$PUCSXDIR
 10
1.0
 20
0.0
 30
0.0
  9
$PUCSYDIR
 10
0.0
 20
1.0
 30
0.0
  9
$USERI1
 70
     0
  9
$USERI2
 70
     1
  9
$USERI3
 70
     1
  9
$USERI4
 70
     0
  9
$USERI5
 70
     0
  9
$USERR1
 40
0.0
  9
$USERR2
 40
0.0
  9
$USERR3
 40
0.0
  9
$USERR4
 40
0.0
  9
$USERR5
 40
0.0
  9
$WORLDVIEW
 70
     1
  9
$SHADEDGE
 70
     3
  9
$SHADEDIF
 70
    70
  9
$TILEMODE
 70
     1
  9
$MAXACTVP
 70
    16
  9
$PLIMCHECK
 70
     0
  9
$PEXTMIN
 10
1.0000000000000000E+020
 20
1.0000000000000000E+020
 30
1.0000000000000000E+020
  9
$PEXTMAX
 10
-1.0000000000000000E+020
 20
-1.0000000000000000E+020
 30
-1.0000000000000000E+020
  9
$PLIMMIN
 10
0.0
 20
0.0
  9
$PLIMMAX
 10
12.0
 20
9.0
  9
$UNITMODE
 70
     0
  9
$VISRETAIN
 70
     0
  9
$PLINEGEN
 70
     0
  9
$PSLTSCALE
 70
     0
  0
ENDSEC
  0
SECTION
  2
TABLES
  0
TABLE
  2
VPORT
 70
     1
  0
VPORT
  2
*ACTIVE
 70
     0
 10
0.0
 20
0.0
 11
1.0
 21
1.0
 12
488.27479834092361
 22
398.95073707098021
 13
0.0
 23
0.0
 14
10.0
 24
10.0
 15
10.0
 25
10.0
 16
0.0
 26
0.0
 36
1.0
 17
0.0
 27
0.0
 37
0.0
 40
810.92219181861378
 41
1.7807262569832401
 42
50.0
 43
0.0
 44
0.0
 50
0.0
 51
0.0
 71
     0
 72
   500
 73
     1
 74
     0
 75
     0
 76
     0
 77
     0
 78
     2
  0
ENDTAB
  0
TABLE
  2
LTYPE
 70
     4
  0
LTYPE
  2
CONTINUOUS
 70
     0
  3
Solid Line
 72
    65
 73
     0
 40
0.0
  0
LTYPE
  2
CENTER
 70
     0
  3
____ _ ____ _ ____ _ ____ _ ____ _ ____ _ ____
 72
    65
 73
     4
 40
2.0
 49
1.25
 49
-0.25
 49
0.25
 49
-0.25
  0
LTYPE
  2
HIDDEN
 70
     0
  3
_ _ _ _ _ _ _ _ _ _ _ _ _ _ _ _ _ _ _ _ _ _ _
 72
    65
 73
     2
 40
0.375
 49
0.25
 49
-0.125
  0
LTYPE
  2
PHANTOM2
 70
     0
  3
___ _ _ ___ _ _ ___ _ _ ___ _ _
 72
    65
 73
     6
 40
1.25
 49
0.625
 49
-0.125
 49
0.125
 49
-0.125
 49
0.125
 49
-0.125
  0
ENDTAB
  0
TABLE
  2
LAYER
 70
     4
  0
LAYER
  2
0
 70
     0
 62
     7
  6
CONTINUOUS
  0
LAYER
  2
1
 70
     0
 62
     1
  6
CENTER
  0
LAYER
  2
2
 70
     0
 62
     2
  6
HIDDEN
  0
LAYER
  2
DEFPOINTS
 70
     0
 62
     7
  6
CONTINUOUS
  0
ENDTAB
  0
TABLE
  2
STYLE
 70
     2
  0
STYLE
  2
STANDARD
 70
     0
 40
0.0
 41
1.0
 50
0.0
 71
     0
 42
0.2
  3
TXT
  4
BIGFONT
  0
STYLE
  2
STANDARD1
 70
     0
 40
0.0
 41
1.0
 50
0.0
 71
     0
 42
3.0
  3
txt
  4

  0
ENDTAB
  0
TABLE
  2
VIEW
 70
     1
  0
VIEW
  2
ALL
 70
     0
 40
270.0
 10
220.99159663865549
 20
135.0
 41
0.0
 11
0.0
 21
0.0
 31
1.0
 12
0.0
 22
0.0
 32
0.0
 42
0.0
 43
0.0
 44
0.0
 50
0.0
 71
     0
  0
ENDTAB
  0
TABLE
  2
UCS
 70
     0
  0
ENDTAB
  0
TABLE
  2
APPID
 70
     8
  0
APPID
  2
ACAD
 70
     0
  0
APPID
  2
ACAD_MLEADERVER
 70
     0
  0
APPID
  2
ACAD_EXEMPT_FROM_CAD_STANDARDS
 70
     0
  0
APPID
  2
ACAD_DSTYLE_DIMJAG
 70
     0
  0
APPID
  2
ACAD_DSTYLE_DIMTALN
 70
     0
  0
APPID
  2
ACAD_DSTYLE_DIMRADIAL_EXTENSION
 70
     0
  0
APPID
  2
ACAD_PSEXT
 70
     0
  0
APPID
  2
ACAD_NAV_VCDISPLAY
 70
     0
  0
ENDTAB
  0
TABLE
  2
DIMSTYLE
 70
     1
  0
DIMSTYLE
  2
STANDARD
 70
     0
  3

  4

  5

  6

  7

 40
1.0
 41
0.18
 42
0.0625
 43
0.38
 44
0.18
 45
0.0
 46
0.0
 47
0.0
 48
0.0
140
0.18
141
0.09
142
0.0
143
25.399999999999999
144
1.0
145
0.0
146
1.0
147
0.09
 71
     0
 72
     0
 73
     1
 74
     1
 75
     0
 76
     0
 77
     0
 78
     0
170
     0
171
     2
172
     0
173
     0
174
     0
175
     0
176
     0
177
     0
178
     0
  0
ENDTAB
  0
ENDSEC
  0
SECTION
  2
BLOCKS
  0
BLOCK
  8
0
  2
$MODEL_SPACE
 70
     0
 10
0.0
 20
0.0
 30
0.0
  3
$MODEL_SPACE
  1

  0
ENDBLK
  5
11B
  8
0
  0
BLOCK
 67
     1
  8
0
  2
$PAPER_SPACE
 70
     0
 10
0.0
 20
0.0
 30
0.0
  3
$PAPER_SPACE
  1

  0
ENDBLK
  5
119
 67
     1
  8
0
  0
ENDSEC
  0
SECTION
  2
ENTITIES
  0
LINE
  5
8A95
  8
1
 10
702.12836371435924
 20
513.99658943279132
 30
0.0
 11
647.09194965575853
 21
513.99658943279132
 31
0.0
  0
CIRCLE
  5
8A96
  8
0
 10
674.61015668505888
 20
429.99658943279138
 30
0.0
 40
99.999999999999986
  0
ARC
  5
8A97
  8
0
 10
674.61015668505888
 20
429.99658943279138
 30
0.0
 40
25.0
 50
118.68540201411891
 51
61.314597985881051
  0
POLYLINE
  5
8A98
  8
0
 66
     1
 10
0.0
 20
0.0
 30
0.0
  0
VERTEX
  5
9EA3
  8
0
 10
640.46526357341997
 20
489.91627603715989
 30
0.0
  0
VERTEX
  5
9EA4
  8
0
 10
640.50135755461133
 20
489.93662169996452
 30
0.0
  0
VERTEX
  5
9EA5
  8
0
 10
640.57442828312048
 20
489.97647070782
 30
0.0
  0
VERTEX
  5
9EA6
  8
0
 10
640.64864314635076
 20
490.01515362681289
 30
0.0
  0
VERTEX
  5
9EA7
  8
0
 10
640.68616684494509
 20
490.03404214454332
 30
0.0
  0
VERTEX
  5
9EA8
  8
0
 10
640.72396101483298
 20
490.05262061163347
 30
0.0
  0
VERTEX
  5
9EA9
  8
0
 10
640.80033904677612
 20
490.08882395086061
 30
0.0
  0
VERTEX
  5
9EAA
  8
0
 10
640.87773290741177
 20
490.12371819212223
 30
0.0
  0
VERTEX
  5
9EAB
  8
0
 10
640.95609699682063
 20
490.15726024603481
 30
0.0
  0
VERTEX
  5
9EAC
  8
0
 10
641.03538468682609
 20
490.18940946920952
 30
0.0
  0
VERTEX
  5
9EAD
  8
0
 10
641.11554856743885
 20
490.22012772634679
 30
0.0
  0
VERTEX
  5
9EAE
  8
0
 10
641.15594411270729
 20
490.23493902170208
 30
0.0
  0
VERTEX
  5
9EAF
  8
0
 10
641.19654070322622
 20
490.24937943122518
 30
0.0
  0
VERTEX
  5
9EB0
  8
0
 10
641.27831289983567
 20
490.27713156615869
 30
0.0
  0
VERTEX
  5
9EB1
  8
0
 10
641.36081691196239
 20
490.30335365817677
 30
0.0
  0
VERTEX
  5
9EB2
  8
0
 10
641.44400383699531
 20
490.32801750532349
 30
0.0
  0
VERTEX
  5
9EB3
  8
0
 10
641.52782337557301
 20
490.3510969538163
 30
0.0
  0
VERTEX
  5
9EB4
  8
0
 10
641.61222395180175
 20
490.37256798485379
 30
0.0
  0
VERTEX
  5
9EB5
  8
0
 10
641.65462571727949
 20
490.3826934467873
 30
0.0
  0
VERTEX
  5
9EB6
  8
0
 10
641.69715293605122
 20
490.39240881464428
 30
0.0
  0
VERTEX
  5
9EB7
  8
0
 10
641.78255687102899
 20
490.41059997328131
 30
0.0
  0
VERTEX
  5
9EB8
  8
0
 10
641.86838170141164
 20
490.42712436281198
 30
0.0
  0
VERTEX
  5
9EB9
  8
0
 10
641.91143495393715
 20
490.43475683427209
 30
0.0
  0
VERTEX
  5
9EBA
  8
0
 10
641.95457300730448
 20
490.44196729468848
 30
0.0
  0
VERTEX
  5
9EBB
  8
0
 10
642.04107624180176
 20
490.45511650662479
 30
0.0
  0
VERTEX
  5
9EBC
  8
0
 10
642.12783697288376
 20
490.4665621587398
 30
0.0
  0
VERTEX
  5
9EBD
  8
0
 10
642.17129698159886
 20
490.47164373160041
 30
0.0
  0
VERTEX
  5
9EBE
  8
0
 10
642.21480251694402
 20
490.47629695017099
 30
0.0
  0
VERTEX
  5
9EBF
  8
0
 10
642.30193956068115
 20
490.4843173617403
 30
0.0
  0
VERTEX
  5
9EC0
  8
0
 10
642.38920073013367
 20
490.49061963313147
 30
0.0
  0
VERTEX
  5
9EC1
  8
0
 10
642.47653101645255
 20
490.495201418926
 30
0.0
  0
VERTEX
  5
9EC2
  8
0
 10
642.56387470814525
 20
490.49806268958059
 30
0.0
  0
VERTEX
  5
9EC3
  8
0
 10
642.65117562687374
 20
490.49920579430892
 30
0.0
  0
VERTEX
  5
9EC4
  8
0
 10
642.69479242095065
 20
490.4991344296825
 30
0.0
  0
VERTEX
  5
9EC5
  8
0
 10
642.73837736295172
 20
490.4986355026474
 30
0.0
  0
VERTEX
  5
9EC6
  8
0
 10
642.82542351071959
 20
490.49635902499699
 30
0.0
  0
VERTEX
  5
9EC7
  8
0
 10
642.91225790404667
 20
490.49238601228058
 30
0.0
  0
VERTEX
  5
9EC8
  8
0
 10
642.99882485226499
 20
490.48672853471749
 30
0.0
  0
VERTEX
  5
9EC9
  8
0
 10
643.08506937688389
 20
490.47940103954789
 30
0.0
  0
VERTEX
  5
9ECA
  8
0
 10
643.17093743194164
 20
490.470420289402
 30
0.0
  0
VERTEX
  5
9ECB
  8
0
 10
643.2137135868843
 20
490.46531581002711
 30
0.0
  0
VERTEX
  5
9ECC
  8
0
 10
643.25637555051662
 20
490.45980535803409
 30
0.0
  0
VERTEX
  5
9ECD
  8
0
 10
643.34132988419276
 20
490.44757776736861
 30
0.0
  0
VERTEX
  5
9ECE
  8
0
 10
643.42574620827463
 20
490.43376157700658
 30
0.0
  0
VERTEX
  5
9ECF
  8
0
 10
643.50957018611098
 20
490.41838342996812
 30
0.0
  0
VERTEX
  5
9ED0
  8
0
 10
643.59274762853545
 20
490.40147257510699
 30
0.0
  0
VERTEX
  5
9ED1
  8
0
 10
643.67522474760096
 20
490.38306086687481
 30
0.0
  0
VERTEX
  5
9ED2
  8
0
 10
643.7161840480635
 20
490.37330285464549
 30
0.0
  0
VERTEX
  5
9ED3
  8
0
 10
643.75694840490041
 20
490.36318274282871
 30
0.0
  0
VERTEX
  5
9ED4
  8
0
 10
643.83786635492015
 20
490.34187517910118
 30
0.0
  0
VERTEX
  5
9ED5
  8
0
 10
643.91792748403566
 20
490.31917762380982
 30
0.0
  0
VERTEX
  5
9ED6
  8
0
 10
643.99708956345376
 20
490.29512954781592
 30
0.0
  0
VERTEX
  5
9ED7
  8
0
 10
644.07589059661132
 20
490.26957852495138
 30
0.0
  0
VERTEX
  5
9ED8
  8
0
 10
644.15463973767135
 20
490.24240751827188
 30
0.0
  0
VERTEX
  5
9ED9
  8
0
 10
644.19397491033669
 20
490.22821292628282
 30
0.0
  0
VERTEX
  5
9EDA
  8
0
 10
644.23327321348677
 20
490.21361176199548
 30
0.0
  0
VERTEX
  5
9EDB
  8
0
 10
644.31172755964053
 20
490.18318917135161
 30
0.0
  0
VERTEX
  5
9EDC
  8
0
 10
644.38993985844445
 20
490.15114027591898
 30
0.0
  0
VERTEX
  5
9EDD
  8
0
 10
644.46784796690588
 20
490.11746813315239
 30
0.0
  0
VERTEX
  5
9EDE
  8
0
 10
644.54539073535852
 20
490.08217822193888
 30
0.0
  0
VERTEX
  5
9EDF
  8
0
 10
644.62250821723228
 20
490.0452783159401
 30
0.0
  0
VERTEX
  5
9EE0
  8
0
 10
644.66088912104851
 20
490.026227635841
 30
0.0
  0
VERTEX
  5
9EE1
  8
0
 10
644.69914187020265
 20
490.0067783363732
 30
0.0
  0
VERTEX
  5
9EE2
  8
0
 10
644.77523474870065
 20
489.96669018382931
 30
0.0
  0
VERTEX
  5
9EE3
  8
0
 10
644.85073168109909
 20
489.92502755233119
 30
0.0
  0
VERTEX
  5
9EE4
  8
0
 10
644.88823988183356
 20
489.90361056735611
 30
0.0
  0
VERTEX
  5
9EE5
  8
0
 10
644.92557905361207
 20
489.88180594926081
 30
0.0
  0
VERTEX
  5
9EE6
  8
0
 10
644.99972393728513
 20
489.83704315451428
 30
0.0
  0
VERTEX
  5
9EE7
  8
0
 10
645.07311400139224
 20
489.79075931715431
 30
0.0
  0
VERTEX
  5
9EE8
  8
0
 10
645.10950984063675
 20
489.7670539316025
 30
0.0
  0
VERTEX
  5
9EE9
  8
0
 10
645.14569773331868
 20
489.74297687143081
 30
0.0
  0
VERTEX
  5
9EEA
  8
0
 10
645.21742464829458
 20
489.69372043511271
 30
0.0
  0
VERTEX
  5
9EEB
  8
0
 10
645.28824548653301
 20
489.6430166918006
 30
0.0
  0
VERTEX
  5
9EEC
  8
0
 10
645.35811239816394
 20
489.59089425719662
 30
0.0
  0
VERTEX
  5
9EED
  8
0
 10
645.42697911625282
 20
489.53738352919919
 30
0.0
  0
VERTEX
  5
9EEE
  8
0
 10
645.49480111805258
 20
489.48251652160047
 30
0.0
  0
VERTEX
  5
9EEF
  8
0
 10
645.52830695094872
 20
489.45458481442051
 30
0.0
  0
VERTEX
  5
9EF0
  8
0
 10
645.56153577451641
 20
489.42632668109098
 30
0.0
  0
VERTEX
  5
9EF1
  8
0
 10
645.6271503999078
 20
489.3688416171106
 30
0.0
  0
VERTEX
  5
9EF2
  8
0
 10
645.69161796217622
 20
489.31008556715813
 30
0.0
  0
VERTEX
  5
9EF3
  8
0
 10
645.75489946002881
 20
489.25009555251449
 30
0.0
  0
VERTEX
  5
9EF4
  8
0
 10
645.81695682670716
 20
489.18891083461699
 30
0.0
  0
VERTEX
  5
9EF5
  8
0
 10
645.87775330277691
 20
489.12657265351419
 30
0.0
  0
VERTEX
  5
9EF6
  8
0
 10
645.90766762430565
 20
489.09498441051687
 30
0.0
  0
VERTEX
  5
9EF7
  8
0
 10
645.93725362717976
 20
489.06312409553522
 30
0.0
  0
VERTEX
  5
9EF8
  8
0
 10
645.99542421337617
 20
488.99860994730147
 30
0.0
  0
VERTEX
  5
9EF9
  8
0
 10
646.05223331088189
 20
488.93307653604478
 30
0.0
  0
VERTEX
  5
9EFA
  8
0
 10
646.10765115244885
 20
488.86657155603848
 30
0.0
  0
VERTEX
  5
9EFB
  8
0
 10
646.16165008706184
 20
488.79914388082381
 30
0.0
  0
VERTEX
  5
9EFC
  8
0
 10
646.21420469875875
 20
488.73084336085748
 30
0.0
  0
VERTEX
  5
9EFD
  8
0
 10
646.23993306630518
 20
488.69638159239798
 30
0.0
  0
VERTEX
  5
9EFE
  8
0
 10
646.26529180782654
 20
488.66172074883917
 30
0.0
  0
VERTEX
  5
9EFF
  8
0
 10
646.31488993799155
 20
488.59182839243232
 30
0.0
  0
VERTEX
  5
9F00
  8
0
 10
646.36297909737004
 20
488.52122064982711
 30
0.0
  0
VERTEX
  5
9F01
  8
0
 10
646.40954097494023
 20
488.44995376552629
 30
0.0
  0
VERTEX
  5
9F02
  8
0
 10
646.45455913765807
 20
488.37808570814133
 30
0.0
  0
VERTEX
  5
9F03
  8
0
 10
646.49801920787013
 20
488.30567599706069
 30
0.0
  0
VERTEX
  5
9F04
  8
0
 10
646.51916106660508
 20
488.2692870001049
 30
0.0
  0
VERTEX
  5
9F05
  8
0
 10
646.53990902149462
 20
488.23278551814951
 30
0.0
  0
VERTEX
  5
9F06
  8
0
 10
646.58021876741714
 20
488.15947632836082
 30
0.0
  0
VERTEX
  5
9F07
  8
0
 10
646.61894110849278
 20
488.08581144890758
 30
0.0
  0
VERTEX
  5
9F08
  8
0
 10
646.65607128449255
 20
488.01185464638121
 30
0.0
  0
VERTEX
  5
9F09
  8
0
 10
646.69169918595662
 20
487.9374735025238
 30
0.0
  0
VERTEX
  5
9F0A
  8
0
 10
646.72614586149109
 20
487.86198329391692
 30
0.0
  0
VERTEX
  5
9F0B
  8
0
 10
646.74292153435545
 20
487.8238105025714
 30
0.0
  0
VERTEX
  5
9F0C
  8
0
 10
646.75938963311091
 20
487.78536069913861
 30
0.0
  0
VERTEX
  5
9F0D
  8
0
 10
646.79137670960336
 20
487.70765508398807
 30
0.0
  0
VERTEX
  5
9F0E
  8
0
 10
646.8220560183172
 20
487.6289175253803
 30
0.0
  0
VERTEX
  5
9F0F
  8
0
 10
646.83689007341354
 20
487.58917813193398
 30
0.0
  0
VERTEX
  5
9F10
  8
0
 10
646.85137932701218
 20
487.54920054736323
 30
0.0
  0
VERTEX
  5
9F11
  8
0
 10
646.87930134056433
 20
487.46855784715473
 30
0.0
  0
VERTEX
  5
9F12
  8
0
 10
646.90577977270414
 20
487.38704401006203
 30
0.0
  0
VERTEX
  5
9F13
  8
0
 10
646.91846526600955
 20
487.34597764305943
 30
0.0
  0
VERTEX
  5
9F14
  8
0
 10
646.93077539261776
 20
487.30471421231528
 30
0.0
  0
VERTEX
  5
9F15
  8
0
 10
646.95425204591766
 20
487.2216239110428
 30
0.0
  0
VERTEX
  5
9F16
  8
0
 10
646.97617663018764
 20
487.1378285963799
 30
0.0
  0
VERTEX
  5
9F17
  8
0
 10
646.99651884346565
 20
487.05338443592092
 30
0.0
  0
VERTEX
  5
9F18
  8
0
 10
647.01525099086746
 20
486.96834906666868
 30
0.0
  0
VERTEX
  5
9F19
  8
0
 10
647.03234807646004
 20
486.88278143717957
 30
0.0
  0
VERTEX
  5
9F1A
  8
0
 10
647.04027642262781
 20
486.83981673807028
 30
0.0
  0
VERTEX
  5
9F1B
  8
0
 10
647.04778790184764
 20
486.79674153578321
 30
0.0
  0
VERTEX
  5
9F1C
  8
0
 10
647.06155113934426
 20
486.71029011589991
 30
0.0
  0
VERTEX
  5
9F1D
  8
0
 10
647.07362138011229
 20
486.62348841760308
 30
0.0
  0
VERTEX
  5
9F1E
  8
0
 10
647.08398515740828
 20
486.53639788461243
 30
0.0
  0
VERTEX
  5
9F1F
  8
0
 10
647.09263194479706
 20
486.44907987594689
 30
0.0
  0
VERTEX
  5
9F20
  8
0
 10
647.09955417154697
 20
486.36159475623867
 30
0.0
  0
VERTEX
  5
9F21
  8
0
 10
647.10236730849692
 20
486.31780266653118
 30
0.0
  0
VERTEX
  5
9F22
  8
0
 10
647.10474792956165
 20
486.27398496755882
 30
0.0
  0
VERTEX
  5
9F23
  8
0
 10
647.10821032564127
 20
486.18630388286903
 30
0.0
  0
VERTEX
  5
9F24
  8
0
 10
647.10994057143262
 20
486.098613918078
 30
0.0
  0
VERTEX
  5
9F25
  8
0
 10
647.11015668505877
 20
486.05478512265631
 30
0.0
  0
SEQEND
  5
9F26
  8
0
  0
ARC
  5
8A99
  8
0
 10
674.61015668505888
 20
429.99658943279138
 30
0.0
 40
68.965517241379331
 50
119.6764073220503
 51
240.3235926779497
  0
POLYLINE
  5
8A9A
  8
0
 66
     1
 10
0.0
 20
0.0
 30
0.0
  0
VERTEX
  5
9F27
  8
0
 10
647.11015668505877
 20
373.93839374292691
 30
0.0
  0
VERTEX
  5
9F28
  8
0
 10
647.10994057143262
 20
373.89456494750482
 30
0.0
  0
VERTEX
  5
9F29
  8
0
 10
647.10821032564127
 20
373.80687498271368
 30
0.0
  0
VERTEX
  5
9F2A
  8
0
 10
647.10474792956165
 20
373.71919389802389
 30
0.0
  0
VERTEX
  5
9F2B
  8
0
 10
647.10236730849692
 20
373.67537619905153
 30
0.0
  0
VERTEX
  5
9F2C
  8
0
 10
647.09955417154697
 20
373.63158410934398
 30
0.0
  0
VERTEX
  5
9F2D
  8
0
 10
647.09263194479706
 20
373.54409898963593
 30
0.0
  0
VERTEX
  5
9F2E
  8
0
 10
647.08398515740828
 20
373.45678098097028
 30
0.0
  0
VERTEX
  5
9F2F
  8
0
 10
647.07362138011229
 20
373.36969044797962
 30
0.0
  0
VERTEX
  5
9F30
  8
0
 10
647.06155113934426
 20
373.2828887496828
 30
0.0
  0
VERTEX
  5
9F31
  8
0
 10
647.04778790184764
 20
373.19643732979949
 30
0.0
  0
VERTEX
  5
9F32
  8
0
 10
647.04027642262781
 20
373.15336212751242
 30
0.0
  0
VERTEX
  5
9F33
  8
0
 10
647.03234807646004
 20
373.11039742840308
 30
0.0
  0
VERTEX
  5
9F34
  8
0
 10
647.01525099086746
 20
373.02482979891403
 30
0.0
  0
VERTEX
  5
9F35
  8
0
 10
646.99651884346565
 20
372.93979442966179
 30
0.0
  0
VERTEX
  5
9F36
  8
0
 10
646.97617663018764
 20
372.8553502692028
 30
0.0
  0
VERTEX
  5
9F37
  8
0
 10
646.95425204591766
 20
372.77155495453991
 30
0.0
  0
VERTEX
  5
9F38
  8
0
 10
646.93077539261776
 20
372.68846465326749
 30
0.0
  0
VERTEX
  5
9F39
  8
0
 10
646.91846526600955
 20
372.64720122252339
 30
0.0
  0
VERTEX
  5
9F3A
  8
0
 10
646.90577977270414
 20
372.60613485552068
 30
0.0
  0
VERTEX
  5
9F3B
  8
0
 10
646.87930134056433
 20
372.52462101842798
 30
0.0
  0
VERTEX
  5
9F3C
  8
0
 10
646.85137932701218
 20
372.44397831821999
 30
0.0
  0
VERTEX
  5
9F3D
  8
0
 10
646.83689007341354
 20
372.40400073364867
 30
0.0
  0
VERTEX
  5
9F3E
  8
0
 10
646.8220560183172
 20
372.3642613402024
 30
0.0
  0
VERTEX
  5
9F3F
  8
0
 10
646.79137670960336
 20
372.28552378159458
 30
0.0
  0
VERTEX
  5
9F40
  8
0
 10
646.75938963311091
 20
372.2078181664441
 30
0.0
  0
VERTEX
  5
9F41
  8
0
 10
646.74292153435545
 20
372.1693683630113
 30
0.0
  0
VERTEX
  5
9F42
  8
0
 10
646.72614586149109
 20
372.13119557166578
 30
0.0
  0
VERTEX
  5
9F43
  8
0
 10
646.69169918595662
 20
372.05570536305902
 30
0.0
  0
VERTEX
  5
9F44
  8
0
 10
646.65607128449255
 20
371.98132421920161
 30
0.0
  0
VERTEX
  5
9F45
  8
0
 10
646.61894110849278
 20
371.90736741667507
 30
0.0
  0
VERTEX
  5
9F46
  8
0
 10
646.58021876741748
 20
371.83370253722188
 30
0.0
  0
VERTEX
  5
9F47
  8
0
 10
646.53990902149496
 20
371.76039334743319
 30
0.0
  0
VERTEX
  5
9F48
  8
0
 10
646.51916106660508
 20
371.72389186547781
 30
0.0
  0
VERTEX
  5
9F49
  8
0
 10
646.49801920787013
 20
371.68750286852202
 30
0.0
  0
VERTEX
  5
9F4A
  8
0
 10
646.45455913765807
 20
371.61509315744138
 30
0.0
  0
VERTEX
  5
9F4B
  8
0
 10
646.40954097494023
 20
371.54322510005642
 30
0.0
  0
VERTEX
  5
9F4C
  8
0
 10
646.36297909737004
 20
371.47195821575571
 30
0.0
  0
VERTEX
  5
9F4D
  8
0
 10
646.31488993799155
 20
371.4013504731505
 30
0.0
  0
VERTEX
  5
9F4E
  8
0
 10
646.26529180782654
 20
371.33145811674359
 30
0.0
  0
VERTEX
  5
9F4F
  8
0
 10
646.23993306630518
 20
371.29679727318472
 30
0.0
  0
VERTEX
  5
9F50
  8
0
 10
646.21420469875875
 20
371.26233550472517
 30
0.0
  0
VERTEX
  5
9F51
  8
0
 10
646.16165008706184
 20
371.19403498475901
 30
0.0
  0
VERTEX
  5
9F52
  8
0
 10
646.10765115244885
 20
371.12660730954423
 30
0.0
  0
VERTEX
  5
9F53
  8
0
 10
646.05223331088189
 20
371.06010232953781
 30
0.0
  0
VERTEX
  5
9F54
  8
0
 10
645.99542421337617
 20
370.99456891828117
 30
0.0
  0
VERTEX
  5
9F55
  8
0
 10
645.93725362717976
 20
370.93005477004749
 30
0.0
  0
VERTEX
  5
9F56
  8
0
 10
645.90766762430565
 20
370.89819445506578
 30
0.0
  0
VERTEX
  5
9F57
  8
0
 10
645.87775330277691
 20
370.86660621206858
 30
0.0
  0
VERTEX
  5
9F58
  8
0
 10
645.81695682670716
 20
370.80426803096572
 30
0.0
  0
VERTEX
  5
9F59
  8
0
 10
645.75489946002881
 20
370.74308331306872
 30
0.0
  0
VERTEX
  5
9F5A
  8
0
 10
645.69161796217622
 20
370.68309329842469
 30
0.0
  0
VERTEX
  5
9F5B
  8
0
 10
645.6271503999078
 20
370.6243372484721
 30
0.0
  0
VERTEX
  5
9F5C
  8
0
 10
645.56153577451641
 20
370.56685218449212
 30
0.0
  0
VERTEX
  5
9F5D
  8
0
 10
645.52830695094872
 20
370.53859405116219
 30
0.0
  0
VERTEX
  5
9F5E
  8
0
 10
645.49480111805258
 20
370.51066234398218
 30
0.0
  0
VERTEX
  5
9F5F
  8
0
 10
645.42697911625282
 20
370.45579533638357
 30
0.0
  0
VERTEX
  5
9F60
  8
0
 10
645.35811239816394
 20
370.40228460838608
 30
0.0
  0
VERTEX
  5
9F61
  8
0
 10
645.28824548653301
 20
370.35016217378222
 30
0.0
  0
VERTEX
  5
9F62
  8
0
 10
645.21742464829458
 20
370.29945843047
 30
0.0
  0
VERTEX
  5
9F63
  8
0
 10
645.14569773331868
 20
370.25020199415189
 30
0.0
  0
VERTEX
  5
9F64
  8
0
 10
645.10950984063675
 20
370.2261249339802
 30
0.0
  0
VERTEX
  5
9F65
  8
0
 10
645.07311400139224
 20
370.20241954842851
 30
0.0
  0
VERTEX
  5
9F66
  8
0
 10
644.99972393728513
 20
370.15613571106837
 30
0.0
  0
VERTEX
  5
9F67
  8
0
 10
644.92557905361207
 20
370.1113729163219
 30
0.0
  0
VERTEX
  5
9F68
  8
0
 10
644.88823988183412
 20
370.08956829822671
 30
0.0
  0
VERTEX
  5
9F69
  8
0
 10
644.85073168109909
 20
370.06815131325158
 30
0.0
  0
VERTEX
  5
9F6A
  8
0
 10
644.77523474870065
 20
370.02648868175339
 30
0.0
  0
VERTEX
  5
9F6B
  8
0
 10
644.69914187020265
 20
369.9864005292095
 30
0.0
  0
VERTEX
  5
9F6C
  8
0
 10
644.66088912104851
 20
369.96695122974171
 30
0.0
  0
VERTEX
  5
9F6D
  8
0
 10
644.62250821723228
 20
369.94790054964261
 30
0.0
  0
VERTEX
  5
9F6E
  8
0
 10
644.54539073535852
 20
369.91100064364377
 30
0.0
  0
VERTEX
  5
9F6F
  8
0
 10
644.46784796690588
 20
369.87571073243032
 30
0.0
  0
VERTEX
  5
9F70
  8
0
 10
644.38993985844445
 20
369.84203858966367
 30
0.0
  0
VERTEX
  5
9F71
  8
0
 10
644.31172755964053
 20
369.80998969423109
 30
0.0
  0
VERTEX
  5
9F72
  8
0
 10
644.23327321348677
 20
369.77956710358723
 30
0.0
  0
VERTEX
  5
9F73
  8
0
 10
644.19397491033669
 20
369.76496593929988
 30
0.0
  0
VERTEX
  5
9F74
  8
0
 10
644.15463973767135
 20
369.75077134731077
 30
0.0
  0
VERTEX
  5
9F75
  8
0
 10
644.07589059661132
 20
369.72360034063132
 30
0.0
  0
VERTEX
  5
9F76
  8
0
 10
643.99708956345376
 20
369.6980493177669
 30
0.0
  0
VERTEX
  5
9F77
  8
0
 10
643.91792748403566
 20
369.674001241773
 30
0.0
  0
VERTEX
  5
9F78
  8
0
 10
643.83786635492015
 20
369.65130368648153
 30
0.0
  0
VERTEX
  5
9F79
  8
0
 10
643.75694840490041
 20
369.62999612275399
 30
0.0
  0
VERTEX
  5
9F7A
  8
0
 10
643.7161840480635
 20
369.61987601093722
 30
0.0
  0
VERTEX
  5
9F7B
  8
0
 10
643.67522474760096
 20
369.61011799870789
 30
0.0
  0
VERTEX
  5
9F7C
  8
0
 10
643.59274762853545
 20
369.59170629047583
 30
0.0
  0
VERTEX
  5
9F7D
  8
0
 10
643.50957018611098
 20
369.57479543561459
 30
0.0
  0
VERTEX
  5
9F7E
  8
0
 10
643.42574620827463
 20
369.55941728857613
 30
0.0
  0
VERTEX
  5
9F7F
  8
0
 10
643.34132988419276
 20
369.54560109821409
 30
0.0
  0
VERTEX
  5
9F80
  8
0
 10
643.25637555051708
 20
369.53337350754862
 30
0.0
  0
VERTEX
  5
9F81
  8
0
 10
643.2137135868843
 20
369.52786305555571
 30
0.0
  0
VERTEX
  5
9F82
  8
0
 10
643.17093743194164
 20
369.52275857618071
 30
0.0
  0
VERTEX
  5
9F83
  8
0
 10
643.08506937688389
 20
369.51377782603493
 30
0.0
  0
VERTEX
  5
9F84
  8
0
 10
642.99882485226499
 20
369.50645033086522
 30
0.0
  0
VERTEX
  5
9F85
  8
0
 10
642.91225790404667
 20
369.50079285330207
 30
0.0
  0
VERTEX
  5
9F86
  8
0
 10
642.82542351071959
 20
369.49681984058572
 30
0.0
  0
VERTEX
  5
9F87
  8
0
 10
642.73837736295172
 20
369.4945433629353
 30
0.0
  0
VERTEX
  5
9F88
  8
0
 10
642.69479242095065
 20
369.49404443590021
 30
0.0
  0
VERTEX
  5
9F89
  8
0
 10
642.65117562687374
 20
369.49397307127379
 30
0.0
  0
VERTEX
  5
9F8A
  8
0
 10
642.56387470814525
 20
369.49511617600211
 30
0.0
  0
VERTEX
  5
9F8B
  8
0
 10
642.47653101645255
 20
369.49797744665682
 30
0.0
  0
VERTEX
  5
9F8C
  8
0
 10
642.38920073013367
 20
369.50255923245118
 30
0.0
  0
VERTEX
  5
9F8D
  8
0
 10
642.30193956068115
 20
369.50886150384241
 30
0.0
  0
VERTEX
  5
9F8E
  8
0
 10
642.21480251694402
 20
369.51688191541172
 30
0.0
  0
VERTEX
  5
9F8F
  8
0
 10
642.17129698159943
 20
369.52153513398241
 30
0.0
  0
VERTEX
  5
9F90
  8
0
 10
642.12783697288432
 20
369.5266167068429
 30
0.0
  0
VERTEX
  5
9F91
  8
0
 10
642.04107624180176
 20
369.53806235895792
 30
0.0
  0
VERTEX
  5
9F92
  8
0
 10
641.95457300730448
 20
369.55121157089422
 30
0.0
  0
VERTEX
  5
9F93
  8
0
 10
641.91143495393715
 20
369.55842203131061
 30
0.0
  0
VERTEX
  5
9F94
  8
0
 10
641.86838170141164
 20
369.56605450277073
 30
0.0
  0
VERTEX
  5
9F95
  8
0
 10
641.78255687102899
 20
369.58257889230151
 30
0.0
  0
VERTEX
  5
9F96
  8
0
 10
641.69715293605122
 20
369.60077005093842
 30
0.0
  0
VERTEX
  5
9F97
  8
0
 10
641.65462571727949
 20
369.61048541879552
 30
0.0
  0
VERTEX
  5
9F98
  8
0
 10
641.61222395180175
 20
369.62061088072898
 30
0.0
  0
VERTEX
  5
9F99
  8
0
 10
641.52782337557301
 20
369.64208191176641
 30
0.0
  0
VERTEX
  5
9F9A
  8
0
 10
641.44400383699531
 20
369.66516136025871
 30
0.0
  0
VERTEX
  5
9F9B
  8
0
 10
641.36081691196239
 20
369.68982520740587
 30
0.0
  0
VERTEX
  5
9F9C
  8
0
 10
641.27831289983567
 20
369.71604729942402
 30
0.0
  0
VERTEX
  5
9F9D
  8
0
 10
641.19654070322622
 20
369.74379943435753
 30
0.0
  0
VERTEX
  5
9F9E
  8
0
 10
641.15594411270774
 20
369.75823984388057
 30
0.0
  0
VERTEX
  5
9F9F
  8
0
 10
641.11554856743885
 20
369.77305113923592
 30
0.0
  0
VERTEX
  5
9FA0
  8
0
 10
641.03538468682609
 20
369.80376939637318
 30
0.0
  0
VERTEX
  5
9FA1
  8
0
 10
640.95609699682063
 20
369.83591861954778
 30
0.0
  0
VERTEX
  5
9FA2
  8
0
 10
640.87773290741177
 20
369.86946067346048
 30
0.0
  0
VERTEX
  5
9FA3
  8
0
 10
640.80033904677612
 20
369.90435491472209
 30
0.0
  0
VERTEX
  5
9FA4
  8
0
 10
640.72396101483298
 20
369.94055825394918
 30
0.0
  0
VERTEX
  5
9FA5
  8
0
 10
640.68616684494509
 20
369.95913672103939
 30
0.0
  0
VERTEX
  5
9FA6
  8
0
 10
640.64864314635076
 20
369.97802523876931
 30
0.0
  0
VERTEX
  5
9FA7
  8
0
 10
640.57442828312048
 20
370.01670815776271
 30
0.0
  0
VERTEX
  5
9FA8
  8
0
 10
640.50135755461133
 20
370.05655716561819
 30
0.0
  0
VERTEX
  5
9FA9
  8
0
 10
640.46526357341997
 20
370.07690282842287
 30
0.0
  0
SEQEND
  5
9FAA
  8
0
  0
POLYLINE
  5
8A9C
  8
0
 66
     1
 10
0.0
 20
0.0
 30
0.0
  0
VERTEX
  5
9FAB
  8
0
 10
702.11015668505888
 20
486.05478512265631
 30
0.0
  0
VERTEX
  5
9FAC
  8
0
 10
702.11037279868549
 20
486.098613918078
 30
0.0
  0
VERTEX
  5
9FAD
  8
0
 10
702.11210304447695
 20
486.18630388286903
 30
0.0
  0
VERTEX
  5
9FAE
  8
0
 10
702.11556544055611
 20
486.27398496755882
 30
0.0
  0
VERTEX
  5
9FAF
  8
0
 10
702.11794606162084
 20
486.31780266653118
 30
0.0
  0
VERTEX
  5
9FB0
  8
0
 10
702.12075919857125
 20
486.36159475623867
 30
0.0
  0
VERTEX
  5
9FB1
  8
0
 10
702.12768142532047
 20
486.44907987594689
 30
0.0
  0
VERTEX
  5
9FB2
  8
0
 10
702.13632821270949
 20
486.53639788461282
 30
0.0
  0
VERTEX
  5
9FB3
  8
0
 10
702.14669199000537
 20
486.62348841760308
 30
0.0
  0
VERTEX
  5
9FB4
  8
0
 10
702.15876223077385
 20
486.71029011589991
 30
0.0
  0
VERTEX
  5
9FB5
  8
0
 10
702.17252546827012
 20
486.79674153578321
 30
0.0
  0
VERTEX
  5
9FB6
  8
0
 10
702.18003694748995
 20
486.83981673807028
 30
0.0
  0
VERTEX
  5
9FB7
  8
0
 10
702.18796529365818
 20
486.88278143717957
 30
0.0
  0
VERTEX
  5
9FB8
  8
0
 10
702.20506237925019
 20
486.96834906666868
 30
0.0
  0
VERTEX
  5
9FB9
  8
0
 10
702.22379452665189
 20
487.05338443592092
 30
0.0
  0
VERTEX
  5
9FBA
  8
0
 10
702.24413673993058
 20
487.1378285963799
 30
0.0
  0
VERTEX
  5
9FBB
  8
0
 10
702.26606132420011
 20
487.2216239110428
 30
0.0
  0
VERTEX
  5
9FBC
  8
0
 10
702.2895379775
 20
487.30471421231528
 30
0.0
  0
VERTEX
  5
9FBD
  8
0
 10
702.3018481041081
 20
487.34597764305983
 30
0.0
  0
VERTEX
  5
9FBE
  8
0
 10
702.31453359741363
 20
487.38704401006203
 30
0.0
  0
VERTEX
  5
9FBF
  8
0
 10
702.34101202955344
 20
487.46855784715473
 30
0.0
  0
VERTEX
  5
9FC0
  8
0
 10
702.36893404310604
 20
487.54920054736323
 30
0.0
  0
VERTEX
  5
9FC1
  8
0
 10
702.38342329670468
 20
487.58917813193398
 30
0.0
  0
VERTEX
  5
9FC2
  8
0
 10
702.39825735180102
 20
487.6289175253803
 30
0.0
  0
VERTEX
  5
9FC3
  8
0
 10
702.42893666051441
 20
487.70765508398858
 30
0.0
  0
VERTEX
  5
9FC4
  8
0
 10
702.46092373700685
 20
487.78536069913861
 30
0.0
  0
VERTEX
  5
9FC5
  8
0
 10
702.47739183576232
 20
487.8238105025714
 30
0.0
  0
VERTEX
  5
9FC6
  8
0
 10
702.49416750862702
 20
487.86198329391692
 30
0.0
  0
VERTEX
  5
9FC7
  8
0
 10
702.52861418416114
 20
487.9374735025238
 30
0.0
  0
VERTEX
  5
9FC8
  8
0
 10
702.56424208562521
 20
488.01185464638121
 30
0.0
  0
VERTEX
  5
9FC9
  8
0
 10
702.60137226162533
 20
488.08581144890758
 30
0.0
  0
VERTEX
  5
9FCA
  8
0
 10
702.64009460270063
 20
488.15947632836082
 30
0.0
  0
VERTEX
  5
9FCB
  8
0
 10
702.68040434862314
 20
488.23278551814951
 30
0.0
  0
VERTEX
  5
9FCC
  8
0
 10
702.70115230351303
 20
488.2692870001049
 30
0.0
  0
VERTEX
  5
9FCD
  8
0
 10
702.72229416224809
 20
488.30567599706069
 30
0.0
  0
VERTEX
  5
9FCE
  8
0
 10
702.76575423245959
 20
488.37808570814133
 30
0.0
  0
VERTEX
  5
9FCF
  8
0
 10
702.81077239517754
 20
488.44995376552629
 30
0.0
  0
VERTEX
  5
9FD0
  8
0
 10
702.85733427274772
 20
488.52122064982711
 30
0.0
  0
VERTEX
  5
9FD1
  8
0
 10
702.9054234321261
 20
488.59182839243232
 30
0.0
  0
VERTEX
  5
9FD2
  8
0
 10
702.95502156229111
 20
488.66172074883917
 30
0.0
  0
VERTEX
  5
9FD3
  8
0
 10
702.98038030381304
 20
488.69638159239798
 30
0.0
  0
VERTEX
  5
9FD4
  8
0
 10
703.0061086713589
 20
488.73084336085748
 30
0.0
  0
VERTEX
  5
9FD5
  8
0
 10
703.05866328305626
 20
488.79914388082381
 30
0.0
  0
VERTEX
  5
9FD6
  8
0
 10
703.11266221766891
 20
488.86657155603848
 30
0.0
  0
VERTEX
  5
9FD7
  8
0
 10
703.1680800592361
 20
488.93307653604478
 30
0.0
  0
VERTEX
  5
9FD8
  8
0
 10
703.22488915674137
 20
488.99860994730147
 30
0.0
  0
VERTEX
  5
9FD9
  8
0
 10
703.28305974293789
 20
489.06312409553522
 30
0.0
  0
VERTEX
  5
9FDA
  8
0
 10
703.31264574581235
 20
489.09498441051687
 30
0.0
  0
VERTEX
  5
9FDB
  8
0
 10
703.34256006734131
 20
489.12657265351419
 30
0.0
  0
VERTEX
  5
9FDC
  8
0
 10
703.40335654341061
 20
489.18891083461699
 30
0.0
  0
VERTEX
  5
9FDD
  8
0
 10
703.46541391008896
 20
489.25009555251449
 30
0.0
  0
VERTEX
  5
9FDE
  8
0
 10
703.528695407942
 20
489.31008556715813
 30
0.0
  0
VERTEX
  5
9FDF
  8
0
 10
703.59316297021041
 20
489.3688416171106
 30
0.0
  0
VERTEX
  5
9FE0
  8
0
 10
703.65877759560135
 20
489.42632668109098
 30
0.0
  0
VERTEX
  5
9FE1
  8
0
 10
703.69200641916939
 20
489.45458481442051
 30
0.0
  0
VERTEX
  5
9FE2
  8
0
 10
703.72551225206496
 20
489.48251652160047
 30
0.0
  0
VERTEX
  5
9FE3
  8
0
 10
703.7933342538654
 20
489.53738352919919
 30
0.0
  0
VERTEX
  5
9FE4
  8
0
 10
703.86220097195417
 20
489.59089425719662
 30
0.0
  0
VERTEX
  5
9FE5
  8
0
 10
703.9320678835852
 20
489.6430166918006
 30
0.0
  0
VERTEX
  5
9FE6
  8
0
 10
704.00288872182307
 20
489.69372043511271
 30
0.0
  0
VERTEX
  5
9FE7
  8
0
 10
704.07461563679897
 20
489.74297687143081
 30
0.0
  0
VERTEX
  5
9FE8
  8
0
 10
704.11080352948102
 20
489.7670539316025
 30
0.0
  0
VERTEX
  5
9FE9
  8
0
 10
704.14719936872552
 20
489.79075931715431
 30
0.0
  0
VERTEX
  5
9FEA
  8
0
 10
704.22058943283264
 20
489.83704315451428
 30
0.0
  0
VERTEX
  5
9FEB
  8
0
 10
704.29473431650558
 20
489.88180594926081
 30
0.0
  0
VERTEX
  5
9FEC
  8
0
 10
704.3320734882841
 20
489.90361056735611
 30
0.0
  0
VERTEX
  5
9FED
  8
0
 10
704.36958168901845
 20
489.92502755233119
 30
0.0
  0
VERTEX
  5
9FEE
  8
0
 10
704.44507862141745
 20
489.96669018382931
 30
0.0
  0
VERTEX
  5
9FEF
  8
0
 10
704.52117149991489
 20
490.0067783363732
 30
0.0
  0
VERTEX
  5
9FF0
  8
0
 10
704.55942424906925
 20
490.026227635841
 30
0.0
  0
VERTEX
  5
9FF1
  8
0
 10
704.59780515288537
 20
490.0452783159401
 30
0.0
  0
VERTEX
  5
9FF2
  8
0
 10
704.67492263475958
 20
490.08217822193888
 30
0.0
  0
VERTEX
  5
9FF3
  8
0
 10
704.75246540321166
 20
490.11746813315239
 30
0.0
  0
VERTEX
  5
9FF4
  8
0
 10
704.83037351167332
 20
490.15114027591898
 30
0.0
  0
VERTEX
  5
9FF5
  8
0
 10
704.90858581047723
 20
490.18318917135161
 30
0.0
  0
VERTEX
  5
9FF6
  8
0
 10
704.98704015663088
 20
490.21361176199548
 30
0.0
  0
VERTEX
  5
9FF7
  8
0
 10
705.02633845978096
 20
490.22821292628282
 30
0.0
  0
VERTEX
  5
9FF8
  8
0
 10
705.06567363244676
 20
490.24240751827188
 30
0.0
  0
VERTEX
  5
9FF9
  8
0
 10
705.1444227735069
 20
490.26957852495138
 30
0.0
  0
VERTEX
  5
9FFA
  8
0
 10
705.22322380666401
 20
490.29512954781592
 30
0.0
  0
VERTEX
  5
9FFB
  8
0
 10
705.30238588608199
 20
490.31917762380982
 30
0.0
  0
VERTEX
  5
9FFC
  8
0
 10
705.38244701519761
 20
490.34187517910118
 30
0.0
  0
VERTEX
  5
9FFD
  8
0
 10
705.46336496521735
 20
490.36318274282871
 30
0.0
  0
VERTEX
  5
9FFE
  8
0
 10
705.50412932205427
 20
490.37330285464549
 30
0.0
  0
VERTEX
  5
9FFF
  8
0
 10
705.54508862251714
 20
490.38306086687481
 30
0.0
  0
VERTEX
  5
A000
  8
0
 10
705.62756574158254
 20
490.40147257510699
 30
0.0
  0
VERTEX
  5
A001
  8
0
 10
705.71074318400667
 20
490.41838342996812
 30
0.0
  0
VERTEX
  5
A002
  8
0
 10
705.79456716184347
 20
490.43376157700658
 30
0.0
  0
VERTEX
  5
A003
  8
0
 10
705.87898348592489
 20
490.44757776736861
 30
0.0
  0
VERTEX
  5
A004
  8
0
 10
705.96393781960114
 20
490.45980535803409
 30
0.0
  0
VERTEX
  5
A005
  8
0
 10
706.00659978323336
 20
490.46531581002711
 30
0.0
  0
VERTEX
  5
A006
  8
0
 10
706.04937593817647
 20
490.470420289402
 30
0.0
  0
VERTEX
  5
A007
  8
0
 10
706.13524399323376
 20
490.47940103954789
 30
0.0
  0
VERTEX
  5
A008
  8
0
 10
706.22148851785266
 20
490.48672853471749
 30
0.0
  0
VERTEX
  5
A009
  8
0
 10
706.30805546607144
 20
490.49238601228058
 30
0.0
  0
VERTEX
  5
A00A
  8
0
 10
706.3948898593984
 20
490.49635902499699
 30
0.0
  0
VERTEX
  5
A00B
  8
0
 10
706.48193600716604
 20
490.4986355026474
 30
0.0
  0
VERTEX
  5
A00C
  8
0
 10
706.52552094916734
 20
490.4991344296825
 30
0.0
  0
VERTEX
  5
A00D
  8
0
 10
706.56913774324403
 20
490.49920579430892
 30
0.0
  0
VERTEX
  5
A00E
  8
0
 10
706.65643866197286
 20
490.49806268958059
 30
0.0
  0
VERTEX
  5
A00F
  8
0
 10
706.74378235366555
 20
490.495201418926
 30
0.0
  0
VERTEX
  5
A010
  8
0
 10
706.83111263998398
 20
490.49061963313147
 30
0.0
  0
VERTEX
  5
A011
  8
0
 10
706.91837380943662
 20
490.4843173617403
 30
0.0
  0
VERTEX
  5
A012
  8
0
 10
707.00551085317375
 20
490.47629695017099
 30
0.0
  0
VERTEX
  5
A013
  8
0
 10
707.04901638851879
 20
490.47164373160041
 30
0.0
  0
VERTEX
  5
A014
  8
0
 10
707.0924763972339
 20
490.4665621587398
 30
0.0
  0
VERTEX
  5
A015
  8
0
 10
707.17923712831589
 20
490.45511650662479
 30
0.0
  0
VERTEX
  5
A016
  8
0
 10
707.26574036281318
 20
490.44196729468848
 30
0.0
  0
VERTEX
  5
A017
  8
0
 10
707.30887841618051
 20
490.43475683427209
 30
0.0
  0
VERTEX
  5
A018
  8
0
 10
707.35193166870613
 20
490.42712436281198
 30
0.0
  0
VERTEX
  5
A019
  8
0
 10
707.43775649908866
 20
490.41059997328131
 30
0.0
  0
VERTEX
  5
A01A
  8
0
 10
707.52316043406654
 20
490.39240881464428
 30
0.0
  0
VERTEX
  5
A01B
  8
0
 10
707.56568765283873
 20
490.3826934467873
 30
0.0
  0
VERTEX
  5
A01C
  8
0
 10
707.60808941831601
 20
490.37256798485379
 30
0.0
  0
VERTEX
  5
A01D
  8
0
 10
707.69248999454464
 20
490.3510969538163
 30
0.0
  0
VERTEX
  5
A01E
  8
0
 10
707.77630953312234
 20
490.32801750532388
 30
0.0
  0
VERTEX
  5
A01F
  8
0
 10
707.85949645815526
 20
490.30335365817677
 30
0.0
  0
VERTEX
  5
A020
  8
0
 10
707.94200047028198
 20
490.27713156615869
 30
0.0
  0
VERTEX
  5
A021
  8
0
 10
708.02377266689155
 20
490.24937943122518
 30
0.0
  0
VERTEX
  5
A022
  8
0
 10
708.06436925741036
 20
490.23493902170208
 30
0.0
  0
VERTEX
  5
A023
  8
0
 10
708.10476480267926
 20
490.22012772634679
 30
0.0
  0
VERTEX
  5
A024
  8
0
 10
708.18492868329213
 20
490.18940946920952
 30
0.0
  0
VERTEX
  5
A025
  8
0
 10
708.26421637329713
 20
490.15726024603481
 30
0.0
  0
VERTEX
  5
A026
  8
0
 10
708.34258046270634
 20
490.12371819212223
 30
0.0
  0
VERTEX
  5
A027
  8
0
 10
708.41997432334165
 20
490.08882395086061
 30
0.0
  0
VERTEX
  5
A028
  8
0
 10
708.49635235528501
 20
490.05262061163347
 30
0.0
  0
VERTEX
  5
A029
  8
0
 10
708.53414652517256
 20
490.03404214454332
 30
0.0
  0
VERTEX
  5
A02A
  8
0
 10
708.57167022376734
 20
490.01515362681289
 30
0.0
  0
VERTEX
  5
A02B
  8
0
 10
708.64588508699762
 20
489.97647070782
 30
0.0
  0
VERTEX
  5
A02C
  8
0
 10
708.71895581550689
 20
489.93662169996452
 30
0.0
  0
VERTEX
  5
A02D
  8
0
 10
708.75504979669813
 20
489.91627603715989
 30
0.0
  0
SEQEND
  5
A02E
  8
0
  0
POLYLINE
  5
8A9E
  8
0
 66
     1
 10
0.0
 20
0.0
 30
0.0
  0
VERTEX
  5
A02F
  8
0
 10
708.75504979669813
 20
370.07690282842287
 30
0.0
  0
VERTEX
  5
A030
  8
0
 10
708.71895581550689
 20
370.05655716561819
 30
0.0
  0
VERTEX
  5
A031
  8
0
 10
708.64588508699717
 20
370.01670815776271
 30
0.0
  0
VERTEX
  5
A032
  8
0
 10
708.57167022376734
 20
369.97802523876931
 30
0.0
  0
VERTEX
  5
A033
  8
0
 10
708.53414652517256
 20
369.95913672103939
 30
0.0
  0
VERTEX
  5
A034
  8
0
 10
708.49635235528501
 20
369.94055825394918
 30
0.0
  0
VERTEX
  5
A035
  8
0
 10
708.41997432334165
 20
369.90435491472209
 30
0.0
  0
VERTEX
  5
A036
  8
0
 10
708.34258046270588
 20
369.86946067346048
 30
0.0
  0
VERTEX
  5
A037
  8
0
 10
708.26421637329713
 20
369.83591861954778
 30
0.0
  0
VERTEX
  5
A038
  8
0
 10
708.18492868329156
 20
369.80376939637318
 30
0.0
  0
VERTEX
  5
A039
  8
0
 10
708.10476480267926
 20
369.77305113923592
 30
0.0
  0
VERTEX
  5
A03A
  8
0
 10
708.06436925741036
 20
369.75823984388057
 30
0.0
  0
VERTEX
  5
A03B
  8
0
 10
708.02377266689155
 20
369.74379943435753
 30
0.0
  0
VERTEX
  5
A03C
  8
0
 10
707.94200047028198
 20
369.71604729942402
 30
0.0
  0
VERTEX
  5
A03D
  8
0
 10
707.85949645815526
 20
369.68982520740587
 30
0.0
  0
VERTEX
  5
A03E
  8
0
 10
707.77630953312234
 20
369.66516136025871
 30
0.0
  0
VERTEX
  5
A03F
  8
0
 10
707.69248999454464
 20
369.64208191176641
 30
0.0
  0
VERTEX
  5
A040
  8
0
 10
707.60808941831601
 20
369.62061088072898
 30
0.0
  0
VERTEX
  5
A041
  8
0
 10
707.56568765283816
 20
369.61048541879552
 30
0.0
  0
VERTEX
  5
A042
  8
0
 10
707.52316043406654
 20
369.60077005093842
 30
0.0
  0
VERTEX
  5
A043
  8
0
 10
707.43775649908866
 20
369.58257889230151
 30
0.0
  0
VERTEX
  5
A044
  8
0
 10
707.35193166870613
 20
369.56605450277073
 30
0.0
  0
VERTEX
  5
A045
  8
0
 10
707.30887841618051
 20
369.55842203131061
 30
0.0
  0
VERTEX
  5
A046
  8
0
 10
707.26574036281318
 20
369.55121157089422
 30
0.0
  0
VERTEX
  5
A047
  8
0
 10
707.17923712831589
 20
369.53806235895792
 30
0.0
  0
VERTEX
  5
A048
  8
0
 10
707.0924763972339
 20
369.5266167068429
 30
0.0
  0
VERTEX
  5
A049
  8
0
 10
707.04901638851879
 20
369.52153513398241
 30
0.0
  0
VERTEX
  5
A04A
  8
0
 10
707.00551085317375
 20
369.51688191541172
 30
0.0
  0
VERTEX
  5
A04B
  8
0
 10
706.91837380943662
 20
369.50886150384241
 30
0.0
  0
VERTEX
  5
A04C
  8
0
 10
706.83111263998398
 20
369.50255923245118
 30
0.0
  0
VERTEX
  5
A04D
  8
0
 10
706.74378235366555
 20
369.49797744665682
 30
0.0
  0
VERTEX
  5
A04E
  8
0
 10
706.65643866197286
 20
369.49511617600211
 30
0.0
  0
VERTEX
  5
A04F
  8
0
 10
706.56913774324403
 20
369.49397307127379
 30
0.0
  0
VERTEX
  5
A050
  8
0
 10
706.52552094916734
 20
369.49404443590021
 30
0.0
  0
VERTEX
  5
A051
  8
0
 10
706.48193600716604
 20
369.4945433629353
 30
0.0
  0
VERTEX
  5
A052
  8
0
 10
706.3948898593984
 20
369.49681984058572
 30
0.0
  0
VERTEX
  5
A053
  8
0
 10
706.30805546607144
 20
369.50079285330207
 30
0.0
  0
VERTEX
  5
A054
  8
0
 10
706.22148851785266
 20
369.50645033086522
 30
0.0
  0
VERTEX
  5
A055
  8
0
 10
706.13524399323376
 20
369.51377782603493
 30
0.0
  0
VERTEX
  5
A056
  8
0
 10
706.04937593817647
 20
369.52275857618071
 30
0.0
  0
VERTEX
  5
A057
  8
0
 10
706.00659978323336
 20
369.52786305555571
 30
0.0
  0
VERTEX
  5
A058
  8
0
 10
705.96393781960114
 20
369.53337350754862
 30
0.0
  0
VERTEX
  5
A059
  8
0
 10
705.87898348592489
 20
369.54560109821409
 30
0.0
  0
VERTEX
  5
A05A
  8
0
 10
705.79456716184347
 20
369.55941728857613
 30
0.0
  0
VERTEX
  5
A05B
  8
0
 10
705.71074318400667
 20
369.57479543561459
 30
0.0
  0
VERTEX
  5
A05C
  8
0
 10
705.6275657415822
 20
369.59170629047583
 30
0.0
  0
VERTEX
  5
A05D
  8
0
 10
705.54508862251714
 20
369.61011799870789
 30
0.0
  0
VERTEX
  5
A05E
  8
0
 10
705.50412932205427
 20
369.61987601093722
 30
0.0
  0
VERTEX
  5
A05F
  8
0
 10
705.46336496521735
 20
369.62999612275399
 30
0.0
  0
VERTEX
  5
A060
  8
0
 10
705.38244701519761
 20
369.65130368648153
 30
0.0
  0
VERTEX
  5
A061
  8
0
 10
705.30238588608199
 20
369.674001241773
 30
0.0
  0
VERTEX
  5
A062
  8
0
 10
705.22322380666401
 20
369.6980493177669
 30
0.0
  0
VERTEX
  5
A063
  8
0
 10
705.1444227735069
 20
369.72360034063132
 30
0.0
  0
VERTEX
  5
A064
  8
0
 10
705.06567363244676
 20
369.75077134731077
 30
0.0
  0
VERTEX
  5
A065
  8
0
 10
705.02633845978096
 20
369.76496593929988
 30
0.0
  0
VERTEX
  5
A066
  8
0
 10
704.98704015663088
 20
369.77956710358723
 30
0.0
  0
VERTEX
  5
A067
  8
0
 10
704.90858581047723
 20
369.80998969423109
 30
0.0
  0
VERTEX
  5
A068
  8
0
 10
704.83037351167332
 20
369.84203858966367
 30
0.0
  0
VERTEX
  5
A069
  8
0
 10
704.75246540321166
 20
369.87571073243032
 30
0.0
  0
VERTEX
  5
A06A
  8
0
 10
704.67492263475958
 20
369.91100064364377
 30
0.0
  0
VERTEX
  5
A06B
  8
0
 10
704.59780515288537
 20
369.94790054964261
 30
0.0
  0
VERTEX
  5
A06C
  8
0
 10
704.55942424906925
 20
369.96695122974171
 30
0.0
  0
VERTEX
  5
A06D
  8
0
 10
704.52117149991489
 20
369.9864005292095
 30
0.0
  0
VERTEX
  5
A06E
  8
0
 10
704.44507862141745
 20
370.02648868175339
 30
0.0
  0
VERTEX
  5
A06F
  8
0
 10
704.36958168901845
 20
370.06815131325158
 30
0.0
  0
VERTEX
  5
A070
  8
0
 10
704.3320734882841
 20
370.08956829822671
 30
0.0
  0
VERTEX
  5
A071
  8
0
 10
704.29473431650558
 20
370.1113729163219
 30
0.0
  0
VERTEX
  5
A072
  8
0
 10
704.22058943283264
 20
370.15613571106837
 30
0.0
  0
VERTEX
  5
A073
  8
0
 10
704.14719936872552
 20
370.20241954842851
 30
0.0
  0
VERTEX
  5
A074
  8
0
 10
704.11080352948102
 20
370.2261249339802
 30
0.0
  0
VERTEX
  5
A075
  8
0
 10
704.07461563679897
 20
370.25020199415189
 30
0.0
  0
VERTEX
  5
A076
  8
0
 10
704.00288872182307
 20
370.29945843047
 30
0.0
  0
VERTEX
  5
A077
  8
0
 10
703.9320678835852
 20
370.35016217378222
 30
0.0
  0
VERTEX
  5
A078
  8
0
 10
703.86220097195417
 20
370.40228460838608
 30
0.0
  0
VERTEX
  5
A079
  8
0
 10
703.79333425386494
 20
370.45579533638357
 30
0.0
  0
VERTEX
  5
A07A
  8
0
 10
703.72551225206496
 20
370.51066234398218
 30
0.0
  0
VERTEX
  5
A07B
  8
0
 10
703.69200641916939
 20
370.53859405116219
 30
0.0
  0
VERTEX
  5
A07C
  8
0
 10
703.65877759560135
 20
370.56685218449212
 30
0.0
  0
VERTEX
  5
A07D
  8
0
 10
703.59316297021041
 20
370.6243372484721
 30
0.0
  0
VERTEX
  5
A07E
  8
0
 10
703.528695407942
 20
370.68309329842469
 30
0.0
  0
VERTEX
  5
A07F
  8
0
 10
703.46541391008896
 20
370.74308331306821
 30
0.0
  0
VERTEX
  5
A080
  8
0
 10
703.40335654341061
 20
370.80426803096572
 30
0.0
  0
VERTEX
  5
A081
  8
0
 10
703.34256006734086
 20
370.86660621206858
 30
0.0
  0
VERTEX
  5
A082
  8
0
 10
703.31264574581235
 20
370.89819445506578
 30
0.0
  0
VERTEX
  5
A083
  8
0
 10
703.28305974293789
 20
370.93005477004749
 30
0.0
  0
VERTEX
  5
A084
  8
0
 10
703.22488915674137
 20
370.99456891828117
 30
0.0
  0
VERTEX
  5
A085
  8
0
 10
703.1680800592361
 20
371.06010232953781
 30
0.0
  0
VERTEX
  5
A086
  8
0
 10
703.11266221766891
 20
371.12660730954423
 30
0.0
  0
VERTEX
  5
A087
  8
0
 10
703.05866328305626
 20
371.19403498475901
 30
0.0
  0
VERTEX
  5
A088
  8
0
 10
703.0061086713589
 20
371.26233550472517
 30
0.0
  0
VERTEX
  5
A089
  8
0
 10
702.98038030381258
 20
371.29679727318472
 30
0.0
  0
VERTEX
  5
A08A
  8
0
 10
702.95502156229111
 20
371.33145811674359
 30
0.0
  0
VERTEX
  5
A08B
  8
0
 10
702.9054234321261
 20
371.4013504731505
 30
0.0
  0
VERTEX
  5
A08C
  8
0
 10
702.85733427274772
 20
371.47195821575571
 30
0.0
  0
VERTEX
  5
A08D
  8
0
 10
702.81077239517754
 20
371.54322510005642
 30
0.0
  0
VERTEX
  5
A08E
  8
0
 10
702.76575423245959
 20
371.61509315744138
 30
0.0
  0
VERTEX
  5
A08F
  8
0
 10
702.72229416224809
 20
371.68750286852202
 30
0.0
  0
VERTEX
  5
A090
  8
0
 10
702.70115230351303
 20
371.72389186547781
 30
0.0
  0
VERTEX
  5
A091
  8
0
 10
702.68040434862314
 20
371.76039334743319
 30
0.0
  0
VERTEX
  5
A092
  8
0
 10
702.64009460270063
 20
371.83370253722188
 30
0.0
  0
VERTEX
  5
A093
  8
0
 10
702.60137226162533
 20
371.90736741667507
 30
0.0
  0
VERTEX
  5
A094
  8
0
 10
702.56424208562521
 20
371.98132421920161
 30
0.0
  0
VERTEX
  5
A095
  8
0
 10
702.52861418416114
 20
372.05570536305902
 30
0.0
  0
VERTEX
  5
A096
  8
0
 10
702.49416750862702
 20
372.13119557166578
 30
0.0
  0
VERTEX
  5
A097
  8
0
 10
702.47739183576232
 20
372.1693683630113
 30
0.0
  0
VERTEX
  5
A098
  8
0
 10
702.46092373700685
 20
372.2078181664441
 30
0.0
  0
VERTEX
  5
A099
  8
0
 10
702.42893666051441
 20
372.28552378159458
 30
0.0
  0
VERTEX
  5
A09A
  8
0
 10
702.39825735180102
 20
372.3642613402024
 30
0.0
  0
VERTEX
  5
A09B
  8
0
 10
702.38342329670468
 20
372.40400073364867
 30
0.0
  0
VERTEX
  5
A09C
  8
0
 10
702.36893404310604
 20
372.44397831821948
 30
0.0
  0
VERTEX
  5
A09D
  8
0
 10
702.34101202955344
 20
372.52462101842798
 30
0.0
  0
VERTEX
  5
A09E
  8
0
 10
702.31453359741363
 20
372.60613485552068
 30
0.0
  0
VERTEX
  5
A09F
  8
0
 10
702.3018481041081
 20
372.64720122252339
 30
0.0
  0
VERTEX
  5
A0A0
  8
0
 10
702.2895379775
 20
372.68846465326749
 30
0.0
  0
VERTEX
  5
A0A1
  8
0
 10
702.26606132420011
 20
372.77155495453991
 30
0.0
  0
VERTEX
  5
A0A2
  8
0
 10
702.24413673993058
 20
372.8553502692028
 30
0.0
  0
VERTEX
  5
A0A3
  8
0
 10
702.22379452665189
 20
372.93979442966179
 30
0.0
  0
VERTEX
  5
A0A4
  8
0
 10
702.20506237925019
 20
373.02482979891403
 30
0.0
  0
VERTEX
  5
A0A5
  8
0
 10
702.18796529365818
 20
373.11039742840308
 30
0.0
  0
VERTEX
  5
A0A6
  8
0
 10
702.18003694748995
 20
373.15336212751242
 30
0.0
  0
VERTEX
  5
A0A7
  8
0
 10
702.17252546827012
 20
373.19643732979949
 30
0.0
  0
VERTEX
  5
A0A8
  8
0
 10
702.15876223077385
 20
373.2828887496828
 30
0.0
  0
VERTEX
  5
A0A9
  8
0
 10
702.14669199000537
 20
373.36969044797962
 30
0.0
  0
VERTEX
  5
A0AA
  8
0
 10
702.13632821270949
 20
373.45678098097028
 30
0.0
  0
VERTEX
  5
A0AB
  8
0
 10
702.12768142532047
 20
373.54409898963593
 30
0.0
  0
VERTEX
  5
A0AC
  8
0
 10
702.12075919857125
 20
373.63158410934398
 30
0.0
  0
VERTEX
  5
A0AD
  8
0
 10
702.11794606162084
 20
373.67537619905153
 30
0.0
  0
VERTEX
  5
A0AE
  8
0
 10
702.11556544055611
 20
373.71919389802389
 30
0.0
  0
VERTEX
  5
A0AF
  8
0
 10
702.11210304447695
 20
373.80687498271368
 30
0.0
  0
VERTEX
  5
A0B0
  8
0
 10
702.11037279868549
 20
373.89456494750482
 30
0.0
  0
VERTEX
  5
A0B1
  8
0
 10
702.11015668505888
 20
373.93839374292691
 30
0.0
  0
SEQEND
  5
A0B2
  8
0
  0
ARC
  5
8A9F
  8
0
 10
674.61015668505888
 20
429.99658943279138
 30
0.0
 40
68.965517241379345
 50
299.6764073220503
 51
60.323592677949691
  0
ARC
  5
8AA0
  8
0
 10
674.61015668505888
 20
429.99658943279138
 30
0.0
 40
74.897675240457005
 50
94.134995587976647
 51
85.865004412023339
  0
LINE
  5
8AA2
  8
1
 10
674.61015668505888
 20
314.47838240349108
 30
0.0
 11
674.61015668505888
 21
545.51479646209157
 31
0.0
  0
LINE
  5
8AA3
  8
1
 10
790.12836371435924
 20
429.99658943279138
 30
0.0
 11
559.09194965575853
 21
429.99658943279138
 31
0.0
  0
LINE
  5
8AB0
  8
1
 10
921.18211812961715
 20
513.99658943279132
 30
0.0
 11
884.51317807583291
 21
513.99658943279132
 31
0.0
  0
LINE
  5
8AB1
  8
0
 10
960.83138510513345
 20
414.99658943279132
 30
0.0
 11
961.03138510513372
 21
414.99658943279132
 31
0.0
  0
LINE
  5
8AB2
  8
0
 10
961.03138510513372
 20
444.99658943279132
 30
0.0
 11
960.83138510513345
 21
444.99658943279132
 31
0.0
  0
ARC
  5
8AB3
  8
0
 10
960.33138510513345
 20
453.74658943279138
 30
0.0
 40
0.5000000000000061
 50
0.0
 51
90.0
  0
ARC
  5
8AB4
  8
0
 10
960.33138510513345
 20
406.24658943279132
 30
0.0
 40
0.4999999999999965
 50
270.0
 51
0.0
  0
LINE
  5
8AB5
  8
0
 10
955.03138510513372
 20
405.74658943279132
 30
0.0
 11
960.33138510513345
 21
405.74658943279132
 31
0.0
  0
LINE
  5
8AB6
  8
0
 10
960.33138510513345
 20
454.24658943279132
 30
0.0
 11
955.03138510513372
 21
454.24658943279132
 31
0.0
  0
LINE
  5
8AB7
  8
0
 10
928.03138510513315
 20
359.6262190624206
 30
0.0
 11
955.03138510513372
 21
405.74658943279132
 31
0.0
  0
LINE
  5
8AB8
  8
0
 10
955.03138510513372
 20
454.24658943279132
 30
0.0
 11
928.03138510513372
 21
500.36695980316188
 31
0.0
  0
ARC
  5
8AB9
  8
0
 10
918.69805177179978
 20
520.66325609945784
 30
0.0
 40
9.3333333333333286
 50
0.0
 51
90.0
  0
ARC
  5
8ABA
  8
0
 10
918.69805177180012
 20
339.32992276612492
 30
0.0
 40
9.3333333333333144
 50
270.0
 51
0.0
  0
LINE
  5
8ABB
  8
0
 10
913.05098837091407
 20
329.99658943279138
 30
0.0
 11
918.69805177180012
 21
329.99658943279138
 31
0.0
  0
LINE
  5
8ABC
  8
0
 10
918.69805177179978
 20
529.99658943279132
 30
0.0
 11
913.05098837091373
 21
529.99658943279132
 31
0.0
  0
ARC
  5
8ABD
  8
0
 10
913.05098837091407
 20
501.99658943279047
 30
0.0
 40
28.000000000001108
 50
90.0
 51
104.9999999999944
  0
ARC
  5
8ABE
  8
0
 10
913.05098837091407
 20
357.99658943279093
 30
0.0
 40
27.999999999999659
 50
255.00000000000551
 51
270.0
  0
LINE
  5
8ABF
  8
0
 10
902.10669177884665
 20
331.9413718148802
 30
0.0
 11
905.80405510804337
 21
330.9506662966977
 31
0.0
  0
LINE
  5
8AC0
  8
0
 10
905.80405510804314
 20
529.04251256888494
 30
0.0
 11
902.10669177884608
 21
528.05180705070245
 31
0.0
  0
ARC
  5
8AC1
  8
0
 10
902.83138510513288
 20
525.34721473709283
 30
0.0
 40
2.800000000000014
 50
104.9999999999944
 51
180.0
  0
ARC
  5
8AC2
  8
0
 10
902.83138510513345
 20
334.64596412848988
 30
0.0
 40
2.8000000000000251
 50
180.0
 51
255.00000000000551
  0
LINE
  5
8AC3
  8
0
 10
961.03138510513372
 20
444.99658943279132
 30
0.0
 11
961.03138510513372
 21
414.99658943279132
 31
0.0
  0
LINE
  5
8AC4
  8
0
 10
960.83138510513345
 20
453.74658943279138
 30
0.0
 11
960.83138510513345
 21
406.24658943279132
 31
0.0
  0
LINE
  5
8AC5
  8
0
 10
955.03138510513372
 20
454.24658943279132
 30
0.0
 11
955.03138510513372
 21
405.74658943279132
 31
0.0
  0
LINE
  5
8AC6
  8
0
 10
928.03138510513315
 20
520.66325609945829
 30
0.0
 11
928.03138510513315
 21
339.32992276612492
 31
0.0
  0
POLYLINE
  5
8AC7
  8
0
 66
     1
 10
0.0
 20
0.0
 30
0.0
  0
VERTEX
  5
A0B3
  8
0
 10
928.03138510513315
 20
494.99898116604197
 30
0.0
  0
VERTEX
  5
A0B4
  8
0
 10
935.43264721890716
 20
479.54047128007801
 30
0.0
  0
VERTEX
  5
A0B5
  8
0
 10
940.20875081756765
 20
469.11785028390449
 30
0.0
  0
VERTEX
  5
A0B6
  8
0
 10
943.63373697214638
 20
461.04658130886918
 30
0.0
  0
VERTEX
  5
A0B7
  8
0
 10
944.98325990197407
 20
457.61968185821729
 30
0.0
  0
VERTEX
  5
A0B8
  8
0
 10
946.14123941220532
 20
454.50096291816197
 30
0.0
  0
VERTEX
  5
A0B9
  8
0
 10
947.98662846525258
 20
448.98062197974758
 30
0.0
  0
VERTEX
  5
A0BA
  8
0
 10
949.32753542176124
 20
444.16005969004328
 30
0.0
  0
VERTEX
  5
A0BB
  8
0
 10
950.26360248610024
 20
439.81323299426708
 30
0.0
  0
VERTEX
  5
A0BC
  8
0
 10
950.64871819934649
 20
437.42801833828872
 30
0.0
  0
VERTEX
  5
A0BD
  8
0
 10
950.73864909857275
 20
436.76162363915802
 30
0.0
  0
VERTEX
  5
A0BE
  8
0
 10
950.81994143857355
 20
436.10082754903829
 30
0.0
  0
VERTEX
  5
A0BF
  8
0
 10
950.85739103635569
 20
435.77234762662943
 30
0.0
  0
VERTEX
  5
A0C0
  8
0
 10
950.89273055470483
 20
435.44505154236208
 30
0.0
  0
VERTEX
  5
A0C1
  8
0
 10
950.95713670502084
 20
434.79373108155261
 30
0.0
  0
VERTEX
  5
A0C2
  8
0
 10
951.01326557431742
 20
434.14631393563991
 30
0.0
  0
VERTEX
  5
A0C3
  8
0
 10
951.06120871281655
 20
433.50225857119932
 30
0.0
  0
VERTEX
  5
A0C4
  8
0
 10
951.10104391293271
 20
432.86103260551067
 30
0.0
  0
VERTEX
  5
A0C5
  8
0
 10
951.1328355270407
 20
432.22211131244399
 30
0.0
  0
VERTEX
  5
A0C6
  8
0
 10
951.14573148985619
 20
431.90335267715022
 30
0.0
  0
VERTEX
  5
A0C7
  8
0
 10
951.15663472868482
 20
431.58497617212629
 30
0.0
  0
VERTEX
  5
A0C8
  8
0
 10
951.17247971922325
 20
430.94911345585319
 30
0.0
  0
VERTEX
  5
A0C9
  8
0
 10
951.18039588146667
 20
430.31401283807168
 30
0.0
  0
VERTEX
  5
A0CA
  8
0
 10
951.18138510513336
 20
429.99658943279138
 30
0.0
  0
VERTEX
  5
A0CB
  8
0
 10
951.18039588146667
 20
429.67916602751097
 30
0.0
  0
VERTEX
  5
A0CC
  8
0
 10
951.17247971922325
 20
429.04406540973002
 30
0.0
  0
VERTEX
  5
A0CD
  8
0
 10
951.15663472868482
 20
428.40820269345681
 30
0.0
  0
VERTEX
  5
A0CE
  8
0
 10
951.14573148985619
 20
428.08982618843288
 30
0.0
  0
VERTEX
  5
A0CF
  8
0
 10
951.1328355270407
 20
427.77106755313872
 30
0.0
  0
VERTEX
  5
A0D0
  8
0
 10
951.10104391293271
 20
427.13214626007249
 30
0.0
  0
VERTEX
  5
A0D1
  8
0
 10
951.06120871281655
 20
426.49092029438339
 30
0.0
  0
VERTEX
  5
A0D2
  8
0
 10
951.01326557431742
 20
425.84686492994319
 30
0.0
  0
VERTEX
  5
A0D3
  8
0
 10
950.95713670502084
 20
425.1994477840301
 30
0.0
  0
VERTEX
  5
A0D4
  8
0
 10
950.89273055470483
 20
424.54812732322063
 30
0.0
  0
VERTEX
  5
A0D5
  8
0
 10
950.85739103635569
 20
424.22083123895322
 30
0.0
  0
VERTEX
  5
A0D6
  8
0
 10
950.81994143857355
 20
423.89235131654442
 30
0.0
  0
VERTEX
  5
A0D7
  8
0
 10
950.73864909857275
 20
423.23155522642509
 30
0.0
  0
VERTEX
  5
A0D8
  8
0
 10
950.64871819934649
 20
422.56516052729398
 30
0.0
  0
VERTEX
  5
A0D9
  8
0
 10
950.26360248610024
 20
420.17994587131562
 30
0.0
  0
VERTEX
  5
A0DA
  8
0
 10
949.32753542176124
 20
415.83311917553988
 30
0.0
  0
VERTEX
  5
A0DB
  8
0
 10
947.98662846525303
 20
411.01255688583501
 30
0.0
  0
VERTEX
  5
A0DC
  8
0
 10
946.14123941220532
 20
405.49221594742107
 30
0.0
  0
VERTEX
  5
A0DD
  8
0
 10
944.98325990197407
 20
402.37349700736542
 30
0.0
  0
VERTEX
  5
A0DE
  8
0
 10
943.63373697214638
 20
398.94659755671353
 30
0.0
  0
VERTEX
  5
A0DF
  8
0
 10
940.20875081756765
 20
390.87532858167822
 30
0.0
  0
VERTEX
  5
A0E0
  8
0
 10
935.43264721890716
 20
380.4527075855047
 30
0.0
  0
VERTEX
  5
A0E1
  8
0
 10
928.03138510513315
 20
364.99419769954193
 30
0.0
  0
SEQEND
  5
A0E2
  8
0
  0
LINE
  5
8AC8
  8
0
 10
900.03138510513315
 20
525.34721473709283
 30
0.0
 11
900.03138510513315
 21
334.64596412848988
 31
0.0
  0
LINE
  5
8AC9
  8
1
 10
880.81317807583298
 20
429.99658943279132
 30
0.0
 11
976.54959213443396
 21
429.99658943279138
 31
0.0
  0
LINE
  5
8AD9
  8
2
 10
666.61015668505877
 20
142.07498504238629
 30
0.0
 11
666.61015668505934
 21
108.0749850423863
 31
0.0
  0
LINE
  5
8ADA
  8
2
 10
682.61015668505888
 20
108.0749850423863
 30
0.0
 11
682.61015668505934
 21
142.07498504238629
 31
0.0
  0
LINE
  5
8ADB
  8
0
 10
659.61015668505877
 20
108.2749850423864
 30
0.0
 11
659.61015668505877
 21
108.0749850423863
 31
0.0
  0
LINE
  5
8ADC
  8
0
 10
689.61015668505888
 20
108.0749850423863
 30
0.0
 11
689.61015668505888
 21
108.2749850423864
 31
0.0
  0
ARC
  5
8ADD
  8
0
 10
698.36015668505877
 20
108.7749850423864
 30
0.0
 40
0.4999999999999956
 50
270.0
 51
0.0
  0
ARC
  5
8ADE
  8
0
 10
650.86015668505888
 20
108.7749850423864
 30
0.0
 40
0.4999999999999965
 50
180.0
 51
270.0
  0
LINE
  5
8ADF
  8
0
 10
650.36015668505888
 20
114.0749850423863
 30
0.0
 11
650.36015668505888
 21
108.7749850423864
 31
0.0
  0
LINE
  5
8AE0
  8
0
 10
698.86015668505877
 20
108.7749850423864
 30
0.0
 11
698.86015668505877
 21
114.0749850423863
 31
0.0
  0
LINE
  5
8AE1
  8
0
 10
605.48521182046568
 20
140.4024552692668
 30
0.0
 11
605.64463944367935
 21
140.3163643527314
 31
0.0
  0
LINE
  5
8AE2
  8
0
 10
743.57567392643841
 20
140.3163643527314
 30
0.0
 11
743.73510154965197
 21
140.4024552692668
 31
0.0
  0
ARC
  5
8AE3
  8
0
 10
746.39593547216725
 20
135.47498504238689
 30
0.0
 40
5.5999999999996923
 50
90.0
 51
118.3690462932698
  0
ARC
  5
8AE4
  8
0
 10
602.82437789795028
 20
135.47498504238689
 30
0.0
 40
5.5999999999996977
 50
61.630953706730203
 51
90.0
  0
ARC
  5
8AE5
  8
0
 10
765.2768233517254
 20
150.4083183757198
 30
0.0
 40
9.3333333333332842
 50
270.0
 51
0.0
  0
ARC
  5
8AE6
  8
0
 10
583.94349001839225
 20
150.4083183757198
 30
0.0
 40
9.3333333333333002
 50
180.0
 51
270.0
  0
LINE
  5
8AE7
  8
0
 10
574.61015668505888
 20
156.05538177660631
 30
0.0
 11
574.61015668505888
 21
150.40831837572
 31
0.0
  0
LINE
  5
8AE8
  8
0
 10
774.61015668505888
 20
150.40831837572
 30
0.0
 11
774.61015668505888
 21
156.05538177660631
 31
0.0
  0
ARC
  5
8AE9
  8
0
 10
746.61015668505934
 20
156.05538177660611
 30
0.0
 40
27.999999999999488
 50
0.0000008537736463
 51
14.99999999999438
  0
ARC
  5
8AEA
  8
0
 10
602.61015668505843
 20
156.05538177660611
 30
0.0
 40
27.999999999999581
 50
165.00000000000551
 51
180.0
  0
LINE
  5
8AEB
  8
0
 10
576.55493906714764
 20
166.99967836867361
 30
0.0
 11
575.56423354896515
 21
163.30231503947681
 31
0.0
  0
LINE
  5
8AEC
  8
0
 10
773.65607982115262
 20
163.30231503947681
 30
0.0
 11
772.66537430297012
 21
166.99967836867361
 31
0.0
  0
ARC
  5
8AED
  8
0
 10
769.96078198936027
 20
166.27498504238659
 30
0.0
 40
2.8000000000000611
 50
14.99999999999438
 51
90.0
  0
ARC
  5
8AEE
  8
0
 10
579.25953138075738
 20
166.27498504238659
 30
0.0
 40
2.800000000000046
 50
90.0
 51
165.00000000000551
  0
LINE
  5
8AEF
  8
0
 10
689.61015668505888
 20
108.0749850423863
 30
0.0
 11
659.61015668505877
 21
108.0749850423863
 31
0.0
  0
LINE
  5
8AF0
  8
2
 10
692.61015668505877
 20
145.07498504238629
 30
0.0
 11
656.61015668505888
 21
145.07498504238629
 31
0.0
  0
LINE
  5
8AF1
  8
0
 10
698.36015668505877
 20
108.2749850423864
 30
0.0
 11
650.86015668505888
 21
108.2749850423864
 31
0.0
  0
LINE
  5
8AF2
  8
0
 10
700.61015668505877
 20
114.0749850423863
 30
0.0
 11
648.61015668505888
 21
114.0749850423863
 31
0.0
  0
LINE
  5
8AF3
  8
0
 10
765.2768233517254
 20
141.0749850423866
 30
0.0
 11
583.94349001839225
 21
141.0749850423866
 31
0.0
  0
LINE
  5
8AF4
  8
0
 10
708.75504979669768
 20
140.3163643527314
 30
0.0
 11
743.57567392643784
 21
140.3163643527314
 31
0.0
  0
POLYLINE
  5
8AF5
  8
0
 66
     1
 10
0.0
 20
0.0
 30
0.0
  0
VERTEX
  5
A0E3
  8
0
 10
641.96526357342009
 20
140.3163643527314
 30
0.0
  0
VERTEX
  5
A0E4
  8
0
 10
642.00414336989388
 20
140.3162511858946
 30
0.0
  0
VERTEX
  5
A0E5
  8
0
 10
642.08284385546938
 20
140.31534088618631
 30
0.0
  0
VERTEX
  5
A0E6
  8
0
 10
642.16275640748006
 20
140.31350847547699
 30
0.0
  0
VERTEX
  5
A0E7
  8
0
 10
642.2031506501379
 20
140.31224307033949
 30
0.0
  0
VERTEX
  5
A0E8
  8
0
 10
642.24382773168225
 20
140.3107432637033
 30
0.0
  0
VERTEX
  5
A0E9
  8
0
 10
642.32600218411244
 20
140.3070362926772
 30
0.0
  0
VERTEX
  5
A0EA
  8
0
 10
642.40922215344972
 20
140.3023803389415
 30
0.0
  0
VERTEX
  5
A0EB
  8
0
 10
642.49342845881108
 20
140.29676989514181
 30
0.0
  0
VERTEX
  5
A0EC
  8
0
 10
642.57856076246935
 20
140.29020113004509
 30
0.0
  0
VERTEX
  5
A0ED
  8
0
 10
642.66455799678261
 20
140.28267182728629
 30
0.0
  0
VERTEX
  5
A0EE
  8
0
 10
642.70786178778053
 20
140.27854670336939
 30
0.0
  0
VERTEX
  5
A0EF
  8
0
 10
642.75135880435607
 20
140.27418130287589
 30
0.0
  0
VERTEX
  5
A0F0
  8
0
 10
642.83890198529662
 20
140.264730302039
 30
0.0
  0
VERTEX
  5
A0F1
  8
0
 10
642.92712639297542
 20
140.2543209442413
 30
0.0
  0
VERTEX
  5
A0F2
  8
0
 10
643.01596939206217
 20
140.24295687277029
 30
0.0
  0
VERTEX
  5
A0F3
  8
0
 10
643.10536650554241
 20
140.23064333198911
 30
0.0
  0
VERTEX
  5
A0F4
  8
0
 10
643.19525178960475
 20
140.21738715859601
 30
0.0
  0
VERTEX
  5
A0F5
  8
0
 10
643.24035658281707
 20
140.2104081498392
 30
0.0
  0
VERTEX
  5
A0F6
  8
0
 10
643.28555822267663
 20
140.2031967528826
 30
0.0
  0
VERTEX
  5
A0F7
  8
0
 10
643.37621809463997
 20
140.18808203210389
 30
0.0
  0
VERTEX
  5
A0F8
  8
0
 10
643.46716339534214
 20
140.17205436666089
 30
0.0
  0
VERTEX
  5
A0F9
  8
0
 10
643.51272184155914
 20
140.16370211083071
 30
0.0
  0
VERTEX
  5
A0FA
  8
0
 10
643.55832620169804
 20
140.15512649969989
 30
0.0
  0
VERTEX
  5
A0FB
  8
0
 10
643.64963906278399
 20
140.13731245064059
 30
0.0
  0
VERTEX
  5
A0FC
  8
0
 10
643.74103695118129
 20
140.1186270750257
 30
0.0
  0
VERTEX
  5
A0FD
  8
0
 10
643.78675618946488
 20
140.10896075733331
 30
0.0
  0
VERTEX
  5
A0FE
  8
0
 10
643.83248131718699
 20
140.09908069378849
 30
0.0
  0
VERTEX
  5
A0FF
  8
0
 10
643.92391611754056
 20
140.07868787815309
 30
0.0
  0
VERTEX
  5
A100
  8
0
 10
644.01527451811569
 20
140.05746668160651
 30
0.0
  0
VERTEX
  5
A101
  8
0
 10
644.10648901655304
 20
140.0354366557261
 30
0.0
  0
VERTEX
  5
A102
  8
0
 10
644.19749182165788
 20
140.01261879563739
 30
0.0
  0
VERTEX
  5
A103
  8
0
 10
644.28821522116232
 20
139.9890354719185
 30
0.0
  0
VERTEX
  5
A104
  8
0
 10
644.33345109314985
 20
139.9769641084693
 30
0.0
  0
VERTEX
  5
A105
  8
0
 10
644.37859193767736
 20
139.96471034980331
 30
0.0
  0
VERTEX
  5
A106
  8
0
 10
644.46855547301539
 20
139.93966829635039
 30
0.0
  0
VERTEX
  5
A107
  8
0
 10
644.55804044135675
 20
139.91393527605541
 30
0.0
  0
VERTEX
  5
A108
  8
0
 10
644.64698289187663
 20
139.8875382352374
 30
0.0
  0
VERTEX
  5
A109
  8
0
 10
644.73532040424152
 20
139.8605050428778
 30
0.0
  0
VERTEX
  5
A10A
  8
0
 10
644.82299094036989
 20
139.83286482752791
 30
0.0
  0
VERTEX
  5
A10B
  8
0
 10
644.86655662953444
 20
139.8188265982287
 30
0.0
  0
VERTEX
  5
A10C
  8
0
 10
644.90993221593362
 20
139.8046482103089
 30
0.0
  0
VERTEX
  5
A10D
  8
0
 10
644.99608203152366
 20
139.77588725162741
 30
0.0
  0
VERTEX
  5
A10E
  8
0
 10
645.08137863513912
 20
139.74661537207501
 30
0.0
  0
VERTEX
  5
A10F
  8
0
 10
645.16576106223647
 20
139.71686726438139
 30
0.0
  0
VERTEX
  5
A110
  8
0
 10
645.2491694542332
 20
139.6866787971924
 30
0.0
  0
VERTEX
  5
A111
  8
0
 10
645.33154535676249
 20
139.6560869111604
 30
0.0
  0
VERTEX
  5
A112
  8
0
 10
645.37232831062545
 20
139.6406514959022
 30
0.0
  0
VERTEX
  5
A113
  8
0
 10
645.41283199933059
 20
139.62512950756241
 30
0.0
  0
VERTEX
  5
A114
  8
0
 10
645.49297714350666
 20
139.59384430786289
 30
0.0
  0
VERTEX
  5
A115
  8
0
 10
645.57249750435903
 20
139.56204025126209
 30
0.0
  0
VERTEX
  5
A116
  8
0
 10
645.65177213658581
 20
139.52956277790761
 30
0.0
  0
VERTEX
  5
A117
  8
0
 10
645.73074633989199
 20
139.49642566406581
 30
0.0
  0
VERTEX
  5
A118
  8
0
 10
645.80936591228055
 20
139.4626435689579
 30
0.0
  0
VERTEX
  5
A119
  8
0
 10
645.84852595905841
 20
139.44551545684709
 30
0.0
  0
VERTEX
  5
A11A
  8
0
 10
645.8875773480944
 20
139.4282319572535
 30
0.0
  0
VERTEX
  5
A11B
  8
0
 10
645.96532802108095
 20
139.39320701903219
 30
0.0
  0
VERTEX
  5
A11C
  8
0
 10
646.04256635343336
 20
139.3575855872412
 30
0.0
  0
VERTEX
  5
A11D
  8
0
 10
646.11924197167855
 20
139.3213850526493
 30
0.0
  0
VERTEX
  5
A11E
  8
0
 10
646.19530585014945
 20
139.28462327627159
 30
0.0
  0
VERTEX
  5
A11F
  8
0
 10
646.27071044266495
 20
139.24731849922341
 30
0.0
  0
VERTEX
  5
A120
  8
0
 10
646.30815108290915
 20
139.22846826695471
 30
0.0
  0
VERTEX
  5
A121
  8
0
 10
646.34540980273823
 20
139.20948925004839
 30
0.0
  0
VERTEX
  5
A122
  8
0
 10
646.41935955448434
 20
139.17115432197011
 30
0.0
  0
VERTEX
  5
A123
  8
0
 10
646.49251625815896
 20
139.13233307705929
 30
0.0
  0
VERTEX
  5
A124
  8
0
 10
646.52878382399285
 20
139.1127463330379
 30
0.0
  0
VERTEX
  5
A125
  8
0
 10
646.56483715420018
 20
139.09304559055121
 30
0.0
  0
VERTEX
  5
A126
  8
0
 10
646.6362803140305
 20
139.05331258910959
 30
0.0
  0
VERTEX
  5
A127
  8
0
 10
646.70680479214195
 20
139.01315538057111
 30
0.0
  0
VERTEX
  5
A128
  8
0
 10
646.74171003340496
 20
138.99292449873451
 30
0.0
  0
VERTEX
  5
A129
  8
0
 10
646.77637076533074
 20
138.97259578266659
 30
0.0
  0
VERTEX
  5
A12A
  8
0
 10
646.84493965988065
 20
138.9316560506623
 30
0.0
  0
VERTEX
  5
A12B
  8
0
 10
646.91247426745031
 20
138.8903588038288
 30
0.0
  0
VERTEX
  5
A12C
  8
0
 10
646.97893885033409
 20
138.84872695060341
 30
0.0
  0
VERTEX
  5
A12D
  8
0
 10
647.04429923671751
 20
138.8067836122828
 30
0.0
  0
VERTEX
  5
A12E
  8
0
 10
647.10852360444505
 20
138.76455158040289
 30
0.0
  0
VERTEX
  5
A12F
  8
0
 10
647.14020357729805
 20
138.7433322277771
 30
0.0
  0
VERTEX
  5
A130
  8
0
 10
647.17159149199961
 20
138.722047082496
 30
0.0
  0
VERTEX
  5
A131
  8
0
 10
647.23347608242818
 20
138.67929130725861
 30
0.0
  0
VERTEX
  5
A132
  8
0
 10
647.29414788793474
 20
138.63630838290399
 30
0.0
  0
VERTEX
  5
A133
  8
0
 10
647.35357854399763
 20
138.5931229358917
 30
0.0
  0
VERTEX
  5
A134
  8
0
 10
647.41174093932148
 20
138.5497600215422
 30
0.0
  0
VERTEX
  5
A135
  8
0
 10
647.46860933431844
 20
138.50624505417801
 30
0.0
  0
VERTEX
  5
A136
  8
0
 10
647.49655063986347
 20
138.48443857342679
 30
0.0
  0
VERTEX
  5
A137
  8
0
 10
647.52415946880365
 20
138.4626037366445
 30
0.0
  0
VERTEX
  5
A138
  8
0
 10
647.57836865954175
 20
138.41886198902651
 30
0.0
  0
VERTEX
  5
A139
  8
0
 10
647.63121588821332
 20
138.37504587631929
 30
0.0
  0
VERTEX
  5
A13A
  8
0
 10
647.68268188031243
 20
138.33118153479069
 30
0.0
  0
VERTEX
  5
A13B
  8
0
 10
647.73274917479876
 20
138.28729509724991
 30
0.0
  0
VERTEX
  5
A13C
  8
0
 10
647.78140207769729
 20
138.24341271506341
 30
0.0
  0
VERTEX
  5
A13D
  8
0
 10
647.80519361709855
 20
138.22148130597321
 30
0.0
  0
VERTEX
  5
A13E
  8
0
 10
647.82862630419822
 20
138.19956088158261
 30
0.0
  0
VERTEX
  5
A13F
  8
0
 10
647.87440891963706
 20
138.1557665281457
 30
0.0
  0
VERTEX
  5
A140
  8
0
 10
647.91873847021805
 20
138.1120569503114
 30
0.0
  0
VERTEX
  5
A141
  8
0
 10
647.96160510567324
 20
138.06845973030141
 30
0.0
  0
VERTEX
  5
A142
  8
0
 10
648.00300068975037
 20
138.02500265960961
 30
0.0
  0
VERTEX
  5
A143
  8
0
 10
648.04291889914612
 20
137.98171366157251
 30
0.0
  0
VERTEX
  5
A144
  8
0
 10
648.06232252988502
 20
137.9601409327729
 30
0.0
  0
VERTEX
  5
A145
  8
0
 10
648.08135531140942
 20
137.93862071362989
 30
0.0
  0
VERTEX
  5
A146
  8
0
 10
648.11830748230068
 20
137.8957517689521
 30
0.0
  0
VERTEX
  5
A147
  8
0
 10
648.15377501298997
 20
137.85313467704719
 30
0.0
  0
VERTEX
  5
A148
  8
0
 10
648.18782979712432
 20
137.81070802500159
 30
0.0
  0
VERTEX
  5
A149
  8
0
 10
648.22081438491921
 20
137.76804230376729
 30
0.0
  0
VERTEX
  5
A14A
  8
0
 10
648.25273167741534
 20
137.72510264239031
 30
0.0
  0
VERTEX
  5
A14B
  8
0
 10
648.26827494653935
 20
137.70353955387279
 30
0.0
  0
VERTEX
  5
A14C
  8
0
 10
648.28353347616621
 20
137.68191936976231
 30
0.0
  0
VERTEX
  5
A14D
  8
0
 10
648.3131736347608
 20
137.638522995416
 30
0.0
  0
VERTEX
  5
A14E
  8
0
 10
648.34160812025902
 20
137.5949441246546
 30
0.0
  0
VERTEX
  5
A14F
  8
0
 10
648.35536006535222
 20
137.5730958226693
 30
0.0
  0
VERTEX
  5
A150
  8
0
 10
648.36879506147534
 20
137.5512133740574
 30
0.0
  0
VERTEX
  5
A151
  8
0
 10
648.39469478439651
 20
137.50736128688919
 30
0.0
  0
VERTEX
  5
A152
  8
0
 10
648.41926983478425
 20
137.46341824801701
 30
0.0
  0
VERTEX
  5
A153
  8
0
 10
648.43104951294197
 20
137.44142205253439
 30
0.0
  0
VERTEX
  5
A154
  8
0
 10
648.4424849878169
 20
137.41941439802031
 30
0.0
  0
VERTEX
  5
A155
  8
0
 10
648.46430724432184
 20
137.37537954646771
 30
0.0
  0
VERTEX
  5
A156
  8
0
 10
648.48470577635715
 20
137.33134316643779
 30
0.0
  0
VERTEX
  5
A157
  8
0
 10
648.50365173679836
 20
137.28733472046909
 30
0.0
  0
VERTEX
  5
A158
  8
0
 10
648.52111821103745
 20
137.24338379064221
 30
0.0
  0
VERTEX
  5
A159
  8
0
 10
648.53708027216635
 20
137.19951999954949
 30
0.0
  0
VERTEX
  5
A15A
  8
0
 10
648.54448991341633
 20
137.17763002823679
 30
0.0
  0
VERTEX
  5
A15B
  8
0
 10
648.55151502771275
 20
137.15577292533931
 30
0.0
  0
VERTEX
  5
A15C
  8
0
 10
648.56440165434788
 20
137.1121720177596
 30
0.0
  0
VERTEX
  5
A15D
  8
0
 10
648.57572142058552
 20
137.06874651483969
 30
0.0
  0
VERTEX
  5
A15E
  8
0
 10
648.58545769729744
 20
137.0255253598985
 30
0.0
  0
VERTEX
  5
A15F
  8
0
 10
648.59359595567855
 20
136.98253711863069
 30
0.0
  0
VERTEX
  5
A160
  8
0
 10
648.60012375214626
 20
136.93980989608721
 30
0.0
  0
VERTEX
  5
A161
  8
0
 10
648.60278051965076
 20
136.9185517849258
 30
0.0
  0
VERTEX
  5
A162
  8
0
 10
648.60503112450715
 20
136.8973668625506
 30
0.0
  0
VERTEX
  5
A163
  8
0
 10
648.60830945569239
 20
136.85523051588689
 30
0.0
  0
VERTEX
  5
A164
  8
0
 10
648.60995125558475
 20
136.81342858386989
 30
0.0
  0
VERTEX
  5
A165
  8
0
 10
648.61015668505888
 20
136.79266159708601
 30
0.0
  0
SEQEND
  5
A166
  8
0
  0
LINE
  5
8AF6
  8
0
 10
605.64463944367935
 20
140.3163643527314
 30
0.0
 11
641.96526357342009
 21
140.3163643527314
 31
0.0
  0
LINE
  5
8AF7
  8
0
 10
769.96078198936027
 20
169.0749850423866
 30
0.0
 11
579.25953138075738
 21
169.0749850423866
 31
0.0
  0
LINE
  5
8AF8
  8
1
 10
674.61015668505888
 20
188.0931920716863
 30
0.0
 11
674.61015668505888
 21
92.556778013086102
 31
0.0
  0
LINE
  5
8B05
  8
2
 10
689.61015668505888
 20
108.2749850423864
 30
0.0
 11
689.61015668505888
 21
141.0749850423866
 31
0.0
  0
LINE
  5
8B06
  8
2
 10
692.61015668505877
 20
142.07498504238629
 30
0.0
 11
656.61015668505888
 21
142.07498504238629
 31
0.0
  0
LINE
  5
8B07
  8
2
 10
689.61015668505888
 20
141.07498504238629
 30
0.0
 11
688.61015668505877
 21
141.07498504238629
 31
0.0
  0
LINE
  5
8B08
  8
2
 10
692.61015668505877
 20
145.07498504238629
 30
0.0
 11
692.61015668505877
 21
142.07498504238629
 31
0.0
  0
LINE
  5
8B09
  8
2
 10
656.61015668505888
 20
145.07498504238629
 30
0.0
 11
656.61015668505888
 21
142.07498504238629
 31
0.0
  0
LINE
  5
8B0A
  8
2
 10
688.61015668505877
 20
141.07498504238629
 30
0.0
 11
688.61015668505877
 21
142.07498504238629
 31
0.0
  0
LINE
  5
8B0B
  8
2
 10
659.61015668505877
 20
108.2749850423864
 30
0.0
 11
659.61015668505877
 21
141.0749850423866
 31
0.0
  0
LINE
  5
8B0C
  8
2
 10
659.61015668505877
 20
141.07498504238629
 30
0.0
 11
660.61015668505888
 21
141.07498504238629
 31
0.0
  0
LINE
  5
8B0D
  8
2
 10
660.61015668505888
 20
141.07498504238629
 30
0.0
 11
660.61015668505888
 21
142.07498504238629
 31
0.0
  0
LINE
  5
8B0E
  8
0
 10
648.61015668505888
 20
136.79266159708601
 30
0.0
 11
648.61015668505888
 21
114.0749850423863
 31
0.0
  0
POLYLINE
  5
8B0F
  8
0
 66
     1
 10
0.0
 20
0.0
 30
0.0
  0
VERTEX
  5
A167
  8
0
 10
707.25504979669756
 20
140.3163643527314
 30
0.0
  0
VERTEX
  5
A168
  8
0
 10
707.21617000022377
 20
140.3162511858946
 30
0.0
  0
VERTEX
  5
A169
  8
0
 10
707.13746951464827
 20
140.31534088618631
 30
0.0
  0
VERTEX
  5
A16A
  8
0
 10
707.05755696263759
 20
140.31350847547699
 30
0.0
  0
VERTEX
  5
A16B
  8
0
 10
707.01716271997975
 20
140.31224307033949
 30
0.0
  0
VERTEX
  5
A16C
  8
0
 10
706.97648563843529
 20
140.3107432637033
 30
0.0
  0
VERTEX
  5
A16D
  8
0
 10
706.89431118600532
 20
140.3070362926772
 30
0.0
  0
VERTEX
  5
A16E
  8
0
 10
706.81109121666805
 20
140.3023803389415
 30
0.0
  0
VERTEX
  5
A16F
  8
0
 10
706.72688491130646
 20
140.29676989514181
 30
0.0
  0
VERTEX
  5
A170
  8
0
 10
706.64175260764841
 20
140.29020113004509
 30
0.0
  0
VERTEX
  5
A171
  8
0
 10
706.55575537333505
 20
140.28267182728629
 30
0.0
  0
VERTEX
  5
A172
  8
0
 10
706.51245158233723
 20
140.27854670336939
 30
0.0
  0
VERTEX
  5
A173
  8
0
 10
706.46895456576146
 20
140.27418130287589
 30
0.0
  0
VERTEX
  5
A174
  8
0
 10
706.38141138482115
 20
140.264730302039
 30
0.0
  0
VERTEX
  5
A175
  8
0
 10
706.29318697714234
 20
140.2543209442413
 30
0.0
  0
VERTEX
  5
A176
  8
0
 10
706.20434397805548
 20
140.24295687277029
 30
0.0
  0
VERTEX
  5
A177
  8
0
 10
706.11494686457524
 20
140.23064333198911
 30
0.0
  0
VERTEX
  5
A178
  8
0
 10
706.02506158051301
 20
140.21738715859601
 30
0.0
  0
VERTEX
  5
A179
  8
0
 10
705.97995678730058
 20
140.2104081498392
 30
0.0
  0
VERTEX
  5
A17A
  8
0
 10
705.93475514744114
 20
140.2031967528826
 30
0.0
  0
VERTEX
  5
A17B
  8
0
 10
705.84409527547768
 20
140.18808203210389
 30
0.0
  0
VERTEX
  5
A17C
  8
0
 10
705.75314997477562
 20
140.17205436666089
 30
0.0
  0
VERTEX
  5
A17D
  8
0
 10
705.70759152855862
 20
140.16370211083071
 30
0.0
  0
VERTEX
  5
A17E
  8
0
 10
705.66198716841973
 20
140.15512649969989
 30
0.0
  0
VERTEX
  5
A17F
  8
0
 10
705.57067430733366
 20
140.13731245064059
 30
0.0
  0
VERTEX
  5
A180
  8
0
 10
705.47927641893648
 20
140.1186270750257
 30
0.0
  0
VERTEX
  5
A181
  8
0
 10
705.43355718065266
 20
140.10896075733331
 30
0.0
  0
VERTEX
  5
A182
  8
0
 10
705.38783205293066
 20
140.09908069378849
 30
0.0
  0
VERTEX
  5
A183
  8
0
 10
705.29639725257721
 20
140.07868787815309
 30
0.0
  0
VERTEX
  5
A184
  8
0
 10
705.20503885200196
 20
140.05746668160651
 30
0.0
  0
VERTEX
  5
A185
  8
0
 10
705.11382435356472
 20
140.0354366557261
 30
0.0
  0
VERTEX
  5
A186
  8
0
 10
705.02282154845977
 20
140.01261879563739
 30
0.0
  0
VERTEX
  5
A187
  8
0
 10
704.93209814895545
 20
139.9890354719185
 30
0.0
  0
VERTEX
  5
A188
  8
0
 10
704.8868622769678
 20
139.9769641084693
 30
0.0
  0
VERTEX
  5
A189
  8
0
 10
704.84172143244041
 20
139.96471034980331
 30
0.0
  0
VERTEX
  5
A18A
  8
0
 10
704.75175789710238
 20
139.93966829635039
 30
0.0
  0
VERTEX
  5
A18B
  8
0
 10
704.66227292876101
 20
139.91393527605541
 30
0.0
  0
VERTEX
  5
A18C
  8
0
 10
704.57333047824113
 20
139.8875382352374
 30
0.0
  0
VERTEX
  5
A18D
  8
0
 10
704.48499296587624
 20
139.8605050428778
 30
0.0
  0
VERTEX
  5
A18E
  8
0
 10
704.39732242974776
 20
139.83286482752791
 30
0.0
  0
VERTEX
  5
A18F
  8
0
 10
704.35375674058332
 20
139.8188265982287
 30
0.0
  0
VERTEX
  5
A190
  8
0
 10
704.31038115418414
 20
139.8046482103089
 30
0.0
  0
VERTEX
  5
A191
  8
0
 10
704.22423133859411
 20
139.77588725162741
 30
0.0
  0
VERTEX
  5
A192
  8
0
 10
704.13893473497865
 20
139.74661537207501
 30
0.0
  0
VERTEX
  5
A193
  8
0
 10
704.05455230788118
 20
139.71686726438139
 30
0.0
  0
VERTEX
  5
A194
  8
0
 10
703.97114391588445
 20
139.6866787971924
 30
0.0
  0
VERTEX
  5
A195
  8
0
 10
703.88876801335516
 20
139.6560869111604
 30
0.0
  0
VERTEX
  5
A196
  8
0
 10
703.8479850594922
 20
139.6406514959022
 30
0.0
  0
VERTEX
  5
A197
  8
0
 10
703.80748137078706
 20
139.62512950756241
 30
0.0
  0
VERTEX
  5
A198
  8
0
 10
703.72733622661099
 20
139.59384430786289
 30
0.0
  0
VERTEX
  5
A199
  8
0
 10
703.64781586575873
 20
139.56204025126209
 30
0.0
  0
VERTEX
  5
A19A
  8
0
 10
703.56854123353185
 20
139.52956277790761
 30
0.0
  0
VERTEX
  5
A19B
  8
0
 10
703.48956703022566
 20
139.49642566406581
 30
0.0
  0
VERTEX
  5
A19C
  8
0
 10
703.41094745783721
 20
139.4626435689579
 30
0.0
  0
VERTEX
  5
A19D
  8
0
 10
703.37178741105924
 20
139.44551545684709
 30
0.0
  0
VERTEX
  5
A19E
  8
0
 10
703.33273602202325
 20
139.4282319572535
 30
0.0
  0
VERTEX
  5
A19F
  8
0
 10
703.25498534903682
 20
139.39320701903219
 30
0.0
  0
VERTEX
  5
A1A0
  8
0
 10
703.17774701668441
 20
139.3575855872412
 30
0.0
  0
VERTEX
  5
A1A1
  8
0
 10
703.10107139843922
 20
139.3213850526493
 30
0.0
  0
VERTEX
  5
A1A2
  8
0
 10
703.02500751996831
 20
139.28462327627159
 30
0.0
  0
VERTEX
  5
A1A3
  8
0
 10
702.94960292745282
 20
139.24731849922341
 30
0.0
  0
VERTEX
  5
A1A4
  8
0
 10
702.9121622872085
 20
139.22846826695471
 30
0.0
  0
VERTEX
  5
A1A5
  8
0
 10
702.87490356737953
 20
139.20948925004839
 30
0.0
  0
VERTEX
  5
A1A6
  8
0
 10
702.80095381563342
 20
139.17115432197011
 30
0.0
  0
VERTEX
  5
A1A7
  8
0
 10
702.72779711195881
 20
139.13233307705929
 30
0.0
  0
VERTEX
  5
A1A8
  8
0
 10
702.69152954612491
 20
139.1127463330379
 30
0.0
  0
VERTEX
  5
A1A9
  8
0
 10
702.65547621591747
 20
139.09304559055121
 30
0.0
  0
VERTEX
  5
A1AA
  8
0
 10
702.58403305608715
 20
139.05331258910959
 30
0.0
  0
VERTEX
  5
A1AB
  8
0
 10
702.5135085779757
 20
139.01315538057111
 30
0.0
  0
VERTEX
  5
A1AC
  8
0
 10
702.47860333671269
 20
138.99292449873451
 30
0.0
  0
VERTEX
  5
A1AD
  8
0
 10
702.44394260478691
 20
138.97259578266659
 30
0.0
  0
VERTEX
  5
A1AE
  8
0
 10
702.375373710237
 20
138.9316560506623
 30
0.0
  0
VERTEX
  5
A1AF
  8
0
 10
702.30783910266734
 20
138.8903588038288
 30
0.0
  0
VERTEX
  5
A1B0
  8
0
 10
702.24137451978368
 20
138.84872695060341
 30
0.0
  0
VERTEX
  5
A1B1
  8
0
 10
702.17601413340014
 20
138.8067836122828
 30
0.0
  0
VERTEX
  5
A1B2
  8
0
 10
702.11178976567271
 20
138.76455158040289
 30
0.0
  0
VERTEX
  5
A1B3
  8
0
 10
702.08010979281971
 20
138.7433322277771
 30
0.0
  0
VERTEX
  5
A1B4
  8
0
 10
702.04872187811804
 20
138.722047082496
 30
0.0
  0
VERTEX
  5
A1B5
  8
0
 10
701.98683728768935
 20
138.67929130725861
 30
0.0
  0
VERTEX
  5
A1B6
  8
0
 10
701.92616548218302
 20
138.63630838290399
 30
0.0
  0
VERTEX
  5
A1B7
  8
0
 10
701.86673482612014
 20
138.5931229358917
 30
0.0
  0
VERTEX
  5
A1B8
  8
0
 10
701.80857243079618
 20
138.5497600215422
 30
0.0
  0
VERTEX
  5
A1B9
  8
0
 10
701.75170403579932
 20
138.50624505417801
 30
0.0
  0
VERTEX
  5
A1BA
  8
0
 10
701.72376273025418
 20
138.48443857342679
 30
0.0
  0
VERTEX
  5
A1BB
  8
0
 10
701.69615390131412
 20
138.4626037366445
 30
0.0
  0
VERTEX
  5
A1BC
  8
0
 10
701.6419447105759
 20
138.41886198902651
 30
0.0
  0
VERTEX
  5
A1BD
  8
0
 10
701.58909748190445
 20
138.37504587631929
 30
0.0
  0
VERTEX
  5
A1BE
  8
0
 10
701.53763148980534
 20
138.33118153479069
 30
0.0
  0
VERTEX
  5
A1BF
  8
0
 10
701.48756419531901
 20
138.28729509724991
 30
0.0
  0
VERTEX
  5
A1C0
  8
0
 10
701.43891129242036
 20
138.24341271506341
 30
0.0
  0
VERTEX
  5
A1C1
  8
0
 10
701.4151197530191
 20
138.22148130597321
 30
0.0
  0
VERTEX
  5
A1C2
  8
0
 10
701.39168706591954
 20
138.19956088158261
 30
0.0
  0
VERTEX
  5
A1C3
  8
0
 10
701.3459044504807
 20
138.1557665281457
 30
0.0
  0
VERTEX
  5
A1C4
  8
0
 10
701.30157489989961
 20
138.1120569503114
 30
0.0
  0
VERTEX
  5
A1C5
  8
0
 10
701.25870826444441
 20
138.06845973030141
 30
0.0
  0
VERTEX
  5
A1C6
  8
0
 10
701.21731268036729
 20
138.02500265960961
 30
0.0
  0
VERTEX
  5
A1C7
  8
0
 10
701.17739447097165
 20
137.98171366157251
 30
0.0
  0
VERTEX
  5
A1C8
  8
0
 10
701.15799084023274
 20
137.9601409327729
 30
0.0
  0
VERTEX
  5
A1C9
  8
0
 10
701.13895805870834
 20
137.93862071362989
 30
0.0
  0
VERTEX
  5
A1CA
  8
0
 10
701.10200588781709
 20
137.8957517689521
 30
0.0
  0
VERTEX
  5
A1CB
  8
0
 10
701.06653835712768
 20
137.85313467704719
 30
0.0
  0
VERTEX
  5
A1CC
  8
0
 10
701.03248357299344
 20
137.81070802500159
 30
0.0
  0
VERTEX
  5
A1CD
  8
0
 10
700.99949898519844
 20
137.76804230376729
 30
0.0
  0
VERTEX
  5
A1CE
  8
0
 10
700.96758169270242
 20
137.72510264239031
 30
0.0
  0
VERTEX
  5
A1CF
  8
0
 10
700.95203842357841
 20
137.70353955387279
 30
0.0
  0
VERTEX
  5
A1D0
  8
0
 10
700.93677989395155
 20
137.68191936976231
 30
0.0
  0
VERTEX
  5
A1D1
  8
0
 10
700.90713973535685
 20
137.638522995416
 30
0.0
  0
VERTEX
  5
A1D2
  8
0
 10
700.87870524985874
 20
137.5949441246546
 30
0.0
  0
VERTEX
  5
A1D3
  8
0
 10
700.86495330476555
 20
137.5730958226693
 30
0.0
  0
VERTEX
  5
A1D4
  8
0
 10
700.85151830864243
 20
137.5512133740574
 30
0.0
  0
VERTEX
  5
A1D5
  8
0
 10
700.82561858572114
 20
137.50736128688919
 30
0.0
  0
VERTEX
  5
A1D6
  8
0
 10
700.80104353533352
 20
137.46341824801701
 30
0.0
  0
VERTEX
  5
A1D7
  8
0
 10
700.78926385717568
 20
137.44142205253439
 30
0.0
  0
VERTEX
  5
A1D8
  8
0
 10
700.77782838230075
 20
137.41941439802031
 30
0.0
  0
VERTEX
  5
A1D9
  8
0
 10
700.75600612579592
 20
137.37537954646771
 30
0.0
  0
VERTEX
  5
A1DA
  8
0
 10
700.73560759376051
 20
137.33134316643779
 30
0.0
  0
VERTEX
  5
A1DB
  8
0
 10
700.71666163331929
 20
137.28733472046909
 30
0.0
  0
VERTEX
  5
A1DC
  8
0
 10
700.69919515908032
 20
137.24338379064221
 30
0.0
  0
VERTEX
  5
A1DD
  8
0
 10
700.68323309795142
 20
137.19951999954949
 30
0.0
  0
VERTEX
  5
A1DE
  8
0
 10
700.67582345670144
 20
137.17763002823679
 30
0.0
  0
VERTEX
  5
A1DF
  8
0
 10
700.6687983424049
 20
137.15577292533931
 30
0.0
  0
VERTEX
  5
A1E0
  8
0
 10
700.65591171576978
 20
137.1121720177596
 30
0.0
  0
VERTEX
  5
A1E1
  8
0
 10
700.64459194953224
 20
137.06874651483969
 30
0.0
  0
VERTEX
  5
A1E2
  8
0
 10
700.63485567282032
 20
137.0255253598985
 30
0.0
  0
VERTEX
  5
A1E3
  8
0
 10
700.62671741443899
 20
136.98253711863069
 30
0.0
  0
VERTEX
  5
A1E4
  8
0
 10
700.62018961797139
 20
136.93980989608721
 30
0.0
  0
VERTEX
  5
A1E5
  8
0
 10
700.61753285046677
 20
136.9185517849258
 30
0.0
  0
VERTEX
  5
A1E6
  8
0
 10
700.61528224561062
 20
136.8973668625506
 30
0.0
  0
VERTEX
  5
A1E7
  8
0
 10
700.61200391442515
 20
136.85523051588689
 30
0.0
  0
VERTEX
  5
A1E8
  8
0
 10
700.61036211453302
 20
136.81342858386989
 30
0.0
  0
VERTEX
  5
A1E9
  8
0
 10
700.61015668505877
 20
136.79266159708601
 30
0.0
  0
SEQEND
  5
A1EA
  8
0
  0
LINE
  5
8B10
  8
0
 10
743.57567392643841
 20
140.3163643527314
 30
0.0
 11
707.25504979669756
 21
140.3163643527314
 31
0.0
  0
LINE
  5
8B11
  8
0
 10
700.61015668505877
 20
136.79266159708601
 30
0.0
 11
700.61015668505877
 21
114.0749850423863
 31
0.0
  0
LINE
  5
8B12
  8
0
 10
695.61015668505888
 20
141.0749850423866
 30
0.0
 11
695.61015668505888
 21
114.0749850423863
 31
0.0
  0
LINE
  5
8B13
  8
0
 10
653.61015668505888
 20
141.0749850423866
 30
0.0
 11
653.61015668505888
 21
114.0749850423863
 31
0.0
  0
LINE
  5
8B14
  8
2
 10
927.03138510513372
 20
421.99658943279138
 30
0.0
 11
961.03138510513372
 21
421.99658943279178
 31
0.0
  0
LINE
  5
8B15
  8
2
 10
961.03138510513372
 20
437.99658943279138
 30
0.0
 11
927.03138510513372
 21
437.99658943279178
 31
0.0
  0
LINE
  5
8B16
  8
2
 10
924.03138510513384
 20
447.99658943279132
 30
0.0
 11
924.03138510513384
 21
411.99658943279132
 31
0.0
  0
LINE
  5
8B17
  8
2
 10
960.83138510513345
 20
444.99658943279132
 30
0.0
 11
928.03138510513315
 21
444.99658943279132
 31
0.0
  0
LINE
  5
8B18
  8
2
 10
927.03138510513372
 20
447.99658943279132
 30
0.0
 11
927.03138510513372
 21
411.99658943279132
 31
0.0
  0
LINE
  5
8B19
  8
2
 10
928.03138510513372
 20
444.99658943279132
 30
0.0
 11
928.03138510513372
 21
443.99658943279132
 31
0.0
  0
LINE
  5
8B1A
  8
2
 10
924.03138510513384
 20
447.99658943279132
 30
0.0
 11
927.03138510513372
 21
447.99658943279132
 31
0.0
  0
LINE
  5
8B1B
  8
2
 10
924.03138510513384
 20
411.99658943279132
 30
0.0
 11
927.03138510513372
 21
411.99658943279132
 31
0.0
  0
LINE
  5
8B1C
  8
2
 10
928.03138510513372
 20
443.99658943279132
 30
0.0
 11
927.03138510513372
 21
443.99658943279132
 31
0.0
  0
LINE
  5
8B1D
  8
2
 10
960.83138510513345
 20
414.99658943279132
 30
0.0
 11
928.03138510513315
 21
414.99658943279132
 31
0.0
  0
LINE
  5
8B1E
  8
2
 10
928.03138510513372
 20
414.99658943279132
 30
0.0
 11
928.03138510513372
 21
415.99658943279132
 31
0.0
  0
LINE
  5
8B1F
  8
2
 10
928.03138510513372
 20
415.99658943279132
 30
0.0
 11
927.03138510513372
 21
415.99658943279132
 31
0.0
  0
CIRCLE
  5
944D
  8
0
 10
375.94838844602327
 20
513.99658943279132
 30
0.0
 40
12.0
  0
LINE
  5
944E
  8
1
 10
348.43018141672292
 20
513.99658943279132
 30
0.0
 11
403.46659547532352
 21
513.99658943279132
 31
0.0
  0
CIRCLE
  5
944F
  8
0
 10
375.94838844602327
 20
429.99658943279138
 30
0.0
 40
99.999999999999986
  0
CIRCLE
  5
9450
  8
0
 10
375.94838844602327
 20
429.99658943279138
 30
0.0
 40
25.0
  0
POLYLINE
  5
9451
  8
0
 66
     1
 10
0.0
 20
0.0
 30
0.0
  0
VERTEX
  5
A1EB
  8
0
 10
410.09328155766201
 20
489.91627603715989
 30
0.0
  0
VERTEX
  5
A1EC
  8
0
 10
410.05718757647082
 20
489.93662169996452
 30
0.0
  0
VERTEX
  5
A1ED
  8
0
 10
409.9841168479615
 20
489.97647070782
 30
0.0
  0
VERTEX
  5
A1EE
  8
0
 10
409.90990198473122
 20
490.01515362681289
 30
0.0
  0
VERTEX
  5
A1EF
  8
0
 10
409.87237828613701
 20
490.03404214454332
 30
0.0
  0
VERTEX
  5
A1F0
  8
0
 10
409.834584116249
 20
490.05262061163347
 30
0.0
  0
VERTEX
  5
A1F1
  8
0
 10
409.75820608430598
 20
490.08882395086061
 30
0.0
  0
VERTEX
  5
A1F2
  8
0
 10
409.68081222367022
 20
490.12371819212223
 30
0.0
  0
VERTEX
  5
A1F3
  8
0
 10
409.60244813426152
 20
490.15726024603481
 30
0.0
  0
VERTEX
  5
A1F4
  8
0
 10
409.52316044425601
 20
490.18940946920952
 30
0.0
  0
VERTEX
  5
A1F5
  8
0
 10
409.44299656364319
 20
490.22012772634679
 30
0.0
  0
VERTEX
  5
A1F6
  8
0
 10
409.4026010183747
 20
490.23493902170208
 30
0.0
  0
VERTEX
  5
A1F7
  8
0
 10
409.36200442785588
 20
490.24937943122518
 30
0.0
  0
VERTEX
  5
A1F8
  8
0
 10
409.28023223124632
 20
490.27713156615869
 30
0.0
  0
VERTEX
  5
A1F9
  8
0
 10
409.1977282191196
 20
490.30335365817677
 30
0.0
  0
VERTEX
  5
A1FA
  8
0
 10
409.11454129408679
 20
490.32801750532349
 30
0.0
  0
VERTEX
  5
A1FB
  8
0
 10
409.03072175550909
 20
490.3510969538163
 30
0.0
  0
VERTEX
  5
A1FC
  8
0
 10
408.9463211792804
 20
490.37256798485379
 30
0.0
  0
VERTEX
  5
A1FD
  8
0
 10
408.90391941380273
 20
490.3826934467873
 30
0.0
  0
VERTEX
  5
A1FE
  8
0
 10
408.86139219503087
 20
490.39240881464428
 30
0.0
  0
VERTEX
  5
A1FF
  8
0
 10
408.775988260053
 20
490.41059997328131
 30
0.0
  0
VERTEX
  5
A200
  8
0
 10
408.69016342967052
 20
490.42712436281198
 30
0.0
  0
VERTEX
  5
A201
  8
0
 10
408.6471101771449
 20
490.43475683427209
 30
0.0
  0
VERTEX
  5
A202
  8
0
 10
408.60397212377751
 20
490.44196729468848
 30
0.0
  0
VERTEX
  5
A203
  8
0
 10
408.51746888928022
 20
490.45511650662479
 30
0.0
  0
VERTEX
  5
A204
  8
0
 10
408.43070815819817
 20
490.4665621587398
 30
0.0
  0
VERTEX
  5
A205
  8
0
 10
408.38724814948313
 20
490.47164373160041
 30
0.0
  0
VERTEX
  5
A206
  8
0
 10
408.34374261413808
 20
490.47629695017099
 30
0.0
  0
VERTEX
  5
A207
  8
0
 10
408.25660557040101
 20
490.4843173617403
 30
0.0
  0
VERTEX
  5
A208
  8
0
 10
408.16934440094832
 20
490.49061963313147
 30
0.0
  0
VERTEX
  5
A209
  8
0
 10
408.08201411462949
 20
490.495201418926
 30
0.0
  0
VERTEX
  5
A20A
  8
0
 10
407.99467042293691
 20
490.49806268958059
 30
0.0
  0
VERTEX
  5
A20B
  8
0
 10
407.90736950420842
 20
490.49920579430892
 30
0.0
  0
VERTEX
  5
A20C
  8
0
 10
407.86375271013139
 20
490.4991344296825
 30
0.0
  0
VERTEX
  5
A20D
  8
0
 10
407.82016776813037
 20
490.4986355026474
 30
0.0
  0
VERTEX
  5
A20E
  8
0
 10
407.7331216203624
 20
490.49635902499699
 30
0.0
  0
VERTEX
  5
A20F
  8
0
 10
407.64628722703532
 20
490.49238601228058
 30
0.0
  0
VERTEX
  5
A210
  8
0
 10
407.55972027881722
 20
490.48672853471749
 30
0.0
  0
VERTEX
  5
A211
  8
0
 10
407.4734757541982
 20
490.47940103954789
 30
0.0
  0
VERTEX
  5
A212
  8
0
 10
407.38760769914052
 20
490.470420289402
 30
0.0
  0
VERTEX
  5
A213
  8
0
 10
407.3448315441978
 20
490.46531581002711
 30
0.0
  0
VERTEX
  5
A214
  8
0
 10
407.30216958056548
 20
490.45980535803409
 30
0.0
  0
VERTEX
  5
A215
  8
0
 10
407.21721524688922
 20
490.44757776736861
 30
0.0
  0
VERTEX
  5
A216
  8
0
 10
407.13279892280752
 20
490.43376157700658
 30
0.0
  0
VERTEX
  5
A217
  8
0
 10
407.04897494497112
 20
490.41838342996812
 30
0.0
  0
VERTEX
  5
A218
  8
0
 10
406.96579750254659
 20
490.40147257510699
 30
0.0
  0
VERTEX
  5
A219
  8
0
 10
406.88332038348102
 20
490.38306086687481
 30
0.0
  0
VERTEX
  5
A21A
  8
0
 10
406.8423610830186
 20
490.37330285464549
 30
0.0
  0
VERTEX
  5
A21B
  8
0
 10
406.80159672618169
 20
490.36318274282871
 30
0.0
  0
VERTEX
  5
A21C
  8
0
 10
406.720678776162
 20
490.34187517910118
 30
0.0
  0
VERTEX
  5
A21D
  8
0
 10
406.64061764704633
 20
490.31917762380982
 30
0.0
  0
VERTEX
  5
A21E
  8
0
 10
406.56145556762829
 20
490.29512954781592
 30
0.0
  0
VERTEX
  5
A21F
  8
0
 10
406.48265453447078
 20
490.26957852495138
 30
0.0
  0
VERTEX
  5
A220
  8
0
 10
406.4039053934107
 20
490.24240751827188
 30
0.0
  0
VERTEX
  5
A221
  8
0
 10
406.36457022074552
 20
490.22821292628282
 30
0.0
  0
VERTEX
  5
A222
  8
0
 10
406.32527191759522
 20
490.21361176199548
 30
0.0
  0
VERTEX
  5
A223
  8
0
 10
406.24681757144162
 20
490.18318917135161
 30
0.0
  0
VERTEX
  5
A224
  8
0
 10
406.16860527263759
 20
490.15114027591898
 30
0.0
  0
VERTEX
  5
A225
  8
0
 10
406.09069716417611
 20
490.11746813315239
 30
0.0
  0
VERTEX
  5
A226
  8
0
 10
406.01315439572357
 20
490.08217822193888
 30
0.0
  0
VERTEX
  5
A227
  8
0
 10
405.93603691384988
 20
490.0452783159401
 30
0.0
  0
VERTEX
  5
A228
  8
0
 10
405.89765601003359
 20
490.026227635841
 30
0.0
  0
VERTEX
  5
A229
  8
0
 10
405.85940326087939
 20
490.0067783363732
 30
0.0
  0
VERTEX
  5
A22A
  8
0
 10
405.78331038238139
 20
489.96669018382931
 30
0.0
  0
VERTEX
  5
A22B
  8
0
 10
405.70781344998289
 20
489.92502755233119
 30
0.0
  0
VERTEX
  5
A22C
  8
0
 10
405.67030524924837
 20
489.90361056735611
 30
0.0
  0
VERTEX
  5
A22D
  8
0
 10
405.63296607746992
 20
489.88180594926081
 30
0.0
  0
VERTEX
  5
A22E
  8
0
 10
405.55882119379697
 20
489.83704315451428
 30
0.0
  0
VERTEX
  5
A22F
  8
0
 10
405.48543112968991
 20
489.79075931715431
 30
0.0
  0
VERTEX
  5
A230
  8
0
 10
405.44903529044541
 20
489.7670539316025
 30
0.0
  0
VERTEX
  5
A231
  8
0
 10
405.41284739776341
 20
489.74297687143081
 30
0.0
  0
VERTEX
  5
A232
  8
0
 10
405.34112048278757
 20
489.69372043511271
 30
0.0
  0
VERTEX
  5
A233
  8
0
 10
405.27029964454908
 20
489.6430166918006
 30
0.0
  0
VERTEX
  5
A234
  8
0
 10
405.20043273291822
 20
489.59089425719662
 30
0.0
  0
VERTEX
  5
A235
  8
0
 10
405.13156601482927
 20
489.53738352919919
 30
0.0
  0
VERTEX
  5
A236
  8
0
 10
405.06374401302941
 20
489.48251652160047
 30
0.0
  0
VERTEX
  5
A237
  8
0
 10
405.03023818013338
 20
489.45458481442051
 30
0.0
  0
VERTEX
  5
A238
  8
0
 10
404.99700935656568
 20
489.42632668109098
 30
0.0
  0
VERTEX
  5
A239
  8
0
 10
404.93139473117429
 20
489.3688416171106
 30
0.0
  0
VERTEX
  5
A23A
  8
0
 10
404.86692716890587
 20
489.31008556715813
 30
0.0
  0
VERTEX
  5
A23B
  8
0
 10
404.80364567105329
 20
489.25009555251449
 30
0.0
  0
VERTEX
  5
A23C
  8
0
 10
404.741588304375
 20
489.18891083461699
 30
0.0
  0
VERTEX
  5
A23D
  8
0
 10
404.68079182830519
 20
489.12657265351419
 30
0.0
  0
VERTEX
  5
A23E
  8
0
 10
404.65087750677628
 20
489.09498441051687
 30
0.0
  0
VERTEX
  5
A23F
  8
0
 10
404.62129150390223
 20
489.06312409553522
 30
0.0
  0
VERTEX
  5
A240
  8
0
 10
404.56312091770582
 20
488.99860994730147
 30
0.0
  0
VERTEX
  5
A241
  8
0
 10
404.5063118202001
 20
488.93307653604478
 30
0.0
  0
VERTEX
  5
A242
  8
0
 10
404.45089397863319
 20
488.86657155603848
 30
0.0
  0
VERTEX
  5
A243
  8
0
 10
404.39689504402031
 20
488.79914388082381
 30
0.0
  0
VERTEX
  5
A244
  8
0
 10
404.34434043232341
 20
488.73084336085748
 30
0.0
  0
VERTEX
  5
A245
  8
0
 10
404.31861206477691
 20
488.69638159239798
 30
0.0
  0
VERTEX
  5
A246
  8
0
 10
404.29325332325561
 20
488.66172074883917
 30
0.0
  0
VERTEX
  5
A247
  8
0
 10
404.24365519309038
 20
488.59182839243232
 30
0.0
  0
VERTEX
  5
A248
  8
0
 10
404.19556603371211
 20
488.52122064982711
 30
0.0
  0
VERTEX
  5
A249
  8
0
 10
404.14900415614193
 20
488.44995376552629
 30
0.0
  0
VERTEX
  5
A24A
  8
0
 10
404.10398599342392
 20
488.37808570814133
 30
0.0
  0
VERTEX
  5
A24B
  8
0
 10
404.06052592321203
 20
488.30567599706069
 30
0.0
  0
VERTEX
  5
A24C
  8
0
 10
404.03938406447691
 20
488.2692870001049
 30
0.0
  0
VERTEX
  5
A24D
  8
0
 10
404.01863610958748
 20
488.23278551814951
 30
0.0
  0
VERTEX
  5
A24E
  8
0
 10
403.97832636366502
 20
488.15947632836082
 30
0.0
  0
VERTEX
  5
A24F
  8
0
 10
403.93960402258921
 20
488.08581144890758
 30
0.0
  0
VERTEX
  5
A250
  8
0
 10
403.90247384658949
 20
488.01185464638121
 30
0.0
  0
VERTEX
  5
A251
  8
0
 10
403.86684594512548
 20
487.9374735025238
 30
0.0
  0
VERTEX
  5
A252
  8
0
 10
403.83239926959089
 20
487.86198329391692
 30
0.0
  0
VERTEX
  5
A253
  8
0
 10
403.8156235967266
 20
487.8238105025714
 30
0.0
  0
VERTEX
  5
A254
  8
0
 10
403.79915549797119
 20
487.78536069913861
 30
0.0
  0
VERTEX
  5
A255
  8
0
 10
403.7671684214788
 20
487.70765508398807
 30
0.0
  0
VERTEX
  5
A256
  8
0
 10
403.73648911276501
 20
487.6289175253803
 30
0.0
  0
VERTEX
  5
A257
  8
0
 10
403.72165505766861
 20
487.58917813193398
 30
0.0
  0
VERTEX
  5
A258
  8
0
 10
403.70716580406997
 20
487.54920054736323
 30
0.0
  0
VERTEX
  5
A259
  8
0
 10
403.67924379051777
 20
487.46855784715473
 30
0.0
  0
VERTEX
  5
A25A
  8
0
 10
403.65276535837802
 20
487.38704401006203
 30
0.0
  0
VERTEX
  5
A25B
  8
0
 10
403.64007986507238
 20
487.34597764305943
 30
0.0
  0
VERTEX
  5
A25C
  8
0
 10
403.62776973846439
 20
487.30471421231528
 30
0.0
  0
VERTEX
  5
A25D
  8
0
 10
403.60429308516439
 20
487.2216239110428
 30
0.0
  0
VERTEX
  5
A25E
  8
0
 10
403.58236850089452
 20
487.1378285963799
 30
0.0
  0
VERTEX
  5
A25F
  8
0
 10
403.56202628761639
 20
487.05338443592092
 30
0.0
  0
VERTEX
  5
A260
  8
0
 10
403.54329414021453
 20
486.96834906666868
 30
0.0
  0
VERTEX
  5
A261
  8
0
 10
403.52619705462212
 20
486.88278143717957
 30
0.0
  0
VERTEX
  5
A262
  8
0
 10
403.51826870845429
 20
486.83981673807028
 30
0.0
  0
VERTEX
  5
A263
  8
0
 10
403.51075722923451
 20
486.79674153578321
 30
0.0
  0
VERTEX
  5
A264
  8
0
 10
403.49699399173772
 20
486.71029011589991
 30
0.0
  0
VERTEX
  5
A265
  8
0
 10
403.4849237509697
 20
486.62348841760308
 30
0.0
  0
VERTEX
  5
A266
  8
0
 10
403.47455997367382
 20
486.53639788461243
 30
0.0
  0
VERTEX
  5
A267
  8
0
 10
403.46591318628492
 20
486.44907987594689
 30
0.0
  0
VERTEX
  5
A268
  8
0
 10
403.45899095953519
 20
486.36159475623867
 30
0.0
  0
VERTEX
  5
A269
  8
0
 10
403.45617782258518
 20
486.31780266653118
 30
0.0
  0
VERTEX
  5
A26A
  8
0
 10
403.4537972015205
 20
486.27398496755882
 30
0.0
  0
VERTEX
  5
A26B
  8
0
 10
403.45033480544089
 20
486.18630388286903
 30
0.0
  0
VERTEX
  5
A26C
  8
0
 10
403.44860455964948
 20
486.098613918078
 30
0.0
  0
VERTEX
  5
A26D
  8
0
 10
403.44838844602322
 20
486.05478512265631
 30
0.0
  0
SEQEND
  5
A26E
  8
0
  0
ARC
  5
9452
  8
0
 10
375.94838844602327
 20
429.99658943279138
 30
0.0
 40
68.965517241379331
 50
299.6764073220503
 51
60.323592677949691
  0
POLYLINE
  5
9453
  8
0
 66
     1
 10
0.0
 20
0.0
 30
0.0
  0
VERTEX
  5
A26F
  8
0
 10
403.44838844602322
 20
373.93839374292691
 30
0.0
  0
VERTEX
  5
A270
  8
0
 10
403.44860455964948
 20
373.89456494750482
 30
0.0
  0
VERTEX
  5
A271
  8
0
 10
403.45033480544089
 20
373.80687498271368
 30
0.0
  0
VERTEX
  5
A272
  8
0
 10
403.4537972015205
 20
373.71919389802389
 30
0.0
  0
VERTEX
  5
A273
  8
0
 10
403.45617782258518
 20
373.67537619905153
 30
0.0
  0
VERTEX
  5
A274
  8
0
 10
403.45899095953519
 20
373.63158410934398
 30
0.0
  0
VERTEX
  5
A275
  8
0
 10
403.46591318628492
 20
373.54409898963593
 30
0.0
  0
VERTEX
  5
A276
  8
0
 10
403.47455997367382
 20
373.45678098097028
 30
0.0
  0
VERTEX
  5
A277
  8
0
 10
403.4849237509697
 20
373.36969044797962
 30
0.0
  0
VERTEX
  5
A278
  8
0
 10
403.49699399173772
 20
373.2828887496828
 30
0.0
  0
VERTEX
  5
A279
  8
0
 10
403.51075722923451
 20
373.19643732979949
 30
0.0
  0
VERTEX
  5
A27A
  8
0
 10
403.51826870845429
 20
373.15336212751242
 30
0.0
  0
VERTEX
  5
A27B
  8
0
 10
403.52619705462212
 20
373.11039742840308
 30
0.0
  0
VERTEX
  5
A27C
  8
0
 10
403.54329414021453
 20
373.02482979891403
 30
0.0
  0
VERTEX
  5
A27D
  8
0
 10
403.56202628761639
 20
372.93979442966179
 30
0.0
  0
VERTEX
  5
A27E
  8
0
 10
403.58236850089452
 20
372.8553502692028
 30
0.0
  0
VERTEX
  5
A27F
  8
0
 10
403.60429308516439
 20
372.77155495453991
 30
0.0
  0
VERTEX
  5
A280
  8
0
 10
403.62776973846439
 20
372.68846465326749
 30
0.0
  0
VERTEX
  5
A281
  8
0
 10
403.64007986507238
 20
372.64720122252339
 30
0.0
  0
VERTEX
  5
A282
  8
0
 10
403.65276535837802
 20
372.60613485552068
 30
0.0
  0
VERTEX
  5
A283
  8
0
 10
403.67924379051777
 20
372.52462101842798
 30
0.0
  0
VERTEX
  5
A284
  8
0
 10
403.70716580406997
 20
372.44397831821999
 30
0.0
  0
VERTEX
  5
A285
  8
0
 10
403.72165505766861
 20
372.40400073364867
 30
0.0
  0
VERTEX
  5
A286
  8
0
 10
403.73648911276501
 20
372.3642613402024
 30
0.0
  0
VERTEX
  5
A287
  8
0
 10
403.7671684214788
 20
372.28552378159458
 30
0.0
  0
VERTEX
  5
A288
  8
0
 10
403.79915549797119
 20
372.2078181664441
 30
0.0
  0
VERTEX
  5
A289
  8
0
 10
403.8156235967266
 20
372.1693683630113
 30
0.0
  0
VERTEX
  5
A28A
  8
0
 10
403.83239926959089
 20
372.13119557166578
 30
0.0
  0
VERTEX
  5
A28B
  8
0
 10
403.86684594512548
 20
372.05570536305902
 30
0.0
  0
VERTEX
  5
A28C
  8
0
 10
403.90247384658949
 20
371.98132421920161
 30
0.0
  0
VERTEX
  5
A28D
  8
0
 10
403.93960402258921
 20
371.90736741667507
 30
0.0
  0
VERTEX
  5
A28E
  8
0
 10
403.97832636366451
 20
371.83370253722188
 30
0.0
  0
VERTEX
  5
A28F
  8
0
 10
404.01863610958702
 20
371.76039334743319
 30
0.0
  0
VERTEX
  5
A290
  8
0
 10
404.03938406447691
 20
371.72389186547781
 30
0.0
  0
VERTEX
  5
A291
  8
0
 10
404.06052592321203
 20
371.68750286852202
 30
0.0
  0
VERTEX
  5
A292
  8
0
 10
404.10398599342392
 20
371.61509315744138
 30
0.0
  0
VERTEX
  5
A293
  8
0
 10
404.14900415614193
 20
371.54322510005642
 30
0.0
  0
VERTEX
  5
A294
  8
0
 10
404.19556603371211
 20
371.47195821575571
 30
0.0
  0
VERTEX
  5
A295
  8
0
 10
404.24365519309038
 20
371.4013504731505
 30
0.0
  0
VERTEX
  5
A296
  8
0
 10
404.29325332325561
 20
371.33145811674359
 30
0.0
  0
VERTEX
  5
A297
  8
0
 10
404.31861206477691
 20
371.29679727318472
 30
0.0
  0
VERTEX
  5
A298
  8
0
 10
404.34434043232341
 20
371.26233550472517
 30
0.0
  0
VERTEX
  5
A299
  8
0
 10
404.39689504402031
 20
371.19403498475901
 30
0.0
  0
VERTEX
  5
A29A
  8
0
 10
404.45089397863319
 20
371.12660730954423
 30
0.0
  0
VERTEX
  5
A29B
  8
0
 10
404.5063118202001
 20
371.06010232953781
 30
0.0
  0
VERTEX
  5
A29C
  8
0
 10
404.56312091770582
 20
370.99456891828117
 30
0.0
  0
VERTEX
  5
A29D
  8
0
 10
404.62129150390223
 20
370.93005477004749
 30
0.0
  0
VERTEX
  5
A29E
  8
0
 10
404.65087750677628
 20
370.89819445506578
 30
0.0
  0
VERTEX
  5
A29F
  8
0
 10
404.68079182830519
 20
370.86660621206858
 30
0.0
  0
VERTEX
  5
A2A0
  8
0
 10
404.741588304375
 20
370.80426803096572
 30
0.0
  0
VERTEX
  5
A2A1
  8
0
 10
404.80364567105329
 20
370.74308331306872
 30
0.0
  0
VERTEX
  5
A2A2
  8
0
 10
404.86692716890587
 20
370.68309329842469
 30
0.0
  0
VERTEX
  5
A2A3
  8
0
 10
404.93139473117429
 20
370.6243372484721
 30
0.0
  0
VERTEX
  5
A2A4
  8
0
 10
404.99700935656568
 20
370.56685218449212
 30
0.0
  0
VERTEX
  5
A2A5
  8
0
 10
405.03023818013338
 20
370.53859405116219
 30
0.0
  0
VERTEX
  5
A2A6
  8
0
 10
405.06374401302941
 20
370.51066234398218
 30
0.0
  0
VERTEX
  5
A2A7
  8
0
 10
405.13156601482927
 20
370.45579533638357
 30
0.0
  0
VERTEX
  5
A2A8
  8
0
 10
405.20043273291822
 20
370.40228460838608
 30
0.0
  0
VERTEX
  5
A2A9
  8
0
 10
405.27029964454908
 20
370.35016217378222
 30
0.0
  0
VERTEX
  5
A2AA
  8
0
 10
405.34112048278757
 20
370.29945843047
 30
0.0
  0
VERTEX
  5
A2AB
  8
0
 10
405.41284739776341
 20
370.25020199415189
 30
0.0
  0
VERTEX
  5
A2AC
  8
0
 10
405.44903529044541
 20
370.2261249339802
 30
0.0
  0
VERTEX
  5
A2AD
  8
0
 10
405.48543112968991
 20
370.20241954842851
 30
0.0
  0
VERTEX
  5
A2AE
  8
0
 10
405.55882119379697
 20
370.15613571106837
 30
0.0
  0
VERTEX
  5
A2AF
  8
0
 10
405.63296607746992
 20
370.1113729163219
 30
0.0
  0
VERTEX
  5
A2B0
  8
0
 10
405.67030524924797
 20
370.08956829822671
 30
0.0
  0
VERTEX
  5
A2B1
  8
0
 10
405.70781344998289
 20
370.06815131325158
 30
0.0
  0
VERTEX
  5
A2B2
  8
0
 10
405.78331038238139
 20
370.02648868175339
 30
0.0
  0
VERTEX
  5
A2B3
  8
0
 10
405.85940326087939
 20
369.9864005292095
 30
0.0
  0
VERTEX
  5
A2B4
  8
0
 10
405.89765601003359
 20
369.96695122974171
 30
0.0
  0
VERTEX
  5
A2B5
  8
0
 10
405.93603691384988
 20
369.94790054964261
 30
0.0
  0
VERTEX
  5
A2B6
  8
0
 10
406.01315439572357
 20
369.91100064364377
 30
0.0
  0
VERTEX
  5
A2B7
  8
0
 10
406.09069716417611
 20
369.87571073243032
 30
0.0
  0
VERTEX
  5
A2B8
  8
0
 10
406.16860527263759
 20
369.84203858966367
 30
0.0
  0
VERTEX
  5
A2B9
  8
0
 10
406.24681757144162
 20
369.80998969423109
 30
0.0
  0
VERTEX
  5
A2BA
  8
0
 10
406.32527191759522
 20
369.77956710358723
 30
0.0
  0
VERTEX
  5
A2BB
  8
0
 10
406.36457022074552
 20
369.76496593929988
 30
0.0
  0
VERTEX
  5
A2BC
  8
0
 10
406.4039053934107
 20
369.75077134731077
 30
0.0
  0
VERTEX
  5
A2BD
  8
0
 10
406.48265453447078
 20
369.72360034063132
 30
0.0
  0
VERTEX
  5
A2BE
  8
0
 10
406.56145556762829
 20
369.6980493177669
 30
0.0
  0
VERTEX
  5
A2BF
  8
0
 10
406.64061764704633
 20
369.674001241773
 30
0.0
  0
VERTEX
  5
A2C0
  8
0
 10
406.720678776162
 20
369.65130368648153
 30
0.0
  0
VERTEX
  5
A2C1
  8
0
 10
406.80159672618169
 20
369.62999612275399
 30
0.0
  0
VERTEX
  5
A2C2
  8
0
 10
406.8423610830186
 20
369.61987601093722
 30
0.0
  0
VERTEX
  5
A2C3
  8
0
 10
406.88332038348102
 20
369.61011799870789
 30
0.0
  0
VERTEX
  5
A2C4
  8
0
 10
406.96579750254659
 20
369.59170629047583
 30
0.0
  0
VERTEX
  5
A2C5
  8
0
 10
407.04897494497112
 20
369.57479543561459
 30
0.0
  0
VERTEX
  5
A2C6
  8
0
 10
407.13279892280752
 20
369.55941728857613
 30
0.0
  0
VERTEX
  5
A2C7
  8
0
 10
407.21721524688922
 20
369.54560109821409
 30
0.0
  0
VERTEX
  5
A2C8
  8
0
 10
407.30216958056508
 20
369.53337350754862
 30
0.0
  0
VERTEX
  5
A2C9
  8
0
 10
407.3448315441978
 20
369.52786305555571
 30
0.0
  0
VERTEX
  5
A2CA
  8
0
 10
407.38760769914052
 20
369.52275857618071
 30
0.0
  0
VERTEX
  5
A2CB
  8
0
 10
407.4734757541982
 20
369.51377782603493
 30
0.0
  0
VERTEX
  5
A2CC
  8
0
 10
407.55972027881722
 20
369.50645033086522
 30
0.0
  0
VERTEX
  5
A2CD
  8
0
 10
407.64628722703532
 20
369.50079285330207
 30
0.0
  0
VERTEX
  5
A2CE
  8
0
 10
407.7331216203624
 20
369.49681984058572
 30
0.0
  0
VERTEX
  5
A2CF
  8
0
 10
407.82016776813037
 20
369.4945433629353
 30
0.0
  0
VERTEX
  5
A2D0
  8
0
 10
407.86375271013139
 20
369.49404443590021
 30
0.0
  0
VERTEX
  5
A2D1
  8
0
 10
407.90736950420842
 20
369.49397307127379
 30
0.0
  0
VERTEX
  5
A2D2
  8
0
 10
407.99467042293691
 20
369.49511617600211
 30
0.0
  0
VERTEX
  5
A2D3
  8
0
 10
408.08201411462949
 20
369.49797744665682
 30
0.0
  0
VERTEX
  5
A2D4
  8
0
 10
408.16934440094832
 20
369.50255923245118
 30
0.0
  0
VERTEX
  5
A2D5
  8
0
 10
408.25660557040101
 20
369.50886150384241
 30
0.0
  0
VERTEX
  5
A2D6
  8
0
 10
408.34374261413808
 20
369.51688191541172
 30
0.0
  0
VERTEX
  5
A2D7
  8
0
 10
408.38724814948267
 20
369.52153513398241
 30
0.0
  0
VERTEX
  5
A2D8
  8
0
 10
408.43070815819777
 20
369.5266167068429
 30
0.0
  0
VERTEX
  5
A2D9
  8
0
 10
408.51746888928022
 20
369.53806235895792
 30
0.0
  0
VERTEX
  5
A2DA
  8
0
 10
408.60397212377751
 20
369.55121157089422
 30
0.0
  0
VERTEX
  5
A2DB
  8
0
 10
408.6471101771449
 20
369.55842203131061
 30
0.0
  0
VERTEX
  5
A2DC
  8
0
 10
408.69016342967052
 20
369.56605450277073
 30
0.0
  0
VERTEX
  5
A2DD
  8
0
 10
408.775988260053
 20
369.58257889230151
 30
0.0
  0
VERTEX
  5
A2DE
  8
0
 10
408.86139219503087
 20
369.60077005093842
 30
0.0
  0
VERTEX
  5
A2DF
  8
0
 10
408.90391941380273
 20
369.61048541879552
 30
0.0
  0
VERTEX
  5
A2E0
  8
0
 10
408.9463211792804
 20
369.62061088072898
 30
0.0
  0
VERTEX
  5
A2E1
  8
0
 10
409.03072175550909
 20
369.64208191176641
 30
0.0
  0
VERTEX
  5
A2E2
  8
0
 10
409.11454129408679
 20
369.66516136025871
 30
0.0
  0
VERTEX
  5
A2E3
  8
0
 10
409.1977282191196
 20
369.68982520740587
 30
0.0
  0
VERTEX
  5
A2E4
  8
0
 10
409.28023223124632
 20
369.71604729942402
 30
0.0
  0
VERTEX
  5
A2E5
  8
0
 10
409.36200442785588
 20
369.74379943435753
 30
0.0
  0
VERTEX
  5
A2E6
  8
0
 10
409.4026010183743
 20
369.75823984388057
 30
0.0
  0
VERTEX
  5
A2E7
  8
0
 10
409.44299656364319
 20
369.77305113923592
 30
0.0
  0
VERTEX
  5
A2E8
  8
0
 10
409.52316044425601
 20
369.80376939637318
 30
0.0
  0
VERTEX
  5
A2E9
  8
0
 10
409.60244813426152
 20
369.83591861954778
 30
0.0
  0
VERTEX
  5
A2EA
  8
0
 10
409.68081222367022
 20
369.86946067346048
 30
0.0
  0
VERTEX
  5
A2EB
  8
0
 10
409.75820608430598
 20
369.90435491472209
 30
0.0
  0
VERTEX
  5
A2EC
  8
0
 10
409.834584116249
 20
369.94055825394918
 30
0.0
  0
VERTEX
  5
A2ED
  8
0
 10
409.87237828613701
 20
369.95913672103939
 30
0.0
  0
VERTEX
  5
A2EE
  8
0
 10
409.90990198473122
 20
369.97802523876931
 30
0.0
  0
VERTEX
  5
A2EF
  8
0
 10
409.9841168479615
 20
370.01670815776271
 30
0.0
  0
VERTEX
  5
A2F0
  8
0
 10
410.05718757647082
 20
370.05655716561819
 30
0.0
  0
VERTEX
  5
A2F1
  8
0
 10
410.09328155766201
 20
370.07690282842287
 30
0.0
  0
SEQEND
  5
A2F2
  8
0
  0
POLYLINE
  5
9455
  8
0
 66
     1
 10
0.0
 20
0.0
 30
0.0
  0
VERTEX
  5
A2F3
  8
0
 10
348.44838844602327
 20
486.05478512265631
 30
0.0
  0
VERTEX
  5
A2F4
  8
0
 10
348.44817233239661
 20
486.098613918078
 30
0.0
  0
VERTEX
  5
A2F5
  8
0
 10
348.4464420866052
 20
486.18630388286903
 30
0.0
  0
VERTEX
  5
A2F6
  8
0
 10
348.44297969052599
 20
486.27398496755882
 30
0.0
  0
VERTEX
  5
A2F7
  8
0
 10
348.44059906946131
 20
486.31780266653118
 30
0.0
  0
VERTEX
  5
A2F8
  8
0
 10
348.43778593251091
 20
486.36159475623867
 30
0.0
  0
VERTEX
  5
A2F9
  8
0
 10
348.43086370576162
 20
486.44907987594689
 30
0.0
  0
VERTEX
  5
A2FA
  8
0
 10
348.42221691837273
 20
486.53639788461282
 30
0.0
  0
VERTEX
  5
A2FB
  8
0
 10
348.41185314107679
 20
486.62348841760308
 30
0.0
  0
VERTEX
  5
A2FC
  8
0
 10
348.39978290030831
 20
486.71029011589991
 30
0.0
  0
VERTEX
  5
A2FD
  8
0
 10
348.38601966281198
 20
486.79674153578321
 30
0.0
  0
VERTEX
  5
A2FE
  8
0
 10
348.3785081835922
 20
486.83981673807028
 30
0.0
  0
VERTEX
  5
A2FF
  8
0
 10
348.37057983742397
 20
486.88278143717957
 30
0.0
  0
VERTEX
  5
A300
  8
0
 10
348.35348275183202
 20
486.96834906666868
 30
0.0
  0
VERTEX
  5
A301
  8
0
 10
348.33475060443021
 20
487.05338443592092
 30
0.0
  0
VERTEX
  5
A302
  8
0
 10
348.31440839115157
 20
487.1378285963799
 30
0.0
  0
VERTEX
  5
A303
  8
0
 10
348.2924838068821
 20
487.2216239110428
 30
0.0
  0
VERTEX
  5
A304
  8
0
 10
348.26900715358209
 20
487.30471421231528
 30
0.0
  0
VERTEX
  5
A305
  8
0
 10
348.256697026974
 20
487.34597764305983
 30
0.0
  0
VERTEX
  5
A306
  8
0
 10
348.24401153366853
 20
487.38704401006203
 30
0.0
  0
VERTEX
  5
A307
  8
0
 10
348.21753310152872
 20
487.46855784715473
 30
0.0
  0
VERTEX
  5
A308
  8
0
 10
348.18961108797612
 20
487.54920054736323
 30
0.0
  0
VERTEX
  5
A309
  8
0
 10
348.17512183437748
 20
487.58917813193398
 30
0.0
  0
VERTEX
  5
A30A
  8
0
 10
348.16028777928108
 20
487.6289175253803
 30
0.0
  0
VERTEX
  5
A30B
  8
0
 10
348.12960847056769
 20
487.70765508398858
 30
0.0
  0
VERTEX
  5
A30C
  8
0
 10
348.0976213940753
 20
487.78536069913861
 30
0.0
  0
VERTEX
  5
A30D
  8
0
 10
348.08115329531989
 20
487.8238105025714
 30
0.0
  0
VERTEX
  5
A30E
  8
0
 10
348.06437762245508
 20
487.86198329391692
 30
0.0
  0
VERTEX
  5
A30F
  8
0
 10
348.02993094692101
 20
487.9374735025238
 30
0.0
  0
VERTEX
  5
A310
  8
0
 10
347.99430304545689
 20
488.01185464638121
 30
0.0
  0
VERTEX
  5
A311
  8
0
 10
347.95717286945683
 20
488.08581144890758
 30
0.0
  0
VERTEX
  5
A312
  8
0
 10
347.91845052838153
 20
488.15947632836082
 30
0.0
  0
VERTEX
  5
A313
  8
0
 10
347.87814078245901
 20
488.23278551814951
 30
0.0
  0
VERTEX
  5
A314
  8
0
 10
347.85739282756907
 20
488.2692870001049
 30
0.0
  0
VERTEX
  5
A315
  8
0
 10
347.83625096883412
 20
488.30567599706069
 30
0.0
  0
VERTEX
  5
A316
  8
0
 10
347.79279089862263
 20
488.37808570814133
 30
0.0
  0
VERTEX
  5
A317
  8
0
 10
347.74777273590462
 20
488.44995376552629
 30
0.0
  0
VERTEX
  5
A318
  8
0
 10
347.70121085833438
 20
488.52122064982711
 30
0.0
  0
VERTEX
  5
A319
  8
0
 10
347.65312169895611
 20
488.59182839243232
 30
0.0
  0
VERTEX
  5
A31A
  8
0
 10
347.60352356879099
 20
488.66172074883917
 30
0.0
  0
VERTEX
  5
A31B
  8
0
 10
347.57816482726912
 20
488.69638159239798
 30
0.0
  0
VERTEX
  5
A31C
  8
0
 10
347.5524364597232
 20
488.73084336085748
 30
0.0
  0
VERTEX
  5
A31D
  8
0
 10
347.49988184802578
 20
488.79914388082381
 30
0.0
  0
VERTEX
  5
A31E
  8
0
 10
347.44588291341319
 20
488.86657155603848
 30
0.0
  0
VERTEX
  5
A31F
  8
0
 10
347.39046507184599
 20
488.93307653604478
 30
0.0
  0
VERTEX
  5
A320
  8
0
 10
347.33365597434067
 20
488.99860994730147
 30
0.0
  0
VERTEX
  5
A321
  8
0
 10
347.27548538814432
 20
489.06312409553522
 30
0.0
  0
VERTEX
  5
A322
  8
0
 10
347.24589938526969
 20
489.09498441051687
 30
0.0
  0
VERTEX
  5
A323
  8
0
 10
347.21598506374079
 20
489.12657265351419
 30
0.0
  0
VERTEX
  5
A324
  8
0
 10
347.15518858767149
 20
489.18891083461699
 30
0.0
  0
VERTEX
  5
A325
  8
0
 10
347.0931312209932
 20
489.25009555251449
 30
0.0
  0
VERTEX
  5
A326
  8
0
 10
347.0298497231401
 20
489.31008556715813
 30
0.0
  0
VERTEX
  5
A327
  8
0
 10
346.9653821608718
 20
489.3688416171106
 30
0.0
  0
VERTEX
  5
A328
  8
0
 10
346.89976753548081
 20
489.42632668109098
 30
0.0
  0
VERTEX
  5
A329
  8
0
 10
346.86653871191271
 20
489.45458481442051
 30
0.0
  0
VERTEX
  5
A32A
  8
0
 10
346.83303287901708
 20
489.48251652160047
 30
0.0
  0
VERTEX
  5
A32B
  8
0
 10
346.7652108772167
 20
489.53738352919919
 30
0.0
  0
VERTEX
  5
A32C
  8
0
 10
346.69634415912788
 20
489.59089425719662
 30
0.0
  0
VERTEX
  5
A32D
  8
0
 10
346.62647724749701
 20
489.6430166918006
 30
0.0
  0
VERTEX
  5
A32E
  8
0
 10
346.55565640925897
 20
489.69372043511271
 30
0.0
  0
VERTEX
  5
A32F
  8
0
 10
346.48392949428307
 20
489.74297687143081
 30
0.0
  0
VERTEX
  5
A330
  8
0
 10
346.44774160160108
 20
489.7670539316025
 30
0.0
  0
VERTEX
  5
A331
  8
0
 10
346.41134576235658
 20
489.79075931715431
 30
0.0
  0
VERTEX
  5
A332
  8
0
 10
346.33795569824952
 20
489.83704315451428
 30
0.0
  0
VERTEX
  5
A333
  8
0
 10
346.26381081457657
 20
489.88180594926081
 30
0.0
  0
VERTEX
  5
A334
  8
0
 10
346.22647164279812
 20
489.90361056735611
 30
0.0
  0
VERTEX
  5
A335
  8
0
 10
346.1889634420636
 20
489.92502755233119
 30
0.0
  0
VERTEX
  5
A336
  8
0
 10
346.1134665096647
 20
489.96669018382931
 30
0.0
  0
VERTEX
  5
A337
  8
0
 10
346.03737363116721
 20
490.0067783363732
 30
0.0
  0
VERTEX
  5
A338
  8
0
 10
345.9991208820129
 20
490.026227635841
 30
0.0
  0
VERTEX
  5
A339
  8
0
 10
345.96073997819673
 20
490.0452783159401
 30
0.0
  0
VERTEX
  5
A33A
  8
0
 10
345.88362249632252
 20
490.08217822193888
 30
0.0
  0
VERTEX
  5
A33B
  8
0
 10
345.80607972787038
 20
490.11746813315239
 30
0.0
  0
VERTEX
  5
A33C
  8
0
 10
345.72817161940878
 20
490.15114027591898
 30
0.0
  0
VERTEX
  5
A33D
  8
0
 10
345.64995932060492
 20
490.18318917135161
 30
0.0
  0
VERTEX
  5
A33E
  8
0
 10
345.57150497445127
 20
490.21361176199548
 30
0.0
  0
VERTEX
  5
A33F
  8
0
 10
345.53220667130108
 20
490.22821292628282
 30
0.0
  0
VERTEX
  5
A340
  8
0
 10
345.4928714986354
 20
490.24240751827188
 30
0.0
  0
VERTEX
  5
A341
  8
0
 10
345.4141223575752
 20
490.26957852495138
 30
0.0
  0
VERTEX
  5
A342
  8
0
 10
345.33532132441809
 20
490.29512954781592
 30
0.0
  0
VERTEX
  5
A343
  8
0
 10
345.25615924500022
 20
490.31917762380982
 30
0.0
  0
VERTEX
  5
A344
  8
0
 10
345.17609811588449
 20
490.34187517910118
 30
0.0
  0
VERTEX
  5
A345
  8
0
 10
345.0951801658648
 20
490.36318274282871
 30
0.0
  0
VERTEX
  5
A346
  8
0
 10
345.05441580902789
 20
490.37330285464549
 30
0.0
  0
VERTEX
  5
A347
  8
0
 10
345.01345650856501
 20
490.38306086687481
 30
0.0
  0
VERTEX
  5
A348
  8
0
 10
344.9309793894995
 20
490.40147257510699
 30
0.0
  0
VERTEX
  5
A349
  8
0
 10
344.84780194707542
 20
490.41838342996812
 30
0.0
  0
VERTEX
  5
A34A
  8
0
 10
344.76397796923862
 20
490.43376157700658
 30
0.0
  0
VERTEX
  5
A34B
  8
0
 10
344.67956164515732
 20
490.44757776736861
 30
0.0
  0
VERTEX
  5
A34C
  8
0
 10
344.59460731148101
 20
490.45980535803409
 30
0.0
  0
VERTEX
  5
A34D
  8
0
 10
344.55194534784869
 20
490.46531581002711
 30
0.0
  0
VERTEX
  5
A34E
  8
0
 10
344.50916919290557
 20
490.470420289402
 30
0.0
  0
VERTEX
  5
A34F
  8
0
 10
344.42330113784828
 20
490.47940103954789
 30
0.0
  0
VERTEX
  5
A350
  8
0
 10
344.33705661322938
 20
490.48672853471749
 30
0.0
  0
VERTEX
  5
A351
  8
0
 10
344.25048966501072
 20
490.49238601228058
 30
0.0
  0
VERTEX
  5
A352
  8
0
 10
344.16365527168369
 20
490.49635902499699
 30
0.0
  0
VERTEX
  5
A353
  8
0
 10
344.07660912391611
 20
490.4986355026474
 30
0.0
  0
VERTEX
  5
A354
  8
0
 10
344.0330241819147
 20
490.4991344296825
 30
0.0
  0
VERTEX
  5
A355
  8
0
 10
343.98940738783813
 20
490.49920579430892
 30
0.0
  0
VERTEX
  5
A356
  8
0
 10
343.90210646910919
 20
490.49806268958059
 30
0.0
  0
VERTEX
  5
A357
  8
0
 10
343.81476277741649
 20
490.495201418926
 30
0.0
  0
VERTEX
  5
A358
  8
0
 10
343.72743249109823
 20
490.49061963313147
 30
0.0
  0
VERTEX
  5
A359
  8
0
 10
343.64017132164548
 20
490.4843173617403
 30
0.0
  0
VERTEX
  5
A35A
  8
0
 10
343.55303427790841
 20
490.47629695017099
 30
0.0
  0
VERTEX
  5
A35B
  8
0
 10
343.5095287425633
 20
490.47164373160041
 30
0.0
  0
VERTEX
  5
A35C
  8
0
 10
343.46606873384832
 20
490.4665621587398
 30
0.0
  0
VERTEX
  5
A35D
  8
0
 10
343.37930800276632
 20
490.45511650662479
 30
0.0
  0
VERTEX
  5
A35E
  8
0
 10
343.29280476826898
 20
490.44196729468848
 30
0.0
  0
VERTEX
  5
A35F
  8
0
 10
343.24966671490159
 20
490.43475683427209
 30
0.0
  0
VERTEX
  5
A360
  8
0
 10
343.20661346237603
 20
490.42712436281198
 30
0.0
  0
VERTEX
  5
A361
  8
0
 10
343.12078863199349
 20
490.41059997328131
 30
0.0
  0
VERTEX
  5
A362
  8
0
 10
343.03538469701562
 20
490.39240881464428
 30
0.0
  0
VERTEX
  5
A363
  8
0
 10
342.99285747824342
 20
490.3826934467873
 30
0.0
  0
VERTEX
  5
A364
  8
0
 10
342.95045571276609
 20
490.37256798485379
 30
0.0
  0
VERTEX
  5
A365
  8
0
 10
342.8660551365374
 20
490.3510969538163
 30
0.0
  0
VERTEX
  5
A366
  8
0
 10
342.7822355979597
 20
490.32801750532388
 30
0.0
  0
VERTEX
  5
A367
  8
0
 10
342.69904867292689
 20
490.30335365817677
 30
0.0
  0
VERTEX
  5
A368
  8
0
 10
342.61654466080017
 20
490.27713156615869
 30
0.0
  0
VERTEX
  5
A369
  8
0
 10
342.53477246419061
 20
490.24937943122518
 30
0.0
  0
VERTEX
  5
A36A
  8
0
 10
342.49417587367179
 20
490.23493902170208
 30
0.0
  0
VERTEX
  5
A36B
  8
0
 10
342.4537803284029
 20
490.22012772634679
 30
0.0
  0
VERTEX
  5
A36C
  8
0
 10
342.37361644779003
 20
490.18940946920952
 30
0.0
  0
VERTEX
  5
A36D
  8
0
 10
342.29432875778502
 20
490.15726024603481
 30
0.0
  0
VERTEX
  5
A36E
  8
0
 10
342.21596466837582
 20
490.12371819212223
 30
0.0
  0
VERTEX
  5
A36F
  8
0
 10
342.13857080774051
 20
490.08882395086061
 30
0.0
  0
VERTEX
  5
A370
  8
0
 10
342.06219277579709
 20
490.05262061163347
 30
0.0
  0
VERTEX
  5
A371
  8
0
 10
342.02439860590948
 20
490.03404214454332
 30
0.0
  0
VERTEX
  5
A372
  8
0
 10
341.98687490731481
 20
490.01515362681289
 30
0.0
  0
VERTEX
  5
A373
  8
0
 10
341.91266004408448
 20
489.97647070782
 30
0.0
  0
VERTEX
  5
A374
  8
0
 10
341.83958931557532
 20
489.93662169996452
 30
0.0
  0
VERTEX
  5
A375
  8
0
 10
341.80349533438402
 20
489.91627603715989
 30
0.0
  0
SEQEND
  5
A376
  8
0
  0
POLYLINE
  5
9457
  8
0
 66
     1
 10
0.0
 20
0.0
 30
0.0
  0
VERTEX
  5
A377
  8
0
 10
341.80349533438402
 20
370.07690282842287
 30
0.0
  0
VERTEX
  5
A378
  8
0
 10
341.83958931557532
 20
370.05655716561819
 30
0.0
  0
VERTEX
  5
A379
  8
0
 10
341.91266004408499
 20
370.01670815776271
 30
0.0
  0
VERTEX
  5
A37A
  8
0
 10
341.98687490731481
 20
369.97802523876931
 30
0.0
  0
VERTEX
  5
A37B
  8
0
 10
342.02439860590948
 20
369.95913672103939
 30
0.0
  0
VERTEX
  5
A37C
  8
0
 10
342.06219277579709
 20
369.94055825394918
 30
0.0
  0
VERTEX
  5
A37D
  8
0
 10
342.13857080774051
 20
369.90435491472209
 30
0.0
  0
VERTEX
  5
A37E
  8
0
 10
342.21596466837627
 20
369.86946067346048
 30
0.0
  0
VERTEX
  5
A37F
  8
0
 10
342.29432875778502
 20
369.83591861954778
 30
0.0
  0
VERTEX
  5
A380
  8
0
 10
342.37361644779048
 20
369.80376939637318
 30
0.0
  0
VERTEX
  5
A381
  8
0
 10
342.4537803284029
 20
369.77305113923592
 30
0.0
  0
VERTEX
  5
A382
  8
0
 10
342.49417587367179
 20
369.75823984388057
 30
0.0
  0
VERTEX
  5
A383
  8
0
 10
342.53477246419061
 20
369.74379943435753
 30
0.0
  0
VERTEX
  5
A384
  8
0
 10
342.61654466080017
 20
369.71604729942402
 30
0.0
  0
VERTEX
  5
A385
  8
0
 10
342.69904867292689
 20
369.68982520740587
 30
0.0
  0
VERTEX
  5
A386
  8
0
 10
342.7822355979597
 20
369.66516136025871
 30
0.0
  0
VERTEX
  5
A387
  8
0
 10
342.8660551365374
 20
369.64208191176641
 30
0.0
  0
VERTEX
  5
A388
  8
0
 10
342.95045571276609
 20
369.62061088072898
 30
0.0
  0
VERTEX
  5
A389
  8
0
 10
342.99285747824388
 20
369.61048541879552
 30
0.0
  0
VERTEX
  5
A38A
  8
0
 10
343.03538469701562
 20
369.60077005093842
 30
0.0
  0
VERTEX
  5
A38B
  8
0
 10
343.12078863199349
 20
369.58257889230151
 30
0.0
  0
VERTEX
  5
A38C
  8
0
 10
343.20661346237603
 20
369.56605450277073
 30
0.0
  0
VERTEX
  5
A38D
  8
0
 10
343.24966671490159
 20
369.55842203131061
 30
0.0
  0
VERTEX
  5
A38E
  8
0
 10
343.29280476826898
 20
369.55121157089422
 30
0.0
  0
VERTEX
  5
A38F
  8
0
 10
343.37930800276632
 20
369.53806235895792
 30
0.0
  0
VERTEX
  5
A390
  8
0
 10
343.46606873384832
 20
369.5266167068429
 30
0.0
  0
VERTEX
  5
A391
  8
0
 10
343.5095287425633
 20
369.52153513398241
 30
0.0
  0
VERTEX
  5
A392
  8
0
 10
343.55303427790841
 20
369.51688191541172
 30
0.0
  0
VERTEX
  5
A393
  8
0
 10
343.64017132164548
 20
369.50886150384241
 30
0.0
  0
VERTEX
  5
A394
  8
0
 10
343.72743249109823
 20
369.50255923245118
 30
0.0
  0
VERTEX
  5
A395
  8
0
 10
343.81476277741649
 20
369.49797744665682
 30
0.0
  0
VERTEX
  5
A396
  8
0
 10
343.90210646910919
 20
369.49511617600211
 30
0.0
  0
VERTEX
  5
A397
  8
0
 10
343.98940738783813
 20
369.49397307127379
 30
0.0
  0
VERTEX
  5
A398
  8
0
 10
344.0330241819147
 20
369.49404443590021
 30
0.0
  0
VERTEX
  5
A399
  8
0
 10
344.07660912391611
 20
369.4945433629353
 30
0.0
  0
VERTEX
  5
A39A
  8
0
 10
344.16365527168369
 20
369.49681984058572
 30
0.0
  0
VERTEX
  5
A39B
  8
0
 10
344.25048966501072
 20
369.50079285330207
 30
0.0
  0
VERTEX
  5
A39C
  8
0
 10
344.33705661322938
 20
369.50645033086522
 30
0.0
  0
VERTEX
  5
A39D
  8
0
 10
344.42330113784828
 20
369.51377782603493
 30
0.0
  0
VERTEX
  5
A39E
  8
0
 10
344.50916919290557
 20
369.52275857618071
 30
0.0
  0
VERTEX
  5
A39F
  8
0
 10
344.55194534784869
 20
369.52786305555571
 30
0.0
  0
VERTEX
  5
A3A0
  8
0
 10
344.59460731148101
 20
369.53337350754862
 30
0.0
  0
VERTEX
  5
A3A1
  8
0
 10
344.67956164515732
 20
369.54560109821409
 30
0.0
  0
VERTEX
  5
A3A2
  8
0
 10
344.76397796923862
 20
369.55941728857613
 30
0.0
  0
VERTEX
  5
A3A3
  8
0
 10
344.84780194707542
 20
369.57479543561459
 30
0.0
  0
VERTEX
  5
A3A4
  8
0
 10
344.9309793894999
 20
369.59170629047583
 30
0.0
  0
VERTEX
  5
A3A5
  8
0
 10
345.01345650856501
 20
369.61011799870789
 30
0.0
  0
VERTEX
  5
A3A6
  8
0
 10
345.05441580902789
 20
369.61987601093722
 30
0.0
  0
VERTEX
  5
A3A7
  8
0
 10
345.0951801658648
 20
369.62999612275399
 30
0.0
  0
VERTEX
  5
A3A8
  8
0
 10
345.17609811588449
 20
369.65130368648153
 30
0.0
  0
VERTEX
  5
A3A9
  8
0
 10
345.25615924500022
 20
369.674001241773
 30
0.0
  0
VERTEX
  5
A3AA
  8
0
 10
345.33532132441809
 20
369.6980493177669
 30
0.0
  0
VERTEX
  5
A3AB
  8
0
 10
345.4141223575752
 20
369.72360034063132
 30
0.0
  0
VERTEX
  5
A3AC
  8
0
 10
345.4928714986354
 20
369.75077134731077
 30
0.0
  0
VERTEX
  5
A3AD
  8
0
 10
345.53220667130108
 20
369.76496593929988
 30
0.0
  0
VERTEX
  5
A3AE
  8
0
 10
345.57150497445127
 20
369.77956710358723
 30
0.0
  0
VERTEX
  5
A3AF
  8
0
 10
345.64995932060492
 20
369.80998969423109
 30
0.0
  0
VERTEX
  5
A3B0
  8
0
 10
345.72817161940878
 20
369.84203858966367
 30
0.0
  0
VERTEX
  5
A3B1
  8
0
 10
345.80607972787038
 20
369.87571073243032
 30
0.0
  0
VERTEX
  5
A3B2
  8
0
 10
345.88362249632252
 20
369.91100064364377
 30
0.0
  0
VERTEX
  5
A3B3
  8
0
 10
345.96073997819673
 20
369.94790054964261
 30
0.0
  0
VERTEX
  5
A3B4
  8
0
 10
345.9991208820129
 20
369.96695122974171
 30
0.0
  0
VERTEX
  5
A3B5
  8
0
 10
346.03737363116721
 20
369.9864005292095
 30
0.0
  0
VERTEX
  5
A3B6
  8
0
 10
346.1134665096647
 20
370.02648868175339
 30
0.0
  0
VERTEX
  5
A3B7
  8
0
 10
346.1889634420636
 20
370.06815131325158
 30
0.0
  0
VERTEX
  5
A3B8
  8
0
 10
346.22647164279812
 20
370.08956829822671
 30
0.0
  0
VERTEX
  5
A3B9
  8
0
 10
346.26381081457657
 20
370.1113729163219
 30
0.0
  0
VERTEX
  5
A3BA
  8
0
 10
346.33795569824952
 20
370.15613571106837
 30
0.0
  0
VERTEX
  5
A3BB
  8
0
 10
346.41134576235658
 20
370.20241954842851
 30
0.0
  0
VERTEX
  5
A3BC
  8
0
 10
346.44774160160108
 20
370.2261249339802
 30
0.0
  0
VERTEX
  5
A3BD
  8
0
 10
346.48392949428307
 20
370.25020199415189
 30
0.0
  0
VERTEX
  5
A3BE
  8
0
 10
346.55565640925897
 20
370.29945843047
 30
0.0
  0
VERTEX
  5
A3BF
  8
0
 10
346.62647724749701
 20
370.35016217378222
 30
0.0
  0
VERTEX
  5
A3C0
  8
0
 10
346.69634415912788
 20
370.40228460838608
 30
0.0
  0
VERTEX
  5
A3C1
  8
0
 10
346.76521087721721
 20
370.45579533638357
 30
0.0
  0
VERTEX
  5
A3C2
  8
0
 10
346.83303287901708
 20
370.51066234398218
 30
0.0
  0
VERTEX
  5
A3C3
  8
0
 10
346.86653871191271
 20
370.53859405116219
 30
0.0
  0
VERTEX
  5
A3C4
  8
0
 10
346.89976753548081
 20
370.56685218449212
 30
0.0
  0
VERTEX
  5
A3C5
  8
0
 10
346.9653821608718
 20
370.6243372484721
 30
0.0
  0
VERTEX
  5
A3C6
  8
0
 10
347.0298497231401
 20
370.68309329842469
 30
0.0
  0
VERTEX
  5
A3C7
  8
0
 10
347.0931312209932
 20
370.74308331306821
 30
0.0
  0
VERTEX
  5
A3C8
  8
0
 10
347.15518858767149
 20
370.80426803096572
 30
0.0
  0
VERTEX
  5
A3C9
  8
0
 10
347.2159850637413
 20
370.86660621206858
 30
0.0
  0
VERTEX
  5
A3CA
  8
0
 10
347.24589938526969
 20
370.89819445506578
 30
0.0
  0
VERTEX
  5
A3CB
  8
0
 10
347.27548538814432
 20
370.93005477004749
 30
0.0
  0
VERTEX
  5
A3CC
  8
0
 10
347.33365597434067
 20
370.99456891828117
 30
0.0
  0
VERTEX
  5
A3CD
  8
0
 10
347.39046507184599
 20
371.06010232953781
 30
0.0
  0
VERTEX
  5
A3CE
  8
0
 10
347.44588291341319
 20
371.12660730954423
 30
0.0
  0
VERTEX
  5
A3CF
  8
0
 10
347.49988184802578
 20
371.19403498475901
 30
0.0
  0
VERTEX
  5
A3D0
  8
0
 10
347.5524364597232
 20
371.26233550472517
 30
0.0
  0
VERTEX
  5
A3D1
  8
0
 10
347.57816482726957
 20
371.29679727318472
 30
0.0
  0
VERTEX
  5
A3D2
  8
0
 10
347.60352356879099
 20
371.33145811674359
 30
0.0
  0
VERTEX
  5
A3D3
  8
0
 10
347.65312169895611
 20
371.4013504731505
 30
0.0
  0
VERTEX
  5
A3D4
  8
0
 10
347.70121085833438
 20
371.47195821575571
 30
0.0
  0
VERTEX
  5
A3D5
  8
0
 10
347.74777273590462
 20
371.54322510005642
 30
0.0
  0
VERTEX
  5
A3D6
  8
0
 10
347.79279089862263
 20
371.61509315744138
 30
0.0
  0
VERTEX
  5
A3D7
  8
0
 10
347.83625096883412
 20
371.68750286852202
 30
0.0
  0
VERTEX
  5
A3D8
  8
0
 10
347.85739282756907
 20
371.72389186547781
 30
0.0
  0
VERTEX
  5
A3D9
  8
0
 10
347.87814078245901
 20
371.76039334743319
 30
0.0
  0
VERTEX
  5
A3DA
  8
0
 10
347.91845052838153
 20
371.83370253722188
 30
0.0
  0
VERTEX
  5
A3DB
  8
0
 10
347.95717286945683
 20
371.90736741667507
 30
0.0
  0
VERTEX
  5
A3DC
  8
0
 10
347.99430304545689
 20
371.98132421920161
 30
0.0
  0
VERTEX
  5
A3DD
  8
0
 10
348.02993094692101
 20
372.05570536305902
 30
0.0
  0
VERTEX
  5
A3DE
  8
0
 10
348.06437762245508
 20
372.13119557166578
 30
0.0
  0
VERTEX
  5
A3DF
  8
0
 10
348.08115329531989
 20
372.1693683630113
 30
0.0
  0
VERTEX
  5
A3E0
  8
0
 10
348.0976213940753
 20
372.2078181664441
 30
0.0
  0
VERTEX
  5
A3E1
  8
0
 10
348.12960847056769
 20
372.28552378159458
 30
0.0
  0
VERTEX
  5
A3E2
  8
0
 10
348.16028777928108
 20
372.3642613402024
 30
0.0
  0
VERTEX
  5
A3E3
  8
0
 10
348.17512183437748
 20
372.40400073364867
 30
0.0
  0
VERTEX
  5
A3E4
  8
0
 10
348.18961108797612
 20
372.44397831821948
 30
0.0
  0
VERTEX
  5
A3E5
  8
0
 10
348.21753310152872
 20
372.52462101842798
 30
0.0
  0
VERTEX
  5
A3E6
  8
0
 10
348.24401153366853
 20
372.60613485552068
 30
0.0
  0
VERTEX
  5
A3E7
  8
0
 10
348.256697026974
 20
372.64720122252339
 30
0.0
  0
VERTEX
  5
A3E8
  8
0
 10
348.26900715358209
 20
372.68846465326749
 30
0.0
  0
VERTEX
  5
A3E9
  8
0
 10
348.2924838068821
 20
372.77155495453991
 30
0.0
  0
VERTEX
  5
A3EA
  8
0
 10
348.31440839115157
 20
372.8553502692028
 30
0.0
  0
VERTEX
  5
A3EB
  8
0
 10
348.33475060443021
 20
372.93979442966179
 30
0.0
  0
VERTEX
  5
A3EC
  8
0
 10
348.35348275183202
 20
373.02482979891403
 30
0.0
  0
VERTEX
  5
A3ED
  8
0
 10
348.37057983742397
 20
373.11039742840308
 30
0.0
  0
VERTEX
  5
A3EE
  8
0
 10
348.3785081835922
 20
373.15336212751242
 30
0.0
  0
VERTEX
  5
A3EF
  8
0
 10
348.38601966281198
 20
373.19643732979949
 30
0.0
  0
VERTEX
  5
A3F0
  8
0
 10
348.39978290030831
 20
373.2828887496828
 30
0.0
  0
VERTEX
  5
A3F1
  8
0
 10
348.41185314107679
 20
373.36969044797962
 30
0.0
  0
VERTEX
  5
A3F2
  8
0
 10
348.42221691837273
 20
373.45678098097028
 30
0.0
  0
VERTEX
  5
A3F3
  8
0
 10
348.43086370576162
 20
373.54409898963593
 30
0.0
  0
VERTEX
  5
A3F4
  8
0
 10
348.43778593251091
 20
373.63158410934398
 30
0.0
  0
VERTEX
  5
A3F5
  8
0
 10
348.44059906946131
 20
373.67537619905153
 30
0.0
  0
VERTEX
  5
A3F6
  8
0
 10
348.44297969052599
 20
373.71919389802389
 30
0.0
  0
VERTEX
  5
A3F7
  8
0
 10
348.4464420866052
 20
373.80687498271368
 30
0.0
  0
VERTEX
  5
A3F8
  8
0
 10
348.44817233239661
 20
373.89456494750482
 30
0.0
  0
VERTEX
  5
A3F9
  8
0
 10
348.44838844602327
 20
373.93839374292691
 30
0.0
  0
SEQEND
  5
A3FA
  8
0
  0
ARC
  5
9458
  8
0
 10
375.94838844602327
 20
429.99658943279138
 30
0.0
 40
68.965517241379345
 50
119.6764073220503
 51
240.3235926779497
  0
ARC
  5
9459
  8
0
 10
375.94838844602327
 20
429.99658943279138
 30
0.0
 40
74.897675240457005
 50
95.650864050825874
 51
84.349135949174112
  0
ARC
  5
945A
  8
0
 10
375.94838844602327
 20
429.99658943279042
 30
0.0
 40
95.350625304302554
 50
92.493173022520381
 51
87.506826977479605
  0
LINE
  5
945B
  8
1
 10
375.94838844602327
 20
314.47838240349108
 30
0.0
 11
375.94838844602327
 21
545.51479646209157
 31
0.0
  0
LINE
  5
945C
  8
1
 10
260.43018141672292
 20
429.99658943279138
 30
0.0
 11
491.46659547532357
 21
429.99658943279138
 31
0.0
  0
LINE
  5
9469
  8
1
 10
94.888286084920722
 20
513.99658943279132
 30
0.0
 11
211.55722613870461
 21
513.99658943279132
 31
0.0
  0
LINE
  5
946A
  8
0
 10
55.23901910940458
 20
414.99658943279132
 30
0.0
 11
55.039019109404308
 21
414.99658943279132
 31
0.0
  0
LINE
  5
946B
  8
0
 10
55.039019109404308
 20
444.99658943279132
 30
0.0
 11
55.23901910940458
 21
444.99658943279132
 31
0.0
  0
ARC
  5
946C
  8
0
 10
55.73901910940458
 20
453.74658943279138
 30
0.0
 40
0.5000000000000061
 50
90.0
 51
180.0
  0
ARC
  5
946D
  8
0
 10
55.73901910940458
 20
406.24658943279132
 30
0.0
 40
0.4999999999999965
 50
180.0
 51
270.0
  0
LINE
  5
946E
  8
0
 10
61.039019109404308
 20
405.74658943279132
 30
0.0
 11
55.73901910940458
 21
405.74658943279132
 31
0.0
  0
LINE
  5
946F
  8
0
 10
55.73901910940458
 20
454.24658943279132
 30
0.0
 11
61.039019109404308
 21
454.24658943279132
 31
0.0
  0
LINE
  5
9470
  8
0
 10
88.039019109404762
 20
359.6262190624206
 30
0.0
 11
61.039019109404308
 21
405.74658943279132
 31
0.0
  0
LINE
  5
9471
  8
0
 10
61.039019109404308
 20
454.24658943279132
 30
0.0
 11
88.039019109404293
 21
500.36695980316188
 31
0.0
  0
ARC
  5
9472
  8
0
 10
97.372352442738261
 20
520.66325609945784
 30
0.0
 40
9.3333333333333286
 50
90.0
 51
180.0
  0
ARC
  5
9473
  8
0
 10
97.372352442737792
 20
339.32992276612492
 30
0.0
 40
9.3333333333333144
 50
180.0
 51
270.0
  0
LINE
  5
9474
  8
0
 10
103.0194158436238
 20
329.99658943279138
 30
0.0
 11
97.372352442737792
 21
329.99658943279138
 31
0.0
  0
LINE
  5
9475
  8
0
 10
97.372352442738261
 20
529.99658943279132
 30
0.0
 11
103.0194158436243
 21
529.99658943279132
 31
0.0
  0
ARC
  5
9476
  8
0
 10
103.0194158436238
 20
501.99658943279047
 30
0.0
 40
28.000000000001108
 50
75.000000000005542
 51
90.0
  0
ARC
  5
9477
  8
0
 10
103.0194158436238
 20
357.99658943279093
 30
0.0
 40
27.999999999999659
 50
270.0
 51
284.99999999999449
  0
LINE
  5
9478
  8
0
 10
113.96371243569141
 20
331.9413718148802
 30
0.0
 11
110.2663491064945
 21
330.9506662966977
 31
0.0
  0
LINE
  5
9479
  8
0
 10
110.266349106495
 20
529.04251256888494
 30
0.0
 11
113.9637124356918
 21
528.05180705070245
 31
0.0
  0
ARC
  5
947A
  8
0
 10
113.23901910940501
 20
525.34721473709283
 30
0.0
 40
2.800000000000014
 50
0.000000000000007
 51
75.000000000005542
  0
ARC
  5
947B
  8
0
 10
113.23901910940459
 20
334.64596412848988
 30
0.0
 40
2.8000000000000251
 50
284.99999999999449
 51
0.000000000000007
  0
LINE
  5
947C
  8
0
 10
55.039019109404308
 20
444.99658943279132
 30
0.0
 11
55.039019109404308
 21
414.99658943279132
 31
0.0
  0
LINE
  5
947D
  8
0
 10
55.23901910940458
 20
453.74658943279138
 30
0.0
 11
55.23901910940458
 21
406.24658943279132
 31
0.0
  0
LINE
  5
947E
  8
0
 10
61.039019109404308
 20
454.24658943279132
 30
0.0
 11
61.039019109404308
 21
405.74658943279132
 31
0.0
  0
LINE
  5
947F
  8
0
 10
88.039019109404762
 20
520.66325609945829
 30
0.0
 11
88.039019109404762
 21
339.32992276612492
 31
0.0
  0
POLYLINE
  5
9480
  8
0
 66
     1
 10
0.0
 20
0.0
 30
0.0
  0
VERTEX
  5
A3FB
  8
0
 10
88.039019109404762
 20
494.99898116604197
 30
0.0
  0
VERTEX
  5
A3FC
  8
0
 10
80.637756995630752
 20
479.54047128007801
 30
0.0
  0
VERTEX
  5
A3FD
  8
0
 10
75.861653396970269
 20
469.11785028390449
 30
0.0
  0
VERTEX
  5
A3FE
  8
0
 10
72.43666724239165
 20
461.04658130886918
 30
0.0
  0
VERTEX
  5
A3FF
  8
0
 10
71.087144312563851
 20
457.61968185821729
 30
0.0
  0
VERTEX
  5
A400
  8
0
 10
69.929164802332707
 20
454.50096291816197
 30
0.0
  0
VERTEX
  5
A401
  8
0
 10
68.083775749285451
 20
448.98062197974758
 30
0.0
  0
VERTEX
  5
A402
  8
0
 10
66.74286879277679
 20
444.16005969004328
 30
0.0
  0
VERTEX
  5
A403
  8
0
 10
65.806801728437677
 20
439.81323299426708
 30
0.0
  0
VERTEX
  5
A404
  8
0
 10
65.421686015191426
 20
437.42801833828872
 30
0.0
  0
VERTEX
  5
A405
  8
0
 10
65.331755115965279
 20
436.76162363915802
 30
0.0
  0
VERTEX
  5
A406
  8
0
 10
65.250462775964479
 20
436.10082754903829
 30
0.0
  0
VERTEX
  5
A407
  8
0
 10
65.213013178182337
 20
435.77234762662943
 30
0.0
  0
VERTEX
  5
A408
  8
0
 10
65.17767365983309
 20
435.44505154236208
 30
0.0
  0
VERTEX
  5
A409
  8
0
 10
65.1132675095173
 20
434.79373108155261
 30
0.0
  0
VERTEX
  5
A40A
  8
0
 10
65.057138640220728
 20
434.14631393563991
 30
0.0
  0
VERTEX
  5
A40B
  8
0
 10
65.009195501721479
 20
433.50225857119932
 30
0.0
  0
VERTEX
  5
A40C
  8
0
 10
64.96936030160532
 20
432.86103260551067
 30
0.0
  0
VERTEX
  5
A40D
  8
0
 10
64.937568687497333
 20
432.22211131244399
 30
0.0
  0
VERTEX
  5
A40E
  8
0
 10
64.924672724681841
 20
431.90335267715022
 30
0.0
  0
VERTEX
  5
A40F
  8
0
 10
64.913769485853209
 20
431.58497617212629
 30
0.0
  0
VERTEX
  5
A410
  8
0
 10
64.897924495314783
 20
430.94911345585319
 30
0.0
  0
VERTEX
  5
A411
  8
0
 10
64.890008333071364
 20
430.31401283807168
 30
0.0
  0
VERTEX
  5
A412
  8
0
 10
64.889019109404671
 20
429.99658943279138
 30
0.0
  0
VERTEX
  5
A413
  8
0
 10
64.890008333071364
 20
429.67916602751097
 30
0.0
  0
VERTEX
  5
A414
  8
0
 10
64.897924495314783
 20
429.04406540973002
 30
0.0
  0
VERTEX
  5
A415
  8
0
 10
64.913769485853209
 20
428.40820269345681
 30
0.0
  0
VERTEX
  5
A416
  8
0
 10
64.924672724681841
 20
428.08982618843288
 30
0.0
  0
VERTEX
  5
A417
  8
0
 10
64.937568687497333
 20
427.77106755313872
 30
0.0
  0
VERTEX
  5
A418
  8
0
 10
64.96936030160532
 20
427.13214626007249
 30
0.0
  0
VERTEX
  5
A419
  8
0
 10
65.009195501721479
 20
426.49092029438339
 30
0.0
  0
VERTEX
  5
A41A
  8
0
 10
65.057138640220728
 20
425.84686492994319
 30
0.0
  0
VERTEX
  5
A41B
  8
0
 10
65.1132675095173
 20
425.1994477840301
 30
0.0
  0
VERTEX
  5
A41C
  8
0
 10
65.17767365983309
 20
424.54812732322063
 30
0.0
  0
VERTEX
  5
A41D
  8
0
 10
65.213013178182337
 20
424.22083123895322
 30
0.0
  0
VERTEX
  5
A41E
  8
0
 10
65.250462775964479
 20
423.89235131654442
 30
0.0
  0
VERTEX
  5
A41F
  8
0
 10
65.331755115965279
 20
423.23155522642509
 30
0.0
  0
VERTEX
  5
A420
  8
0
 10
65.421686015191426
 20
422.56516052729398
 30
0.0
  0
VERTEX
  5
A421
  8
0
 10
65.806801728437677
 20
420.17994587131562
 30
0.0
  0
VERTEX
  5
A422
  8
0
 10
66.74286879277679
 20
415.83311917553988
 30
0.0
  0
VERTEX
  5
A423
  8
0
 10
68.083775749284996
 20
411.01255688583501
 30
0.0
  0
VERTEX
  5
A424
  8
0
 10
69.929164802332707
 20
405.49221594742107
 30
0.0
  0
VERTEX
  5
A425
  8
0
 10
71.087144312563851
 20
402.37349700736542
 30
0.0
  0
VERTEX
  5
A426
  8
0
 10
72.43666724239165
 20
398.94659755671353
 30
0.0
  0
VERTEX
  5
A427
  8
0
 10
75.861653396970269
 20
390.87532858167822
 30
0.0
  0
VERTEX
  5
A428
  8
0
 10
80.637756995630752
 20
380.4527075855047
 30
0.0
  0
VERTEX
  5
A429
  8
0
 10
88.039019109404762
 20
364.99419769954193
 30
0.0
  0
SEQEND
  5
A42A
  8
0
  0
LINE
  5
9481
  8
0
 10
116.03901910940471
 20
525.34721473709283
 30
0.0
 11
116.03901910940471
 21
334.64596412848988
 31
0.0
  0
LINE
  5
9482
  8
1
 10
131.55722613870509
 20
429.99658943279138
 30
0.0
 11
39.520812080103951
 21
429.99658943279138
 31
0.0
  0
LINE
  5
9492
  8
2
 10
383.94838844602322
 20
142.07498504238629
 30
0.0
 11
383.94838844602282
 21
108.0749850423863
 31
0.0
  0
LINE
  5
9493
  8
2
 10
367.94838844602327
 20
108.0749850423863
 30
0.0
 11
367.94838844602282
 21
142.07498504238629
 31
0.0
  0
LINE
  5
9494
  8
0
 10
390.94838844602327
 20
108.2749850423864
 30
0.0
 11
390.94838844602327
 21
108.0749850423863
 31
0.0
  0
LINE
  5
9495
  8
0
 10
360.94838844602327
 20
108.0749850423863
 30
0.0
 11
360.94838844602327
 21
108.2749850423864
 31
0.0
  0
ARC
  5
9496
  8
0
 10
352.19838844602327
 20
108.7749850423864
 30
0.0
 40
0.4999999999999956
 50
180.0
 51
270.0
  0
ARC
  5
9497
  8
0
 10
399.69838844602327
 20
108.7749850423864
 30
0.0
 40
0.4999999999999965
 50
270.0
 51
0.000000000000007
  0
LINE
  5
9498
  8
0
 10
400.19838844602327
 20
114.0749850423863
 30
0.0
 11
400.19838844602327
 21
108.7749850423864
 31
0.0
  0
LINE
  5
9499
  8
0
 10
351.69838844602327
 20
108.7749850423864
 30
0.0
 11
351.69838844602327
 21
114.0749850423863
 31
0.0
  0
LINE
  5
949A
  8
0
 10
445.07333331061631
 20
140.4024552692668
 30
0.0
 11
444.91390568740269
 21
140.3163643527314
 31
0.0
  0
LINE
  5
949B
  8
0
 10
306.9828712046438
 20
140.3163643527314
 30
0.0
 11
306.82344358143018
 21
140.4024552692668
 31
0.0
  0
ARC
  5
949C
  8
0
 10
304.16260965891479
 20
135.47498504238689
 30
0.0
 40
5.5999999999996923
 50
61.630953706730409
 51
90.0
  0
ARC
  5
949D
  8
0
 10
447.7341672331317
 20
135.47498504238689
 30
0.0
 40
5.5999999999996977
 50
90.0
 51
118.36904629326961
  0
ARC
  5
949E
  8
0
 10
285.28172177935681
 20
150.4083183757198
 30
0.0
 40
9.3333333333332842
 50
180.0
 51
270.0
  0
ARC
  5
949F
  8
0
 10
466.61505511268967
 20
150.4083183757198
 30
0.0
 40
9.3333333333333002
 50
270.0
 51
0.000000000000007
  0
LINE
  5
94A0
  8
0
 10
475.94838844602322
 20
156.05538177660631
 30
0.0
 11
475.94838844602322
 21
150.40831837572
 31
0.0
  0
LINE
  5
94A1
  8
0
 10
275.94838844602327
 20
150.40831837572
 30
0.0
 11
275.94838844602327
 21
156.05538177660631
 31
0.0
  0
ARC
  5
94A2
  8
0
 10
303.94838844602282
 20
156.05538177660611
 30
0.0
 40
27.999999999999488
 50
165.0000000000056
 51
179.99999914622629
  0
ARC
  5
94A3
  8
0
 10
447.94838844602373
 20
156.05538177660611
 30
0.0
 40
27.999999999999581
 50
0.000000000000007
 51
14.99999999999441
  0
LINE
  5
94A4
  8
0
 10
474.00360606393451
 20
166.99967836867361
 30
0.0
 11
474.99431158211701
 21
163.30231503947681
 31
0.0
  0
LINE
  5
94A5
  8
0
 10
276.90246530992948
 20
163.30231503947681
 30
0.0
 11
277.89317082811198
 21
166.99967836867361
 31
0.0
  0
ARC
  5
94A6
  8
0
 10
280.59776314172171
 20
166.27498504238659
 30
0.0
 40
2.8000000000000611
 50
90.0
 51
165.0000000000056
  0
ARC
  5
94A7
  8
0
 10
471.29901375032472
 20
166.27498504238659
 30
0.0
 40
2.800000000000046
 50
14.99999999999441
 51
90.0
  0
LINE
  5
94A8
  8
0
 10
360.94838844602327
 20
108.0749850423863
 30
0.0
 11
390.94838844602327
 21
108.0749850423863
 31
0.0
  0
LINE
  5
94A9
  8
2
 10
357.94838844602327
 20
145.07498504238629
 30
0.0
 11
393.94838844602327
 21
145.07498504238629
 31
0.0
  0
LINE
  5
94AA
  8
0
 10
352.19838844602327
 20
108.2749850423864
 30
0.0
 11
399.69838844602327
 21
108.2749850423864
 31
0.0
  0
LINE
  5
94AB
  8
0
 10
349.94838844602327
 20
114.0749850423863
 30
0.0
 11
401.94838844602327
 21
114.0749850423863
 31
0.0
  0
LINE
  5
94AC
  8
0
 10
285.28172177935681
 20
141.0749850423866
 30
0.0
 11
466.61505511268967
 21
141.0749850423866
 31
0.0
  0
LINE
  5
94AD
  8
0
 10
341.80349533438448
 20
140.3163643527314
 30
0.0
 11
306.9828712046442
 21
140.3163643527314
 31
0.0
  0
POLYLINE
  5
94AE
  8
0
 66
     1
 10
0.0
 20
0.0
 30
0.0
  0
VERTEX
  5
A42B
  8
0
 10
408.59328155766212
 20
140.3163643527314
 30
0.0
  0
VERTEX
  5
A42C
  8
0
 10
408.55440176118827
 20
140.3162511858946
 30
0.0
  0
VERTEX
  5
A42D
  8
0
 10
408.47570127561261
 20
140.31534088618631
 30
0.0
  0
VERTEX
  5
A42E
  8
0
 10
408.39578872360192
 20
140.31350847547699
 30
0.0
  0
VERTEX
  5
A42F
  8
0
 10
408.35539448094408
 20
140.31224307033949
 30
0.0
  0
VERTEX
  5
A430
  8
0
 10
408.3147173993998
 20
140.3107432637033
 30
0.0
  0
VERTEX
  5
A431
  8
0
 10
408.23254294696972
 20
140.3070362926772
 30
0.0
  0
VERTEX
  5
A432
  8
0
 10
408.14932297763238
 20
140.3023803389415
 30
0.0
  0
VERTEX
  5
A433
  8
0
 10
408.0651166722709
 20
140.29676989514181
 30
0.0
  0
VERTEX
  5
A434
  8
0
 10
407.9799843686128
 20
140.29020113004509
 30
0.0
  0
VERTEX
  5
A435
  8
0
 10
407.89398713429949
 20
140.28267182728629
 30
0.0
  0
VERTEX
  5
A436
  8
0
 10
407.85068334330151
 20
140.27854670336939
 30
0.0
  0
VERTEX
  5
A437
  8
0
 10
407.80718632672591
 20
140.27418130287589
 30
0.0
  0
VERTEX
  5
A438
  8
0
 10
407.71964314578548
 20
140.264730302039
 30
0.0
  0
VERTEX
  5
A439
  8
0
 10
407.63141873810667
 20
140.2543209442413
 30
0.0
  0
VERTEX
  5
A43A
  8
0
 10
407.54257573901981
 20
140.24295687277029
 30
0.0
  0
VERTEX
  5
A43B
  8
0
 10
407.45317862553969
 20
140.23064333198911
 30
0.0
  0
VERTEX
  5
A43C
  8
0
 10
407.36329334147729
 20
140.21738715859601
 30
0.0
  0
VERTEX
  5
A43D
  8
0
 10
407.31818854826491
 20
140.2104081498392
 30
0.0
  0
VERTEX
  5
A43E
  8
0
 10
407.27298690840553
 20
140.2031967528826
 30
0.0
  0
VERTEX
  5
A43F
  8
0
 10
407.18232703644202
 20
140.18808203210389
 30
0.0
  0
VERTEX
  5
A440
  8
0
 10
407.09138173574001
 20
140.17205436666089
 30
0.0
  0
VERTEX
  5
A441
  8
0
 10
407.04582328952301
 20
140.16370211083071
 30
0.0
  0
VERTEX
  5
A442
  8
0
 10
407.00021892938412
 20
140.15512649969989
 30
0.0
  0
VERTEX
  5
A443
  8
0
 10
406.90890606829822
 20
140.13731245064059
 30
0.0
  0
VERTEX
  5
A444
  8
0
 10
406.81750817990081
 20
140.1186270750257
 30
0.0
  0
VERTEX
  5
A445
  8
0
 10
406.7717889416171
 20
140.10896075733331
 30
0.0
  0
VERTEX
  5
A446
  8
0
 10
406.726063813895
 20
140.09908069378849
 30
0.0
  0
VERTEX
  5
A447
  8
0
 10
406.6346290135416
 20
140.07868787815309
 30
0.0
  0
VERTEX
  5
A448
  8
0
 10
406.5432706129663
 20
140.05746668160651
 30
0.0
  0
VERTEX
  5
A449
  8
0
 10
406.45205611452911
 20
140.0354366557261
 30
0.0
  0
VERTEX
  5
A44A
  8
0
 10
406.36105330942428
 20
140.01261879563739
 30
0.0
  0
VERTEX
  5
A44B
  8
0
 10
406.27032990991978
 20
139.9890354719185
 30
0.0
  0
VERTEX
  5
A44C
  8
0
 10
406.22509403793208
 20
139.9769641084693
 30
0.0
  0
VERTEX
  5
A44D
  8
0
 10
406.17995319340469
 20
139.96471034980331
 30
0.0
  0
VERTEX
  5
A44E
  8
0
 10
406.08998965806671
 20
139.93966829635039
 30
0.0
  0
VERTEX
  5
A44F
  8
0
 10
406.0005046897254
 20
139.91393527605541
 30
0.0
  0
VERTEX
  5
A450
  8
0
 10
405.91156223920552
 20
139.8875382352374
 30
0.0
  0
VERTEX
  5
A451
  8
0
 10
405.82322472684058
 20
139.8605050428778
 30
0.0
  0
VERTEX
  5
A452
  8
0
 10
405.73555419071221
 20
139.83286482752791
 30
0.0
  0
VERTEX
  5
A453
  8
0
 10
405.69198850154771
 20
139.8188265982287
 30
0.0
  0
VERTEX
  5
A454
  8
0
 10
405.64861291514848
 20
139.8046482103089
 30
0.0
  0
VERTEX
  5
A455
  8
0
 10
405.5624630995585
 20
139.77588725162741
 30
0.0
  0
VERTEX
  5
A456
  8
0
 10
405.47716649594298
 20
139.74661537207501
 30
0.0
  0
VERTEX
  5
A457
  8
0
 10
405.39278406884569
 20
139.71686726438139
 30
0.0
  0
VERTEX
  5
A458
  8
0
 10
405.3093756768489
 20
139.6866787971924
 30
0.0
  0
VERTEX
  5
A459
  8
0
 10
405.22699977431961
 20
139.6560869111604
 30
0.0
  0
VERTEX
  5
A45A
  8
0
 10
405.18621682045648
 20
139.6406514959022
 30
0.0
  0
VERTEX
  5
A45B
  8
0
 10
405.14571313175162
 20
139.62512950756241
 30
0.0
  0
VERTEX
  5
A45C
  8
0
 10
405.06556798757532
 20
139.59384430786289
 30
0.0
  0
VERTEX
  5
A45D
  8
0
 10
404.98604762672312
 20
139.56204025126209
 30
0.0
  0
VERTEX
  5
A45E
  8
0
 10
404.90677299449641
 20
139.52956277790761
 30
0.0
  0
VERTEX
  5
A45F
  8
0
 10
404.82779879119011
 20
139.49642566406581
 30
0.0
  0
VERTEX
  5
A460
  8
0
 10
404.7491792188016
 20
139.4626435689579
 30
0.0
  0
VERTEX
  5
A461
  8
0
 10
404.71001917202369
 20
139.44551545684709
 30
0.0
  0
VERTEX
  5
A462
  8
0
 10
404.67096778298759
 20
139.4282319572535
 30
0.0
  0
VERTEX
  5
A463
  8
0
 10
404.59321711000121
 20
139.39320701903219
 30
0.0
  0
VERTEX
  5
A464
  8
0
 10
404.5159787776488
 20
139.3575855872412
 30
0.0
  0
VERTEX
  5
A465
  8
0
 10
404.43930315940361
 20
139.3213850526493
 30
0.0
  0
VERTEX
  5
A466
  8
0
 10
404.36323928093259
 20
139.28462327627159
 30
0.0
  0
VERTEX
  5
A467
  8
0
 10
404.28783468841721
 20
139.24731849922341
 30
0.0
  0
VERTEX
  5
A468
  8
0
 10
404.25039404817278
 20
139.22846826695471
 30
0.0
  0
VERTEX
  5
A469
  8
0
 10
404.21313532834392
 20
139.20948925004839
 30
0.0
  0
VERTEX
  5
A46A
  8
0
 10
404.13918557659781
 20
139.17115432197011
 30
0.0
  0
VERTEX
  5
A46B
  8
0
 10
404.0660288729232
 20
139.13233307705929
 30
0.0
  0
VERTEX
  5
A46C
  8
0
 10
404.0297613070893
 20
139.1127463330379
 30
0.0
  0
VERTEX
  5
A46D
  8
0
 10
403.99370797688198
 20
139.09304559055121
 30
0.0
  0
VERTEX
  5
A46E
  8
0
 10
403.9222648170516
 20
139.05331258910959
 30
0.0
  0
VERTEX
  5
A46F
  8
0
 10
403.85174033893998
 20
139.01315538057111
 30
0.0
  0
VERTEX
  5
A470
  8
0
 10
403.81683509767697
 20
138.99292449873451
 30
0.0
  0
VERTEX
  5
A471
  8
0
 10
403.78217436575142
 20
138.97259578266659
 30
0.0
  0
VERTEX
  5
A472
  8
0
 10
403.71360547120128
 20
138.9316560506623
 30
0.0
  0
VERTEX
  5
A473
  8
0
 10
403.64607086363179
 20
138.8903588038288
 30
0.0
  0
VERTEX
  5
A474
  8
0
 10
403.57960628074801
 20
138.84872695060341
 30
0.0
  0
VERTEX
  5
A475
  8
0
 10
403.51424589436459
 20
138.8067836122828
 30
0.0
  0
VERTEX
  5
A476
  8
0
 10
403.4500215266371
 20
138.76455158040289
 30
0.0
  0
VERTEX
  5
A477
  8
0
 10
403.4183415537841
 20
138.7433322277771
 30
0.0
  0
VERTEX
  5
A478
  8
0
 10
403.38695363908249
 20
138.722047082496
 30
0.0
  0
VERTEX
  5
A479
  8
0
 10
403.3250690486538
 20
138.67929130725861
 30
0.0
  0
VERTEX
  5
A47A
  8
0
 10
403.26439724314741
 20
138.63630838290399
 30
0.0
  0
VERTEX
  5
A47B
  8
0
 10
403.20496658708453
 20
138.5931229358917
 30
0.0
  0
VERTEX
  5
A47C
  8
0
 10
403.14680419176051
 20
138.5497600215422
 30
0.0
  0
VERTEX
  5
A47D
  8
0
 10
403.08993579676371
 20
138.50624505417801
 30
0.0
  0
VERTEX
  5
A47E
  8
0
 10
403.06199449121868
 20
138.48443857342679
 30
0.0
  0
VERTEX
  5
A47F
  8
0
 10
403.03438566227851
 20
138.4626037366445
 30
0.0
  0
VERTEX
  5
A480
  8
0
 10
402.98017647154018
 20
138.41886198902651
 30
0.0
  0
VERTEX
  5
A481
  8
0
 10
402.92732924286878
 20
138.37504587631929
 30
0.0
  0
VERTEX
  5
A482
  8
0
 10
402.87586325076973
 20
138.33118153479069
 30
0.0
  0
VERTEX
  5
A483
  8
0
 10
402.8257959562834
 20
138.28729509724991
 30
0.0
  0
VERTEX
  5
A484
  8
0
 10
402.77714305338492
 20
138.24341271506341
 30
0.0
  0
VERTEX
  5
A485
  8
0
 10
402.75335151398338
 20
138.22148130597321
 30
0.0
  0
VERTEX
  5
A486
  8
0
 10
402.72991882688387
 20
138.19956088158261
 30
0.0
  0
VERTEX
  5
A487
  8
0
 10
402.68413621144509
 20
138.1557665281457
 30
0.0
  0
VERTEX
  5
A488
  8
0
 10
402.63980666086388
 20
138.1120569503114
 30
0.0
  0
VERTEX
  5
A489
  8
0
 10
402.59694002540891
 20
138.06845973030141
 30
0.0
  0
VERTEX
  5
A48A
  8
0
 10
402.55554444133162
 20
138.02500265960961
 30
0.0
  0
VERTEX
  5
A48B
  8
0
 10
402.51562623193598
 20
137.98171366157251
 30
0.0
  0
VERTEX
  5
A48C
  8
0
 10
402.49622260119708
 20
137.9601409327729
 30
0.0
  0
VERTEX
  5
A48D
  8
0
 10
402.47718981967267
 20
137.93862071362989
 30
0.0
  0
VERTEX
  5
A48E
  8
0
 10
402.44023764878142
 20
137.8957517689521
 30
0.0
  0
VERTEX
  5
A48F
  8
0
 10
402.40477011809202
 20
137.85313467704719
 30
0.0
  0
VERTEX
  5
A490
  8
0
 10
402.37071533395778
 20
137.81070802500159
 30
0.0
  0
VERTEX
  5
A491
  8
0
 10
402.33773074616278
 20
137.76804230376729
 30
0.0
  0
VERTEX
  5
A492
  8
0
 10
402.3058134536667
 20
137.72510264239031
 30
0.0
  0
VERTEX
  5
A493
  8
0
 10
402.29027018454281
 20
137.70353955387279
 30
0.0
  0
VERTEX
  5
A494
  8
0
 10
402.27501165491589
 20
137.68191936976231
 30
0.0
  0
VERTEX
  5
A495
  8
0
 10
402.24537149632118
 20
137.638522995416
 30
0.0
  0
VERTEX
  5
A496
  8
0
 10
402.21693701082307
 20
137.5949441246546
 30
0.0
  0
VERTEX
  5
A497
  8
0
 10
402.20318506572988
 20
137.5730958226693
 30
0.0
  0
VERTEX
  5
A498
  8
0
 10
402.18975006960682
 20
137.5512133740574
 30
0.0
  0
VERTEX
  5
A499
  8
0
 10
402.16385034668559
 20
137.50736128688919
 30
0.0
  0
VERTEX
  5
A49A
  8
0
 10
402.13927529629791
 20
137.46341824801701
 30
0.0
  0
VERTEX
  5
A49B
  8
0
 10
402.12749561814002
 20
137.44142205253439
 30
0.0
  0
VERTEX
  5
A49C
  8
0
 10
402.11606014326532
 20
137.41941439802031
 30
0.0
  0
VERTEX
  5
A49D
  8
0
 10
402.0942378867602
 20
137.37537954646771
 30
0.0
  0
VERTEX
  5
A49E
  8
0
 10
402.07383935472478
 20
137.33134316643779
 30
0.0
  0
VERTEX
  5
A49F
  8
0
 10
402.05489339428362
 20
137.28733472046909
 30
0.0
  0
VERTEX
  5
A4A0
  8
0
 10
402.03742692004471
 20
137.24338379064221
 30
0.0
  0
VERTEX
  5
A4A1
  8
0
 10
402.02146485891581
 20
137.19951999954949
 30
0.0
  0
VERTEX
  5
A4A2
  8
0
 10
402.01405521766583
 20
137.17763002823679
 30
0.0
  0
VERTEX
  5
A4A3
  8
0
 10
402.00703010336917
 20
137.15577292533931
 30
0.0
  0
VERTEX
  5
A4A4
  8
0
 10
401.99414347673428
 20
137.1121720177596
 30
0.0
  0
VERTEX
  5
A4A5
  8
0
 10
401.98282371049658
 20
137.06874651483969
 30
0.0
  0
VERTEX
  5
A4A6
  8
0
 10
401.97308743378471
 20
137.0255253598985
 30
0.0
  0
VERTEX
  5
A4A7
  8
0
 10
401.96494917540349
 20
136.98253711863069
 30
0.0
  0
VERTEX
  5
A4A8
  8
0
 10
401.95842137893572
 20
136.93980989608721
 30
0.0
  0
VERTEX
  5
A4A9
  8
0
 10
401.95576461143122
 20
136.9185517849258
 30
0.0
  0
VERTEX
  5
A4AA
  8
0
 10
401.95351400657501
 20
136.8973668625506
 30
0.0
  0
VERTEX
  5
A4AB
  8
0
 10
401.95023567538959
 20
136.85523051588689
 30
0.0
  0
VERTEX
  5
A4AC
  8
0
 10
401.94859387549729
 20
136.81342858386989
 30
0.0
  0
VERTEX
  5
A4AD
  8
0
 10
401.94838844602327
 20
136.79266159708601
 30
0.0
  0
SEQEND
  5
A4AE
  8
0
  0
LINE
  5
94AF
  8
0
 10
444.91390568740269
 20
140.3163643527314
 30
0.0
 11
408.59328155766212
 21
140.3163643527314
 31
0.0
  0
LINE
  5
94B0
  8
0
 10
280.59776314172171
 20
169.0749850423866
 30
0.0
 11
471.29901375032472
 21
169.0749850423866
 31
0.0
  0
LINE
  5
94B1
  8
1
 10
375.94838844602322
 20
266.09319207168659
 30
0.0
 11
375.94838844602327
 21
92.556778013086102
 31
0.0
  0
LINE
  5
94B4
  8
2
 10
360.94838844602327
 20
108.2749850423864
 30
0.0
 11
360.94838844602327
 21
141.0749850423866
 31
0.0
  0
LINE
  5
94B5
  8
2
 10
357.94838844602327
 20
142.07498504238629
 30
0.0
 11
393.94838844602327
 21
142.07498504238629
 31
0.0
  0
LINE
  5
94B6
  8
2
 10
360.94838844602327
 20
141.07498504238629
 30
0.0
 11
361.94838844602327
 21
141.07498504238629
 31
0.0
  0
LINE
  5
94B7
  8
2
 10
357.94838844602327
 20
145.07498504238629
 30
0.0
 11
357.94838844602327
 21
142.07498504238629
 31
0.0
  0
LINE
  5
94B8
  8
2
 10
393.94838844602327
 20
145.07498504238629
 30
0.0
 11
393.94838844602327
 21
142.07498504238629
 31
0.0
  0
LINE
  5
94B9
  8
2
 10
361.94838844602327
 20
141.07498504238629
 30
0.0
 11
361.94838844602327
 21
142.07498504238629
 31
0.0
  0
LINE
  5
94BA
  8
2
 10
390.94838844602327
 20
108.2749850423864
 30
0.0
 11
390.94838844602327
 21
141.0749850423866
 31
0.0
  0
LINE
  5
94BB
  8
2
 10
390.94838844602327
 20
141.07498504238629
 30
0.0
 11
389.94838844602327
 21
141.07498504238629
 31
0.0
  0
LINE
  5
94BC
  8
2
 10
389.94838844602327
 20
141.07498504238629
 30
0.0
 11
389.94838844602327
 21
142.07498504238629
 31
0.0
  0
LINE
  5
94BD
  8
0
 10
401.94838844602327
 20
136.79266159708601
 30
0.0
 11
401.94838844602327
 21
114.0749850423863
 31
0.0
  0
POLYLINE
  5
94BE
  8
0
 66
     1
 10
0.0
 20
0.0
 30
0.0
  0
VERTEX
  5
A4AF
  8
0
 10
343.30349533438448
 20
140.3163643527314
 30
0.0
  0
VERTEX
  5
A4B0
  8
0
 10
343.34237513085827
 20
140.3162511858946
 30
0.0
  0
VERTEX
  5
A4B1
  8
0
 10
343.42107561643388
 20
140.31534088618631
 30
0.0
  0
VERTEX
  5
A4B2
  8
0
 10
343.50098816844462
 20
140.31350847547699
 30
0.0
  0
VERTEX
  5
A4B3
  8
0
 10
343.5413824111024
 20
140.31224307033949
 30
0.0
  0
VERTEX
  5
A4B4
  8
0
 10
343.58205949264681
 20
140.3107432637033
 30
0.0
  0
VERTEX
  5
A4B5
  8
0
 10
343.66423394507677
 20
140.3070362926772
 30
0.0
  0
VERTEX
  5
A4B6
  8
0
 10
343.74745391441411
 20
140.3023803389415
 30
0.0
  0
VERTEX
  5
A4B7
  8
0
 10
343.83166021977559
 20
140.29676989514181
 30
0.0
  0
VERTEX
  5
A4B8
  8
0
 10
343.91679252343368
 20
140.29020113004509
 30
0.0
  0
VERTEX
  5
A4B9
  8
0
 10
344.002789757747
 20
140.28267182728629
 30
0.0
  0
VERTEX
  5
A4BA
  8
0
 10
344.04609354874492
 20
140.27854670336939
 30
0.0
  0
VERTEX
  5
A4BB
  8
0
 10
344.08959056532058
 20
140.27418130287589
 30
0.0
  0
VERTEX
  5
A4BC
  8
0
 10
344.17713374626101
 20
140.264730302039
 30
0.0
  0
VERTEX
  5
A4BD
  8
0
 10
344.26535815393981
 20
140.2543209442413
 30
0.0
  0
VERTEX
  5
A4BE
  8
0
 10
344.35420115302668
 20
140.24295687277029
 30
0.0
  0
VERTEX
  5
A4BF
  8
0
 10
344.4435982665068
 20
140.23064333198911
 30
0.0
  0
VERTEX
  5
A4C0
  8
0
 10
344.5334835505692
 20
140.21738715859601
 30
0.0
  0
VERTEX
  5
A4C1
  8
0
 10
344.57858834378158
 20
140.2104081498392
 30
0.0
  0
VERTEX
  5
A4C2
  8
0
 10
344.62378998364102
 20
140.2031967528826
 30
0.0
  0
VERTEX
  5
A4C3
  8
0
 10
344.71444985560453
 20
140.18808203210389
 30
0.0
  0
VERTEX
  5
A4C4
  8
0
 10
344.80539515630647
 20
140.17205436666089
 30
0.0
  0
VERTEX
  5
A4C5
  8
0
 10
344.85095360252348
 20
140.16370211083071
 30
0.0
  0
VERTEX
  5
A4C6
  8
0
 10
344.89655796266243
 20
140.15512649969989
 30
0.0
  0
VERTEX
  5
A4C7
  8
0
 10
344.98787082374838
 20
140.13731245064059
 30
0.0
  0
VERTEX
  5
A4C8
  8
0
 10
345.07926871214568
 20
140.1186270750257
 30
0.0
  0
VERTEX
  5
A4C9
  8
0
 10
345.12498795042939
 20
140.10896075733331
 30
0.0
  0
VERTEX
  5
A4CA
  8
0
 10
345.17071307815149
 20
140.09908069378849
 30
0.0
  0
VERTEX
  5
A4CB
  8
0
 10
345.26214787850489
 20
140.07868787815309
 30
0.0
  0
VERTEX
  5
A4CC
  8
0
 10
345.35350627908019
 20
140.05746668160651
 30
0.0
  0
VERTEX
  5
A4CD
  8
0
 10
345.44472077751738
 20
140.0354366557261
 30
0.0
  0
VERTEX
  5
A4CE
  8
0
 10
345.53572358262232
 20
140.01261879563739
 30
0.0
  0
VERTEX
  5
A4CF
  8
0
 10
345.62644698212671
 20
139.9890354719185
 30
0.0
  0
VERTEX
  5
A4D0
  8
0
 10
345.67168285411429
 20
139.9769641084693
 30
0.0
  0
VERTEX
  5
A4D1
  8
0
 10
345.71682369864169
 20
139.96471034980331
 30
0.0
  0
VERTEX
  5
A4D2
  8
0
 10
345.80678723397978
 20
139.93966829635039
 30
0.0
  0
VERTEX
  5
A4D3
  8
0
 10
345.89627220232109
 20
139.91393527605541
 30
0.0
  0
VERTEX
  5
A4D4
  8
0
 10
345.98521465284102
 20
139.8875382352374
 30
0.0
  0
VERTEX
  5
A4D5
  8
0
 10
346.07355216520591
 20
139.8605050428778
 30
0.0
  0
VERTEX
  5
A4D6
  8
0
 10
346.16122270133428
 20
139.83286482752791
 30
0.0
  0
VERTEX
  5
A4D7
  8
0
 10
346.20478839049878
 20
139.8188265982287
 30
0.0
  0
VERTEX
  5
A4D8
  8
0
 10
346.24816397689801
 20
139.8046482103089
 30
0.0
  0
VERTEX
  5
A4D9
  8
0
 10
346.33431379248799
 20
139.77588725162741
 30
0.0
  0
VERTEX
  5
A4DA
  8
0
 10
346.41961039610351
 20
139.74661537207501
 30
0.0
  0
VERTEX
  5
A4DB
  8
0
 10
346.50399282320092
 20
139.71686726438139
 30
0.0
  0
VERTEX
  5
A4DC
  8
0
 10
346.58740121519759
 20
139.6866787971924
 30
0.0
  0
VERTEX
  5
A4DD
  8
0
 10
346.66977711772688
 20
139.6560869111604
 30
0.0
  0
VERTEX
  5
A4DE
  8
0
 10
346.71056007159001
 20
139.6406514959022
 30
0.0
  0
VERTEX
  5
A4DF
  8
0
 10
346.75106376029498
 20
139.62512950756241
 30
0.0
  0
VERTEX
  5
A4E0
  8
0
 10
346.83120890447123
 20
139.59384430786289
 30
0.0
  0
VERTEX
  5
A4E1
  8
0
 10
346.91072926532343
 20
139.56204025126209
 30
0.0
  0
VERTEX
  5
A4E2
  8
0
 10
346.9900038975502
 20
139.52956277790761
 30
0.0
  0
VERTEX
  5
A4E3
  8
0
 10
347.06897810085638
 20
139.49642566406581
 30
0.0
  0
VERTEX
  5
A4E4
  8
0
 10
347.14759767324489
 20
139.4626435689579
 30
0.0
  0
VERTEX
  5
A4E5
  8
0
 10
347.1867577200228
 20
139.44551545684709
 30
0.0
  0
VERTEX
  5
A4E6
  8
0
 10
347.2258091090589
 20
139.4282319572535
 30
0.0
  0
VERTEX
  5
A4E7
  8
0
 10
347.30355978204528
 20
139.39320701903219
 30
0.0
  0
VERTEX
  5
A4E8
  8
0
 10
347.38079811439769
 20
139.3575855872412
 30
0.0
  0
VERTEX
  5
A4E9
  8
0
 10
347.45747373264288
 20
139.3213850526493
 30
0.0
  0
VERTEX
  5
A4EA
  8
0
 10
347.53353761111379
 20
139.28462327627159
 30
0.0
  0
VERTEX
  5
A4EB
  8
0
 10
347.60894220362928
 20
139.24731849922341
 30
0.0
  0
VERTEX
  5
A4EC
  8
0
 10
347.64638284387371
 20
139.22846826695471
 30
0.0
  0
VERTEX
  5
A4ED
  8
0
 10
347.68364156370262
 20
139.20948925004839
 30
0.0
  0
VERTEX
  5
A4EE
  8
0
 10
347.75759131544868
 20
139.17115432197011
 30
0.0
  0
VERTEX
  5
A4EF
  8
0
 10
347.83074801912329
 20
139.13233307705929
 30
0.0
  0
VERTEX
  5
A4F0
  8
0
 10
347.86701558495719
 20
139.1127463330379
 30
0.0
  0
VERTEX
  5
A4F1
  8
0
 10
347.90306891516462
 20
139.09304559055121
 30
0.0
  0
VERTEX
  5
A4F2
  8
0
 10
347.97451207499489
 20
139.05331258910959
 30
0.0
  0
VERTEX
  5
A4F3
  8
0
 10
348.04503655310651
 20
139.01315538057111
 30
0.0
  0
VERTEX
  5
A4F4
  8
0
 10
348.0799417943694
 20
138.99292449873451
 30
0.0
  0
VERTEX
  5
A4F5
  8
0
 10
348.11460252629519
 20
138.97259578266659
 30
0.0
  0
VERTEX
  5
A4F6
  8
0
 10
348.18317142084521
 20
138.9316560506623
 30
0.0
  0
VERTEX
  5
A4F7
  8
0
 10
348.2507060284147
 20
138.8903588038288
 30
0.0
  0
VERTEX
  5
A4F8
  8
0
 10
348.31717061129848
 20
138.84872695060341
 30
0.0
  0
VERTEX
  5
A4F9
  8
0
 10
348.3825309976819
 20
138.8067836122828
 30
0.0
  0
VERTEX
  5
A4FA
  8
0
 10
348.44675536540939
 20
138.76455158040289
 30
0.0
  0
VERTEX
  5
A4FB
  8
0
 10
348.47843533826239
 20
138.7433322277771
 30
0.0
  0
VERTEX
  5
A4FC
  8
0
 10
348.509823252964
 20
138.722047082496
 30
0.0
  0
VERTEX
  5
A4FD
  8
0
 10
348.57170784339269
 20
138.67929130725861
 30
0.0
  0
VERTEX
  5
A4FE
  8
0
 10
348.63237964889908
 20
138.63630838290399
 30
0.0
  0
VERTEX
  5
A4FF
  8
0
 10
348.69181030496202
 20
138.5931229358917
 30
0.0
  0
VERTEX
  5
A500
  8
0
 10
348.74997270028598
 20
138.5497600215422
 30
0.0
  0
VERTEX
  5
A501
  8
0
 10
348.80684109528278
 20
138.50624505417801
 30
0.0
  0
VERTEX
  5
A502
  8
0
 10
348.83478240082792
 20
138.48443857342679
 30
0.0
  0
VERTEX
  5
A503
  8
0
 10
348.86239122976798
 20
138.4626037366445
 30
0.0
  0
VERTEX
  5
A504
  8
0
 10
348.9166004205062
 20
138.41886198902651
 30
0.0
  0
VERTEX
  5
A505
  8
0
 10
348.96944764917771
 20
138.37504587631929
 30
0.0
  0
VERTEX
  5
A506
  8
0
 10
349.02091364127682
 20
138.33118153479069
 30
0.0
  0
VERTEX
  5
A507
  8
0
 10
349.07098093576309
 20
138.28729509724991
 30
0.0
  0
VERTEX
  5
A508
  8
0
 10
349.11963383866168
 20
138.24341271506341
 30
0.0
  0
VERTEX
  5
A509
  8
0
 10
349.14342537806311
 20
138.22148130597321
 30
0.0
  0
VERTEX
  5
A50A
  8
0
 10
349.16685806516261
 20
138.19956088158261
 30
0.0
  0
VERTEX
  5
A50B
  8
0
 10
349.2126406806014
 20
138.1557665281457
 30
0.0
  0
VERTEX
  5
A50C
  8
0
 10
349.25697023118261
 20
138.1120569503114
 30
0.0
  0
VERTEX
  5
A50D
  8
0
 10
349.29983686663769
 20
138.06845973030141
 30
0.0
  0
VERTEX
  5
A50E
  8
0
 10
349.34123245071493
 20
138.02500265960961
 30
0.0
  0
VERTEX
  5
A50F
  8
0
 10
349.38115066011051
 20
137.98171366157251
 30
0.0
  0
VERTEX
  5
A510
  8
0
 10
349.40055429084941
 20
137.9601409327729
 30
0.0
  0
VERTEX
  5
A511
  8
0
 10
349.41958707237382
 20
137.93862071362989
 30
0.0
  0
VERTEX
  5
A512
  8
0
 10
349.45653924326513
 20
137.8957517689521
 30
0.0
  0
VERTEX
  5
A513
  8
0
 10
349.49200677395447
 20
137.85313467704719
 30
0.0
  0
VERTEX
  5
A514
  8
0
 10
349.52606155808871
 20
137.81070802500159
 30
0.0
  0
VERTEX
  5
A515
  8
0
 10
349.55904614588371
 20
137.76804230376729
 30
0.0
  0
VERTEX
  5
A516
  8
0
 10
349.59096343837967
 20
137.72510264239031
 30
0.0
  0
VERTEX
  5
A517
  8
0
 10
349.60650670750368
 20
137.70353955387279
 30
0.0
  0
VERTEX
  5
A518
  8
0
 10
349.6217652371306
 20
137.68191936976231
 30
0.0
  0
VERTEX
  5
A519
  8
0
 10
349.65140539572531
 20
137.638522995416
 30
0.0
  0
VERTEX
  5
A51A
  8
0
 10
349.67983988122342
 20
137.5949441246546
 30
0.0
  0
VERTEX
  5
A51B
  8
0
 10
349.69359182631661
 20
137.5730958226693
 30
0.0
  0
VERTEX
  5
A51C
  8
0
 10
349.70702682243967
 20
137.5512133740574
 30
0.0
  0
VERTEX
  5
A51D
  8
0
 10
349.7329265453609
 20
137.50736128688919
 30
0.0
  0
VERTEX
  5
A51E
  8
0
 10
349.75750159574858
 20
137.46341824801701
 30
0.0
  0
VERTEX
  5
A51F
  8
0
 10
349.76928127390647
 20
137.44142205253439
 30
0.0
  0
VERTEX
  5
A520
  8
0
 10
349.78071674878129
 20
137.41941439802031
 30
0.0
  0
VERTEX
  5
A521
  8
0
 10
349.80253900528629
 20
137.37537954646771
 30
0.0
  0
VERTEX
  5
A522
  8
0
 10
349.82293753732171
 20
137.33134316643779
 30
0.0
  0
VERTEX
  5
A523
  8
0
 10
349.84188349776292
 20
137.28733472046909
 30
0.0
  0
VERTEX
  5
A524
  8
0
 10
349.85934997200178
 20
137.24338379064221
 30
0.0
  0
VERTEX
  5
A525
  8
0
 10
349.87531203313068
 20
137.19951999954949
 30
0.0
  0
VERTEX
  5
A526
  8
0
 10
349.88272167438072
 20
137.17763002823679
 30
0.0
  0
VERTEX
  5
A527
  8
0
 10
349.88974678867731
 20
137.15577292533931
 30
0.0
  0
VERTEX
  5
A528
  8
0
 10
349.90263341531232
 20
137.1121720177596
 30
0.0
  0
VERTEX
  5
A529
  8
0
 10
349.91395318154991
 20
137.06874651483969
 30
0.0
  0
VERTEX
  5
A52A
  8
0
 10
349.92368945826178
 20
137.0255253598985
 30
0.0
  0
VERTEX
  5
A52B
  8
0
 10
349.93182771664311
 20
136.98253711863069
 30
0.0
  0
VERTEX
  5
A52C
  8
0
 10
349.93835551311082
 20
136.93980989608721
 30
0.0
  0
VERTEX
  5
A52D
  8
0
 10
349.94101228061533
 20
136.9185517849258
 30
0.0
  0
VERTEX
  5
A52E
  8
0
 10
349.94326288547148
 20
136.8973668625506
 30
0.0
  0
VERTEX
  5
A52F
  8
0
 10
349.9465412166569
 20
136.85523051588689
 30
0.0
  0
VERTEX
  5
A530
  8
0
 10
349.94818301654908
 20
136.81342858386989
 30
0.0
  0
VERTEX
  5
A531
  8
0
 10
349.94838844602327
 20
136.79266159708601
 30
0.0
  0
SEQEND
  5
A532
  8
0
  0
LINE
  5
94BF
  8
0
 10
306.9828712046438
 20
140.3163643527314
 30
0.0
 11
343.30349533438448
 21
140.3163643527314
 31
0.0
  0
LINE
  5
94C0
  8
0
 10
349.94838844602327
 20
136.79266159708601
 30
0.0
 11
349.94838844602327
 21
114.0749850423863
 31
0.0
  0
LINE
  5
94C1
  8
0
 10
354.94838844602327
 20
141.0749850423866
 30
0.0
 11
354.94838844602327
 21
114.0749850423863
 31
0.0
  0
LINE
  5
94C2
  8
0
 10
396.94838844602327
 20
141.0749850423866
 30
0.0
 11
396.94838844602327
 21
114.0749850423863
 31
0.0
  0
LINE
  5
94C3
  8
2
 10
89.039019109404308
 20
421.99658943279138
 30
0.0
 11
55.039019109404308
 21
421.99658943279178
 31
0.0
  0
LINE
  5
94C4
  8
2
 10
55.039019109404308
 20
437.99658943279138
 30
0.0
 11
89.039019109404308
 21
437.99658943279178
 31
0.0
  0
LINE
  5
94C5
  8
2
 10
92.039019109404293
 20
447.99658943279132
 30
0.0
 11
92.039019109404293
 21
411.99658943279132
 31
0.0
  0
LINE
  5
94C6
  8
2
 10
55.23901910940458
 20
444.99658943279132
 30
0.0
 11
88.039019109404762
 21
444.99658943279132
 31
0.0
  0
LINE
  5
94C7
  8
2
 10
89.039019109404308
 20
447.99658943279132
 30
0.0
 11
89.039019109404308
 21
411.99658943279132
 31
0.0
  0
LINE
  5
94C8
  8
2
 10
88.039019109404293
 20
444.99658943279132
 30
0.0
 11
88.039019109404293
 21
443.99658943279132
 31
0.0
  0
LINE
  5
94C9
  8
2
 10
92.039019109404293
 20
447.99658943279132
 30
0.0
 11
89.039019109404308
 21
447.99658943279132
 31
0.0
  0
LINE
  5
94CA
  8
2
 10
92.039019109404293
 20
411.99658943279132
 30
0.0
 11
89.039019109404308
 21
411.99658943279132
 31
0.0
  0
LINE
  5
94CB
  8
2
 10
88.039019109404293
 20
443.99658943279132
 30
0.0
 11
89.039019109404308
 21
443.99658943279132
 31
0.0
  0
LINE
  5
94CC
  8
2
 10
55.23901910940458
 20
414.99658943279132
 30
0.0
 11
88.039019109404762
 21
414.99658943279132
 31
0.0
  0
LINE
  5
94CD
  8
2
 10
88.039019109404293
 20
414.99658943279132
 30
0.0
 11
88.039019109404293
 21
415.99658943279132
 31
0.0
  0
LINE
  5
94CE
  8
2
 10
88.039019109404293
 20
415.99658943279132
 30
0.0
 11
89.039019109404308
 21
415.99658943279132
 31
0.0
  0
LINE
  5
9748
  8
0
 10
348.44838844602327
 20
486.05478512265631
 30
0.0
 11
348.44838844602327
 21
373.93839374292691
 31
0.0
  0
LINE
  5
9749
  8
0
 10
403.44838844602322
 20
486.05478512265631
 30
0.0
 11
403.44838844602322
 21
373.93839374292691
 31
0.0
  0
LINE
  5
9752
  8
0
 10
647.11015668505877
 20
486.05478512265631
 30
0.0
 11
647.11015668505877
 21
373.93839374292679
 31
0.0
  0
LINE
  5
9753
  8
0
 10
702.11015668505888
 20
486.05478512265631
 30
0.0
 11
702.11015668505888
 21
373.93839374292679
 31
0.0
  0
ARC
  5
9A4C
  8
0
 10
674.61015668505888
 20
513.99658943279132
 30
0.0
 40
9.2000000000000011
 50
292.49498217113671
 51
247.50501782886329
  0
ARC
  5
9A4E
  8
0
 10
674.61015668505888
 20
513.99658943279132
 30
0.0
 40
5.3168224707731149
 50
309.05569888337249
 51
230.94430111662751
  0
ARC
  5
9A4F
  8
0
 10
674.61015668505888
 20
513.99658943279132
 30
0.0
 40
5.947447882367153
 50
304.28202190628127
 51
235.71797809371881
  0
LINE
  5
9A50
  8
0
 10
669.34232980863237
 20
505.49658943279132
 30
0.0
 11
679.87798356148517
 21
505.49658943279132
 31
0.0
  0
ARC
  5
9A51
  8
0
 10
672.26015668505875
 20
517.49658943279132
 30
0.0
 40
0.9999999999999857
 50
90.0
 51
180.0
  0
LINE
  5
9A54
  8
0
 10
671.26015668505875
 20
505.49658943279132
 30
0.0
 11
671.26015668505875
 21
517.49658943279132
 31
0.0
  0
ARC
  5
9A55
  8
0
 10
676.96015668505891
 20
517.49658943279132
 30
0.0
 40
0.9999999999999822
 50
0.0
 51
90.0
  0
LINE
  5
9A56
  8
0
 10
672.26015668505875
 20
518.49658943279132
 30
0.0
 11
676.96015668505891
 21
518.49658943279132
 31
0.0
  0
LINE
  5
9A59
  8
0
 10
677.96015668505891
 20
517.49658943279132
 30
0.0
 11
677.96015668505891
 21
505.49658943279132
 31
0.0
  0
ARC
  5
9A5C
  8
0
 10
674.61015668505888
 20
513.99658943279132
 30
0.0
 40
10.00000000000008
 50
301.78833061705109
 51
238.21166938294769
  0
CIRCLE
  5
9A88
  8
0
 10
674.61015668505888
 20
429.99658943279138
 30
0.0
 40
95.350625304301602
  0
LINE
  5
9B15
  8
1
 10
107.53901910940451
 20
501.3458564083075
 30
0.0
 11
107.53901910940451
 21
526.6473224572751
 31
0.0
  0
ARC
  5
9B18
  8
0
 10
185.53901910940451
 20
513.99658943279132
 30
0.0
 40
12.0
 50
270.0
 51
90.0
  0
LINE
  5
9B19
  8
0
 10
148.53901910940451
 20
501.99658943279132
 30
0.0
 11
185.53901910940451
 21
501.99658943279132
 31
0.0
  0
LINE
  5
9B1A
  8
0
 10
185.53901910940451
 20
525.99658943279132
 30
0.0
 11
148.53901910940451
 21
525.99658943279132
 31
0.0
  0
ARC
  5
9B1B
  8
0
 10
148.53901910940451
 20
520.99658943279132
 30
0.0
 40
5.0000000000000098
 50
90.0
 51
156.4218215217943
  0
ARC
  5
9B1C
  8
0
 10
148.53901910940451
 20
506.99658943279132
 30
0.0
 40
5.0000000000000018
 50
203.5781784782057
 51
270.0
  0
LINE
  5
9B1D
  8
0
 10
117.73901910940459
 20
504.99658943279132
 30
0.0
 11
143.9564434144487
 21
504.99658943279132
 31
0.0
  0
LINE
  5
9B1E
  8
0
 10
143.9564434144487
 20
522.99658943279132
 30
0.0
 11
117.73901910940459
 21
522.99658943279132
 31
0.0
  0
ARC
  5
9B1F
  8
0
 10
117.73901910940459
 20
522.79658943279128
 30
0.0
 40
0.2000000000000028
 50
90.0
 51
180.0
  0
ARC
  5
9B20
  8
0
 10
117.73901910940459
 20
505.19658943279131
 30
0.0
 40
0.2000000000000028
 50
180.0
 51
270.0
  0
LINE
  5
9B21
  8
0
 10
116.53901910940451
 20
506.84658943279129
 30
0.0
 11
117.53901910940451
 21
506.84658943279129
 31
0.0
  0
LINE
  5
9B22
  8
0
 10
117.53901910940451
 20
521.1465894327913
 30
0.0
 11
116.53901910940451
 21
521.1465894327913
 31
0.0
  0
ARC
  5
9B23
  8
0
 10
116.1390191094045
 20
520.35675105051052
 30
0.0
 40
0.400000000000011
 50
276.00000000000171
 51
0.0
  0
ARC
  5
9B24
  8
0
 10
116.1390191094045
 20
507.63642781507201
 30
0.0
 40
0.4000000000000128
 50
0.0
 51
83.999999999998266
  0
LINE
  5
9B25
  8
0
 10
116.03901910940451
 20
508.04914155042411
 30
0.0
 11
116.1808304947116
 21
508.0342365732194
 31
0.0
  0
LINE
  5
9B26
  8
0
 10
116.1808304947116
 20
519.95894229236308
 30
0.0
 11
116.03901910940471
 21
519.94403731515854
 31
0.0
  0
LINE
  5
9B27
  8
0
 10
185.53901910940451
 20
525.99658943279132
 30
0.0
 11
185.53901910940451
 21
501.99658943279132
 31
0.0
  0
LINE
  5
9B28
  8
0
 10
148.53901910940451
 20
525.99658943279132
 30
0.0
 11
148.53901910940451
 21
501.99658943279132
 31
0.0
  0
LINE
  5
9B29
  8
0
 10
143.9564434144487
 20
522.99658943279132
 30
0.0
 11
143.9564434144487
 21
504.99658943279132
 31
0.0
  0
LINE
  5
9B2A
  8
0
 10
117.53901910940451
 20
522.79658943279128
 30
0.0
 11
117.53901910940451
 21
505.19658943279131
 31
0.0
  0
LINE
  5
9B2B
  8
0
 10
116.53901910940451
 20
521.1465894327913
 30
0.0
 11
116.53901910940451
 21
506.84658943279129
 31
0.0
  0
POINT
  5
9B2C
  8
0
 10
116.03901910940451
 20
513.99658943279132
 30
84.0
210
-1.0
220
0.0000000000000001
230
0.0
  0
ARC
  5
9B34
  8
0
 10
674.61015668505888
 20
429.99658943279138
 30
0.0
 40
12.0
 50
180.0
 51
0.0
  0
LINE
  5
9B35
  8
0
 10
662.61015668505877
 20
466.99658943279138
 30
0.0
 11
662.61015668505877
 21
429.99658943279138
 31
0.0
  0
LINE
  5
9B36
  8
0
 10
686.61015668505888
 20
429.99658943279138
 30
0.0
 11
686.61015668505888
 21
466.99658943279138
 31
0.0
  0
ARC
  5
9B37
  8
0
 10
681.61015668505888
 20
466.99658943279138
 30
0.0
 40
5.0000000000000098
 50
0.0
 51
66.421821521796261
  0
ARC
  5
9B38
  8
0
 10
667.61015668505877
 20
466.99658943279138
 30
0.0
 40
5.0000000000000018
 50
113.5781784782037
 51
180.0
  0
LINE
  5
9B39
  8
0
 10
665.61015668505888
 20
497.79658943279139
 30
0.0
 11
665.61015668505888
 21
471.57916512774727
 31
0.0
  0
LINE
  5
9B3A
  8
0
 10
683.61015668505877
 20
471.57916512774727
 30
0.0
 11
683.61015668505877
 21
497.79658943279139
 31
0.0
  0
ARC
  5
9B3B
  8
0
 10
683.41015668505884
 20
497.79658943279139
 30
0.0
 40
0.2000000000000028
 50
0.0
 51
90.0
  0
ARC
  5
9B3C
  8
0
 10
665.81015668505893
 20
497.79658943279139
 30
0.0
 40
0.2000000000000028
 50
90.0
 51
180.0
  0
LINE
  5
9B3D
  8
0
 10
667.46015668505891
 20
498.99658943279138
 30
0.0
 11
667.46015668505891
 21
497.99658943279138
 31
0.0
  0
LINE
  5
9B3E
  8
0
 10
681.76015668505875
 20
497.99658943279138
 30
0.0
 11
681.76015668505875
 21
498.99658943279138
 31
0.0
  0
ARC
  5
9B3F
  8
0
 10
680.97031830277808
 20
499.39658943279142
 30
0.0
 40
0.400000000000011
 50
186.00000000000171
 51
270.0
  0
ARC
  5
9B40
  8
0
 10
668.24999506733957
 20
499.39658943279142
 30
0.0
 40
0.4000000000000128
 50
270.0
 51
353.99999999999829
  0
LINE
  5
9B41
  8
0
 10
669.29333421428578
 20
505.49658943279138
 30
0.0
 11
668.64780382548702
 21
499.35477804748427
 31
0.0
  0
LINE
  5
9B44
  8
0
 10
680.57250954463075
 20
499.35477804748427
 30
0.0
 11
679.92697915583199
 21
505.49658943279138
 31
0.0
  0
LINE
  5
9B45
  8
0
 10
686.61015668505888
 20
429.99658943279138
 30
0.0
 11
662.61015668505877
 21
429.99658943279138
 31
0.0
  0
LINE
  5
9B46
  8
0
 10
686.61015668505888
 20
466.99658943279138
 30
0.0
 11
662.61015668505877
 21
466.99658943279138
 31
0.0
  0
LINE
  5
9B47
  8
0
 10
683.61015668505877
 20
471.57916512774727
 30
0.0
 11
665.61015668505888
 21
471.57916512774727
 31
0.0
  0
LINE
  5
9B48
  8
0
 10
683.41015668505884
 20
497.99658943279138
 30
0.0
 11
665.81015668505893
 21
497.99658943279138
 31
0.0
  0
LINE
  5
9B49
  8
0
 10
681.76015668505875
 20
498.99658943279138
 30
0.0
 11
667.46015668505891
 21
498.99658943279138
 31
0.0
  0
LINE
  5
9C7B
  8
1
 10
388.59912147050699
 20
160.57498504238629
 30
0.0
 11
363.2976554215395
 21
160.57498504238629
 31
0.0
  0
ARC
  5
9C7C
  8
0
 10
375.94838844602322
 20
238.57498504238629
 30
0.0
 40
12.0
 50
0.0
 51
180.0
  0
LINE
  5
9C7D
  8
0
 10
387.94838844602322
 20
201.57498504238629
 30
0.0
 11
387.94838844602322
 21
238.57498504238629
 31
0.0
  0
LINE
  5
9C7E
  8
0
 10
363.94838844602322
 20
238.57498504238629
 30
0.0
 11
363.94838844602322
 21
201.57498504238629
 31
0.0
  0
ARC
  5
9C7F
  8
0
 10
368.94838844602322
 20
201.57498504238629
 30
0.0
 40
5.0000000000000098
 50
180.0
 51
246.42182152179609
  0
ARC
  5
9C80
  8
0
 10
382.94838844602322
 20
201.57498504238629
 30
0.0
 40
5.0000000000000018
 50
293.57817847820388
 51
0.0
  0
LINE
  5
9C81
  8
0
 10
384.94838844602322
 20
170.77498504238639
 30
0.0
 11
384.94838844602322
 21
196.99240934743051
 31
0.0
  0
LINE
  5
9C82
  8
0
 10
366.94838844602322
 20
196.99240934743051
 30
0.0
 11
366.94838844602322
 21
170.77498504238639
 31
0.0
  0
ARC
  5
9C83
  8
0
 10
367.14838844602332
 20
170.77498504238639
 30
0.0
 40
0.2000000000000028
 50
180.0
 51
270.0
  0
ARC
  5
9C84
  8
0
 10
384.74838844602323
 20
170.77498504238639
 30
0.0
 40
0.2000000000000028
 50
270.0
 51
0.0
  0
LINE
  5
9C85
  8
0
 10
383.09838844602319
 20
169.57498504238629
 30
0.0
 11
383.09838844602319
 21
170.57498504238629
 31
0.0
  0
LINE
  5
9C86
  8
0
 10
368.7983884460233
 20
170.57498504238629
 30
0.0
 11
368.7983884460233
 21
169.57498504238629
 31
0.0
  0
ARC
  5
9C87
  8
0
 10
369.58822682830402
 20
169.17498504238631
 30
0.0
 40
0.400000000000011
 50
6.0000000000017097
 51
90.0
  0
ARC
  5
9C88
  8
0
 10
382.30855006374242
 20
169.17498504238631
 30
0.0
 40
0.4000000000000128
 50
90.0
 51
173.99999999999821
  0
LINE
  5
9C89
  8
0
 10
381.89583632839037
 20
169.07498504238629
 30
0.0
 11
381.91074130559508
 21
169.2167964276934
 31
0.0
  0
LINE
  5
9C8A
  8
0
 10
369.98603558645141
 20
169.2167964276934
 30
0.0
 11
370.000940563656
 21
169.0749850423866
 31
0.0
  0
LINE
  5
9C8B
  8
0
 10
363.94838844602322
 20
238.57498504238629
 30
0.0
 11
387.94838844602322
 21
238.57498504238629
 31
0.0
  0
LINE
  5
9C8C
  8
0
 10
363.94838844602322
 20
201.57498504238629
 30
0.0
 11
387.94838844602322
 21
201.57498504238629
 31
0.0
  0
LINE
  5
9C8D
  8
0
 10
366.94838844602322
 20
196.99240934743051
 30
0.0
 11
384.94838844602322
 21
196.99240934743051
 31
0.0
  0
LINE
  5
9C8E
  8
0
 10
367.14838844602332
 20
170.57498504238629
 30
0.0
 11
384.74838844602323
 21
170.57498504238629
 31
0.0
  0
LINE
  5
9C8F
  8
0
 10
368.7983884460233
 20
169.57498504238629
 30
0.0
 11
383.09838844602319
 21
169.57498504238629
 31
0.0
  0
POINT
  5
9C90
  8
0
 10
375.94838844602322
 20
169.07498504238629
 30
84.0
210
-0.0000000000000001
220
-1.0
230
0.0
  0
LINE
  5
9C92
  8
1
 10
687.26088970954265
 20
160.57498504238629
 30
0.0
 11
661.95942366057511
 21
160.57498504238629
 31
0.0
  0
ARC
  5
9D0E
  8
0
 10
908.53138510513372
 20
429.99658943279121
 30
0.0
 40
12.0
 50
180.0
 51
224.90052796068591
  0
LINE
  5
9D0F
  8
0
 10
896.53138510513372
 20
429.99658943279121
 30
0.0
 11
896.53138510513372
 21
466.99658943279121
 31
0.0
  0
ARC
  5
9D10
  8
0
 10
901.53138510513361
 20
466.99658943279121
 30
0.0
 40
5.0000000000000098
 50
113.57817847820751
 51
180.0
  0
LINE
  5
9D11
  8
0
 10
899.53138510513372
 20
471.5791651277471
 30
0.0
 11
899.53138510513372
 21
497.79658943279111
 31
0.0
  0
ARC
  5
9D12
  8
0
 10
899.73138510513365
 20
497.79658943279111
 30
0.0
 40
0.2000000000000028
 50
90.0
 51
180.0
  0
LINE
  5
9D13
  8
0
 10
896.53138510513372
 20
429.99658943279121
 30
0.0
 11
900.03138510513315
 21
429.99658943279121
 31
0.0
  0
LINE
  5
9D14
  8
0
 10
896.53138510513372
 20
466.99658943279121
 30
0.0
 11
900.03138510513315
 21
466.99658943279121
 31
0.0
  0
LINE
  5
9D15
  8
0
 10
899.53138510513372
 20
471.5791651277471
 30
0.0
 11
900.03138510513315
 21
471.5791651277471
 31
0.0
  0
LINE
  5
9D16
  8
0
 10
899.73138510513365
 20
497.99658943279121
 30
0.0
 11
900.03138510513315
 21
497.99658943279121
 31
0.0
  0
LINE
  5
9D1A
  8
1
 10
908.5313851051335
 20
402.47838240349103
 30
0.0
 11
908.5313851051335
 21
526.64732245727475
 31
0.0
  0
ARC
  5
9D1F
  8
0
 10
674.61015668505888
 20
160.57498504238609
 30
0.0
 40
12.0
 50
45.099472039314172
 51
134.90052796068579
  0
TEXT
  5
9E41
  8
0
 62
     3
 10
0.0
 20
0.0
 30
0.0
 40
10.0
  1
TWN200F-YE
  7
STANDARD1
  0
ENDSEC
  0
EOF
