  0
SECTION
  2
HEADER
  9
$ACADVER
  1
AC1009
  9
$INSBASE
 10
0.0
 20
0.0
 30
0.0
  9
$EXTMIN
 10
0.0
 20
-2.960436562073669
 30
0.0
  9
$EXTMAX
 10
466.00000000000313
 20
466.00000000000313
 30
0.0
  9
$LIMMIN
 10
0.0
 20
0.0
  9
$LIMMAX
 10
375.0
 20
270.0
  9
$ORTHOMODE
 70
     1
  9
$REGENMODE
 70
     1
  9
$FILLMODE
 70
     1
  9
$QTEXTMODE
 70
     0
  9
$MIRRTEXT
 70
     0
  9
$DRAGMODE
 70
     2
  9
$LTSCALE
 40
10.0
  9
$OSMODE
 70
    37
  9
$ATTMODE
 70
     1
  9
$TEXTSIZE
 40
0.2
  9
$TRACEWID
 40
0.05
  9
$TEXTSTYLE
  7
STANDARD
  9
$CLAYER
  8
0
  9
$CELTYPE
  6
BYLAYER
  9
$CECOLOR
 62
   256
  9
$DIMSCALE
 40
1.0
  9
$DIMASZ
 40
3.0
  9
$DIMEXO
 40
2.0
  9
$DIMDLI
 40
0.38
  9
$DIMRND
 40
0.0
  9
$DIMDLE
 40
0.0
  9
$DIMEXE
 40
2.0
  9
$DIMTP
 40
0.0
  9
$DIMTM
 40
0.0
  9
$DIMTXT
 40
3.2000000000000002
  9
$DIMCEN
 40
0.0
  9
$DIMTSZ
 40
0.0
  9
$DIMTOL
 70
     0
  9
$DIMLIM
 70
     0
  9
$DIMTIH
 70
     0
  9
$DIMTOH
 70
     0
  9
$DIMSE1
 70
     0
  9
$DIMSE2
 70
     0
  9
$DIMTAD
 70
     1
  9
$DIMZIN
 70
     8
  9
$DIMBLK
  1

  9
$DIMASO
 70
     1
  9
$DIMSHO
 70
     0
  9
$DIMPOST
  1

  9
$DIMAPOST
  1

  9
$DIMALT
 70
     0
  9
$DIMALTD
 70
     2
  9
$DIMALTF
 40
25.399999999999999
  9
$DIMLFAC
 40
1.0
  9
$DIMTOFL
 70
     1
  9
$DIMTVP
 40
1.6000000000000001
  9
$DIMTIX
 70
     1
  9
$DIMSOXD
 70
     0
  9
$DIMSAH
 70
     0
  9
$DIMBLK1
  1

  9
$DIMBLK2
  1

  9
$DIMSTYLE
  2
STANDARD
  9
$DIMCLRD
 70
     0
  9
$DIMCLRE
 70
     0
  9
$DIMCLRT
 70
     0
  9
$DIMTFAC
 40
1.0
  9
$DIMGAP
 40
1.5
  9
$LUNITS
 70
     2
  9
$LUPREC
 70
     1
  9
$SKETCHINC
 40
0.1
  9
$FILLETRAD
 40
0.0
  9
$AUNITS
 70
     0
  9
$AUPREC
 70
     1
  9
$MENU
  1
E:\r13\win\SUPPORT\ACAD
  9
$ELEVATION
 40
0.0
  9
$PELEVATION
 40
0.0
  9
$THICKNESS
 40
0.0
  9
$LIMCHECK
 70
     0
  9
$BLIPMODE
 70
     0
  9
$CHAMFERA
 40
0.0
  9
$CHAMFERB
 40
0.0
  9
$SKPOLY
 70
     0
  9
$TDCREATE
 40
2449839.7800462958
  9
$TDUPDATE
 40
2457165.468947974
  9
$TDINDWG
 40
1.701174213
  9
$TDUSRTIMER
 40
1.701174213
  9
$USRTIMER
 70
     1
  9
$ANGBASE
 50
0.0
  9
$ANGDIR
 70
     0
  9
$PDMODE
 70
     0
  9
$PDSIZE
 40
0.0
  9
$PLINEWID
 40
0.0
  9
$COORDS
 70
     1
  9
$SPLFRAME
 70
     0
  9
$SPLINETYPE
 70
     6
  9
$SPLINESEGS
 70
     8
  9
$ATTDIA
 70
     0
  9
$ATTREQ
 70
     1
  9
$HANDLING
 70
     1
  9
$HANDSEED
  5
E676
  9
$SURFTAB1
 70
     6
  9
$SURFTAB2
 70
     6
  9
$SURFTYPE
 70
     6
  9
$SURFU
 70
     6
  9
$SURFV
 70
     6
  9
$UCSNAME
  2

  9
$UCSORG
 10
0.0
 20
0.0
 30
0.0
  9
$UCSXDIR
 10
1.0
 20
0.0
 30
0.0
  9
$UCSYDIR
 10
0.0
 20
1.0
 30
0.0
  9
$PUCSNAME
  2

  9
$PUCSORG
 10
0.0
 20
0.0
 30
0.0
  9
$PUCSXDIR
 10
1.0
 20
0.0
 30
0.0
  9
$PUCSYDIR
 10
0.0
 20
1.0
 30
0.0
  9
$USERI1
 70
     0
  9
$USERI2
 70
     1
  9
$USERI3
 70
     1
  9
$USERI4
 70
     0
  9
$USERI5
 70
     0
  9
$USERR1
 40
0.0
  9
$USERR2
 40
0.0
  9
$USERR3
 40
0.0
  9
$USERR4
 40
0.0
  9
$USERR5
 40
0.0
  9
$WORLDVIEW
 70
     1
  9
$SHADEDGE
 70
     3
  9
$SHADEDIF
 70
    70
  9
$TILEMODE
 70
     1
  9
$MAXACTVP
 70
    16
  9
$PLIMCHECK
 70
     0
  9
$PEXTMIN
 10
1.0000000000000000E+020
 20
1.0000000000000000E+020
 30
1.0000000000000000E+020
  9
$PEXTMAX
 10
-1.0000000000000000E+020
 20
-1.0000000000000000E+020
 30
-1.0000000000000000E+020
  9
$PLIMMIN
 10
0.0
 20
0.0
  9
$PLIMMAX
 10
12.0
 20
9.0
  9
$UNITMODE
 70
     0
  9
$VISRETAIN
 70
     0
  9
$PLINEGEN
 70
     0
  9
$PSLTSCALE
 70
     0
  0
ENDSEC
  0
SECTION
  2
TABLES
  0
TABLE
  2
VPORT
 70
     1
  0
VPORT
  2
*ACTIVE
 70
     0
 10
0.0
 20
0.0
 11
1.0
 21
1.0
 12
508.54700854700849
 22
280.0
 13
0.0
 23
0.0
 14
10.0
 24
10.0
 15
10.0
 25
10.0
 16
0.0
 26
0.0
 36
1.0
 17
0.0
 27
0.0
 37
0.0
 40
560.0
 41
1.816239316239316
 42
50.0
 43
0.0
 44
0.0
 50
0.0
 51
0.0
 71
     0
 72
   500
 73
     1
 74
     0
 75
     0
 76
     0
 77
     0
 78
     2
  0
ENDTAB
  0
TABLE
  2
LTYPE
 70
     4
  0
LTYPE
  2
CONTINUOUS
 70
     0
  3
Solid Line
 72
    65
 73
     0
 40
0.0
  0
LTYPE
  2
CENTER
 70
     0
  3
____ _ ____ _ ____ _ ____ _ ____ _ ____ _ ____
 72
    65
 73
     4
 40
2.0
 49
1.25
 49
-0.25
 49
0.25
 49
-0.25
  0
LTYPE
  2
HIDDEN
 70
     0
  3
_ _ _ _ _ _ _ _ _ _ _ _ _ _ _ _ _ _ _ _ _ _ _
 72
    65
 73
     2
 40
0.375
 49
0.25
 49
-0.125
  0
LTYPE
  2
PHANTOM2
 70
     0
  3
___ _ _ ___ _ _ ___ _ _ ___ _ _
 72
    65
 73
     6
 40
1.25
 49
0.625
 49
-0.125
 49
0.125
 49
-0.125
 49
0.125
 49
-0.125
  0
ENDTAB
  0
TABLE
  2
LAYER
 70
     4
  0
LAYER
  2
0
 70
     0
 62
     7
  6
CONTINUOUS
  0
LAYER
  2
1
 70
     0
 62
     1
  6
CENTER
  0
LAYER
  2
2
 70
     0
 62
     2
  6
HIDDEN
  0
LAYER
  2
DEFPOINTS
 70
     0
 62
     7
  6
CONTINUOUS
  0
ENDTAB
  0
TABLE
  2
STYLE
 70
     2
  0
STYLE
  2
STANDARD
 70
     0
 40
0.0
 41
1.0
 50
0.0
 71
     0
 42
0.2
  3
TXT
  4
BIGFONT
  0
STYLE
  2
STANDARD1
 70
     0
 40
0.0
 41
1.0
 50
0.0
 71
     0
 42
3.0
  3
txt
  4

  0
ENDTAB
  0
TABLE
  2
VIEW
 70
     3
  0
VIEW
  2
ALL
 70
     0
 40
270.0
 10
220.99159663865549
 20
135.0
 41
0.0
 11
0.0
 21
0.0
 31
1.0
 12
0.0
 22
0.0
 32
0.0
 42
0.0
 43
0.0
 44
0.0
 50
0.0
 71
     0
  0
VIEW
  2
OLE1
 70
     0
 40
83.415429860674521
 10
278.50192464621932
 20
402.21159852169143
 41
106.00494999685721
 11
0.0
 21
0.0
 31
1.0
 12
0.0
 22
0.0
 32
0.0
 42
50.0
 43
0.0
 44
0.0
 50
0.0
 71
     0
  0
VIEW
  2
OLE2
 70
     0
 40
794.49541595076005
 10
309.97496507660151
 20
913.77379108432513
 41
1009.6506962951891
 11
0.0
 21
0.0
 31
1.0
 12
0.0
 22
0.0
 32
0.0
 42
50.0
 43
0.0
 44
0.0
 50
0.0
 71
     0
  0
ENDTAB
  0
TABLE
  2
UCS
 70
     0
  0
ENDTAB
  0
TABLE
  2
APPID
 70
     8
  0
APPID
  2
ACAD
 70
     0
  0
APPID
  2
ACAD_MLEADERVER
 70
     0
  0
APPID
  2
ACAD_EXEMPT_FROM_CAD_STANDARDS
 70
     0
  0
APPID
  2
ACAD_DSTYLE_DIMJAG
 70
     0
  0
APPID
  2
ACAD_DSTYLE_DIMTALN
 70
     0
  0
APPID
  2
ACAD_DSTYLE_DIMRADIAL_EXTENSION
 70
     0
  0
APPID
  2
ACAD_PSEXT
 70
     0
  0
APPID
  2
ACAD_NAV_VCDISPLAY
 70
     0
  0
ENDTAB
  0
TABLE
  2
DIMSTYLE
 70
     1
  0
DIMSTYLE
  2
STANDARD
 70
     0
  3

  4

  5

  6

  7

 40
1.0
 41
0.18
 42
0.0625
 43
0.38
 44
0.18
 45
0.0
 46
0.0
 47
0.0
 48
0.0
140
0.18
141
0.09
142
0.0
143
25.399999999999999
144
1.0
145
0.0
146
1.0
147
0.09
 71
     0
 72
     0
 73
     1
 74
     1
 75
     0
 76
     0
 77
     0
 78
     0
170
     0
171
     2
172
     0
173
     0
174
     0
175
     0
176
     0
177
     0
178
     0
  0
ENDTAB
  0
ENDSEC
  0
SECTION
  2
BLOCKS
  0
BLOCK
  8
0
  2
$MODEL_SPACE
 70
     0
 10
0.0
 20
0.0
 30
0.0
  3
$MODEL_SPACE
  1

  0
ENDBLK
  5
11B
  8
0
  0
BLOCK
 67
     1
  8
0
  2
$PAPER_SPACE
 70
     0
 10
0.0
 20
0.0
 30
0.0
  3
$PAPER_SPACE
  1

  0
ENDBLK
  5
119
 67
     1
  8
0
  0
ENDSEC
  0
SECTION
  2
ENTITIES
  0
TEXT
  5
A4AB
  8
0
 62
     3
 10
0.0
 20
0.0
 30
0.0
 40
10.0
  1
TWN200-SUS
  7
STANDARD1
  0
LINE
  5
DD73
  8
1
 10
395.0000000000029
 20
361.00000000009828
 30
0.0
 11
466.00000000000313
 21
361.00000000009828
 31
0.0
  0
LINE
  5
DD74
  8
1
 10
315.00000000000301
 20
445.00000000009828
 30
0.0
 11
420.00000000000301
 21
445.00000000009828
 31
0.0
  0
LINE
  5
DD75
  8
0
 10
379.35692193816828
 20
454.60000000009819
 30
0.0
 11
399.52000000000311
 21
454.60000000009819
 31
0.0
  0
LINE
  5
DD76
  8
0
 10
399.52000000000311
 20
435.40000000009837
 30
0.0
 11
379.35692193816828
 21
435.40000000009837
 31
0.0
  0
LINE
  5
DD77
  8
0
 10
400.00000000000313
 20
435.88000000009839
 30
0.0
 11
399.52000000000311
 21
435.40000000009837
 31
0.0
  0
LINE
  5
DD78
  8
0
 10
399.52000000000311
 20
454.60000000009819
 30
0.0
 11
400.00000000000313
 21
454.12000000009817
 31
0.0
  0
LINE
  5
DD79
  8
0
 10
399.52000000000311
 20
435.40000000009837
 30
0.0
 11
399.52000000000311
 21
454.60000000009819
 31
0.0
  0
ARC
  5
DD7A
  8
0
 10
332.00000000000313
 20
445.00000000009828
 30
0.0
 40
11.999999999999989
 50
90.0
 51
269.99999914622629
  0
LINE
  5
DD7B
  8
0
 10
332.00000000000313
 20
457.00000000009828
 30
0.0
 11
375.20000000000312
 21
457.00000000009828
 31
0.0
  0
LINE
  5
DD7C
  8
0
 10
375.20000000000312
 20
433.00000000009828
 30
0.0
 11
332.00000000000313
 21
433.00000000009828
 31
0.0
  0
LINE
  5
DD7D
  8
0
 10
332.00000000000313
 20
433.00000000009828
 30
0.0
 11
332.00000000000313
 21
457.00000000009828
 31
0.0
  0
ARC
  5
DD7E
  8
0
 10
375.20000000000289
 20
452.2000000000981
 30
0.0
 40
4.800000000000054
 50
30.000000000000981
 51
90.0
  0
ARC
  5
DD7F
  8
0
 10
375.20000000000312
 20
437.80000000009829
 30
0.0
 40
4.7999999999999492
 50
270.0
 51
329.99999999999898
  0
LINE
  5
DD80
  8
0
 10
375.20000000000312
 20
433.00000000009828
 30
0.0
 11
375.20000000000312
 21
457.00000000009828
 31
0.0
  0
LINE
  5
DD81
  8
0
 10
379.35692193816828
 20
435.40000000009837
 30
0.0
 11
379.35692193816828
 21
454.60000000009819
 31
0.0
  0
LINE
  5
DD82
  8
0
 10
461.00000000000301
 20
346.0000000000984
 30
0.0
 11
460.80000000000302
 21
346.0000000000984
 31
0.0
  0
LINE
  5
DD83
  8
0
 10
460.80000000000302
 20
376.00000000009828
 30
0.0
 11
461.00000000000279
 21
376.00000000009828
 31
0.0
  0
LINE
  5
DD84
  8
0
 10
461.00000000000279
 20
376.00000000009828
 30
0.0
 11
461.00000000000301
 21
346.0000000000984
 31
0.0
  0
LINE
  5
DD85
  8
0
 10
460.8000000000028
 20
385.49999999596332
 30
0.0
 11
460.80000000000302
 21
336.50000000009828
 31
0.0
  0
ARC
  5
DD86
  8
0
 10
460.30000000000291
 20
336.50000000009828
 30
0.0
 40
0.5000000000000043
 50
270.0
 51
0.000000000000007
  0
ARC
  5
DD87
  8
0
 10
460.3000000000028
 20
385.5000000000984
 30
0.0
 40
0.5000000000000036
 50
0.000000000000007
 51
90.0
  0
LINE
  5
DD88
  8
0
 10
460.30000000000291
 20
336.00000000009828
 30
0.0
 11
452.50000000000301
 21
336.00000000009828
 31
0.0
  0
LINE
  5
DD89
  8
0
 10
452.50000000000279
 20
386.00000000009828
 30
0.0
 11
460.3000000000028
 21
386.00000000009828
 31
0.0
  0
POLYLINE
  5
DD8C
  8
0
 66
     1
 10
0.0
 20
0.0
 30
0.0
  0
VERTEX
  5
E5FE
  8
0
 10
429.05457160004482
 20
421.50264000641221
 30
0.0
  0
VERTEX
  5
E5FF
  8
0
 10
429.16744514890581
 20
421.48330367378901
 30
0.0
  0
VERTEX
  5
E600
  8
0
 10
429.38910791829028
 20
421.36780732312542
 30
0.0
  0
VERTEX
  5
E601
  8
0
 10
429.64585808996782
 20
421.15638895503309
 30
0.0
  0
VERTEX
  5
E602
  8
0
 10
429.96172230200563
 20
420.82282674120648
 30
0.0
  0
VERTEX
  5
E603
  8
0
 10
430.30372317948002
 20
420.39770005297203
 30
0.0
  0
VERTEX
  5
E604
  8
0
 10
430.70457240055993
 20
419.83390728116638
 30
0.0
  0
VERTEX
  5
E605
  8
0
 10
431.11796262331302
 20
419.19076616377612
 30
0.0
  0
VERTEX
  5
E606
  8
0
 10
431.56792527210303
 20
418.4245748216581
 30
0.0
  0
VERTEX
  5
E607
  8
0
 10
432.0086196221356
 20
417.60575512006471
 30
0.0
  0
VERTEX
  5
E608
  8
0
 10
432.2823234453034
 20
417.05819568996299
 30
0.0
  0
SEQEND
  5
E609
  8
0
  0
POLYLINE
  5
DD8E
  8
0
 66
     1
 10
0.0
 20
0.0
 30
0.0
  0
VERTEX
  5
E60A
  8
0
 10
429.05479131956878
 20
300.49736028814112
 30
0.0
  0
VERTEX
  5
E60B
  8
0
 10
428.92574802961838
 20
300.53583301744868
 30
0.0
  0
VERTEX
  5
E60C
  8
0
 10
428.80831156408328
 20
300.70549490510092
 30
0.0
  0
VERTEX
  5
E60D
  8
0
 10
428.75862068965807
 20
301.08031339572977
 30
0.0
  0
SEQEND
  5
E60E
  8
0
  0
LINE
  5
DD8F
  8
0
 10
428.75862068965807
 20
301.08031339572977
 30
0.0
 11
428.7586206896579
 21
420.91968660446679
 31
0.0
  0
POLYLINE
  5
DD90
  8
0
 66
     1
 10
0.0
 20
0.0
 30
0.0
  0
VERTEX
  5
E60F
  8
0
 10
432.28232344530358
 20
304.94180431023358
 30
0.0
  0
VERTEX
  5
E610
  8
0
 10
431.85579580714739
 20
304.10220103752738
 30
0.0
  0
VERTEX
  5
E611
  8
0
 10
431.41138200013108
 20
303.30103637763722
 30
0.0
  0
VERTEX
  5
E612
  8
0
 10
430.96277214735721
 20
302.56095995822432
 30
0.0
  0
VERTEX
  5
E613
  8
0
 10
430.52164694526959
 20
301.9008915755154
 30
0.0
  0
VERTEX
  5
E614
  8
0
 10
430.09289355992689
 20
301.33352743663011
 30
0.0
  0
VERTEX
  5
E615
  8
0
 10
429.69829291291751
 20
300.89415399954549
 30
0.0
  0
VERTEX
  5
E616
  8
0
 10
429.3737873254687
 20
300.62213065428938
 30
0.0
  0
VERTEX
  5
E617
  8
0
 10
429.10514096466761
 20
300.50159859637017
 30
0.0
  0
VERTEX
  5
E618
  8
0
 10
429.05479131956878
 20
300.49736028814112
 30
0.0
  0
SEQEND
  5
E619
  8
0
  0
POLYLINE
  5
DD91
  8
0
 66
     1
 10
0.0
 20
0.0
 30
0.0
  0
VERTEX
  5
E61A
  8
0
 10
432.2823234453034
 20
417.05819568996299
 30
0.0
  0
VERTEX
  5
E61B
  8
0
 10
436.45897500782081
 20
408.31460667296648
 30
0.0
  0
VERTEX
  5
E61C
  8
0
 10
440.46689805737412
 20
399.49220098039962
 30
0.0
  0
VERTEX
  5
E61D
  8
0
 10
444.20052904833562
 20
390.55397945383822
 30
0.0
  0
VERTEX
  5
E61E
  8
0
 10
445.78021158332609
 20
386.42856425759112
 30
0.0
  0
VERTEX
  5
E61F
  8
0
 10
447.24789791806762
 20
382.245371913447
 30
0.0
  0
VERTEX
  5
E620
  8
0
 10
448.55325904693677
 20
378.0087068330368
 30
0.0
  0
VERTEX
  5
E621
  8
0
 10
449.64596596431039
 20
373.72287342799069
 30
0.0
  0
VERTEX
  5
E622
  8
0
 10
450.47568966456498
 20
369.39217610994012
 30
0.0
  0
VERTEX
  5
E623
  8
0
 10
450.9921011420775
 20
365.0209192905146
 30
0.0
  0
VERTEX
  5
E624
  8
0
 10
451.13408502675622
 20
360.84634931989478
 30
0.0
  0
VERTEX
  5
E625
  8
0
 10
450.9334437307412
 20
356.65930367856453
 30
0.0
  0
VERTEX
  5
E626
  8
0
 10
450.42511635537272
 20
352.48705841738831
 30
0.0
  0
VERTEX
  5
E627
  8
0
 10
449.64404200199129
 20
348.35688958723142
 30
0.0
  0
VERTEX
  5
E628
  8
0
 10
448.62515977193681
 20
344.29607323895868
 30
0.0
  0
VERTEX
  5
E629
  8
0
 10
446.67862136830558
 20
338.0439597750065
 30
0.0
  0
VERTEX
  5
E62A
  8
0
 10
444.42349207701631
 20
331.89085894400671
 30
0.0
  0
VERTEX
  5
E62B
  8
0
 10
441.93206680835249
 20
325.82020814477272
 30
0.0
  0
VERTEX
  5
E62C
  8
0
 10
439.27664047259901
 20
319.81544477611862
 30
0.0
  0
VERTEX
  5
E62D
  8
0
 10
436.52950798004019
 20
313.86000623685879
 30
0.0
  0
VERTEX
  5
E62E
  8
0
 10
432.28232344530358
 20
304.94180431023358
 30
0.0
  0
SEQEND
  5
E62F
  8
0
  0
POLYLINE
  5
DD92
  8
0
 66
     1
 10
0.0
 20
0.0
 30
0.0
  0
VERTEX
  5
E630
  8
0
 10
428.7586206896579
 20
420.91968660446679
 30
0.0
  0
VERTEX
  5
E631
  8
0
 10
428.78579115804939
 20
421.212750576644
 30
0.0
  0
VERTEX
  5
E632
  8
0
 10
428.86526551046393
 20
421.40617022546093
 30
0.0
  0
VERTEX
  5
E633
  8
0
 10
428.99425814662118
 20
421.49516039908269
 30
0.0
  0
VERTEX
  5
E634
  8
0
 10
429.05457160004482
 20
421.50264000641221
 30
0.0
  0
SEQEND
  5
E635
  8
0
  0
LINE
  5
DD93
  8
0
 10
452.50000000000301
 20
336.00000000009828
 30
0.0
 11
428.67252977312279
 21
291.87505513550519
 31
0.0
  0
LINE
  5
DD94
  8
0
 10
428.67252977312239
 20
430.12494486469137
 30
0.0
 11
452.50000000000279
 21
386.00000000009828
 31
0.0
  0
LINE
  5
DD95
  8
0
 10
452.50000000000279
 20
386.00000000009828
 30
0.0
 11
452.50000000000301
 21
336.00000000009828
 31
0.0
  0
ARC
  5
DD96
  8
0
 10
433.60000000000321
 20
289.21422121298991
 30
0.0
 40
5.6000000000001151
 50
151.63095370672389
 51
180.0
  0
ARC
  5
DD97
  8
0
 10
433.60000000000292
 20
432.78577878720682
 30
0.0
 40
5.6000000000003469
 50
180.0
 51
208.36904629327611
  0
LINE
  5
DD99
  8
0
 10
400.00000000000261
 20
456.35062530420612
 30
0.0
 11
400.00000000000313
 21
265.64937469579661
 31
0.0
  0
ARC
  5
DD9A
  8
0
 10
402.80000000000302
 20
265.64937469579661
 30
0.0
 40
2.7999999999999972
 50
180.0
 51
254.99999999999881
  0
ARC
  5
DD9B
  8
0
 10
402.80000000000251
 20
456.35062530440013
 30
0.0
 40
2.7999999999999621
 50
105.00000000000119
 51
180.0
  0
LINE
  5
DD9C
  8
0
 10
402.07530667371549
 20
459.05521761800929
 30
0.0
 11
405.77267000291238
 21
460.04592313619202
 31
0.0
  0
LINE
  5
DD9D
  8
0
 10
405.77267000291278
 20
261.95407686400449
 30
0.0
 11
402.07530667371589
 21
262.94478238218721
 31
0.0
  0
ARC
  5
DD9F
  8
0
 10
413.01960326578347
 20
289.00000000009879
 30
0.0
 40
28.000000000000469
 50
254.99999999999881
 51
270.0
  0
ARC
  5
DDA0
  8
0
 10
413.01960326578302
 20
433.00000000009919
 30
0.0
 40
27.99999999999886
 50
90.0
 51
105.00000000000119
  0
LINE
  5
DDA2
  8
0
 10
428.00000000000261
 20
451.66666666675548
 30
0.0
 11
428.00000000000301
 21
270.33333333343171
 31
0.0
  0
ARC
  5
DDA3
  8
0
 10
418.66666666666953
 20
270.33333333343171
 30
0.0
 40
9.3333333333333428
 50
270.0
 51
0.000000000000007
  0
ARC
  5
DDA4
  8
0
 10
418.66666666666941
 20
451.6666666667648
 30
0.0
 40
9.3333333333333286
 50
0.000000000000007
 51
90.0
  0
LINE
  5
DDA5
  8
0
 10
418.66666666666953
 20
261.00000000009828
 30
0.0
 11
413.01960326578347
 21
261.00000000009828
 31
0.0
  0
LINE
  5
DDA6
  8
0
 10
413.01960326578279
 20
461.00000000009828
 30
0.0
 11
418.66666666666907
 21
461.00000000009828
 31
0.0
  0
LINE
  5
DDF0
  8
2
 10
158.00000000000159
 20
50.0
 30
0.0
 11
158.00000000000159
 21
84.0
 31
0.0
  0
LINE
  5
DDF1
  8
2
 10
142.00000000000151
 20
84.0
 30
0.0
 11
142.00000000000151
 21
50.0
 31
0.0
  0
LINE
  5
DDF4
  8
2
 10
132.00000000000151
 20
84.0
 30
0.0
 11
168.00000000000151
 21
84.0
 31
0.0
  0
LINE
  5
DDFE
  8
2
 10
132.00000000000151
 20
87.000000000000114
 30
0.0
 11
168.00000000000151
 21
87.000000000000114
 31
0.0
  0
LINE
  5
DE1A
  8
1
 10
150.00000000000151
 20
45.0
 30
0.0
 11
150.00000000000151
 21
196.0
 31
0.0
  0
LINE
  5
DE1C
  8
0
 10
140.40000000000151
 20
131.6430780618347
 30
0.0
 11
140.40000000000151
 21
111.48
 31
0.0
  0
LINE
  5
DE1D
  8
0
 10
159.6000000000015
 20
111.48
 30
0.0
 11
159.6000000000015
 21
131.6430780618347
 31
0.0
  0
LINE
  5
DE1E
  8
0
 10
159.6000000000015
 20
111.48
 30
0.0
 11
140.40000000000151
 21
111.48
 31
0.0
  0
LINE
  5
DE1F
  8
0
 10
159.12000000000151
 20
111.0
 30
0.0
 11
159.6000000000015
 21
111.48
 31
0.0
  0
LINE
  5
DE20
  8
0
 10
140.40000000000151
 20
111.48
 30
0.0
 11
140.8800000000015
 21
111.0
 31
0.0
  0
LINE
  5
DE21
  8
0
 10
138.00000000000151
 20
179.0
 30
0.0
 11
138.00000000000151
 21
135.80000000000001
 31
0.0
  0
LINE
  5
DE22
  8
0
 10
162.00000000000151
 20
135.80000000000001
 30
0.0
 11
162.00000000000151
 21
179.0
 31
0.0
  0
LINE
  5
DE23
  8
0
 10
162.00000000000151
 20
179.0
 30
0.0
 11
138.00000000000151
 21
179.0
 31
0.0
  0
ARC
  5
DE24
  8
0
 10
150.00000000000151
 20
179.0
 30
0.0
 40
12.0
 50
0.0
 51
180.0
  0
LINE
  5
DE25
  8
0
 10
162.00000000000151
 20
135.80000000000001
 30
0.0
 11
138.00000000000151
 21
135.80000000000001
 31
0.0
  0
LINE
  5
DE26
  8
0
 10
159.6000000000015
 20
131.6430780618347
 30
0.0
 11
140.40000000000151
 21
131.6430780618347
 31
0.0
  0
ARC
  5
DE27
  8
0
 10
142.80000000000149
 20
135.80000000000001
 30
0.0
 40
4.8000000000000087
 50
180.0
 51
239.99999999999821
  0
ARC
  5
DE28
  8
0
 10
157.20000000000149
 20
135.80000000000001
 30
0.0
 40
4.8000000000000069
 50
300.0
 51
0.0000008537736463
  0
LINE
  5
DE29
  8
0
 10
135.00000000000139
 20
50.0
 30
0.0
 11
165.00000000000159
 21
50.0
 31
0.0
  0
LINE
  5
DE2A
  8
0
 10
165.00000000000159
 20
50.0
 30
0.0
 11
165.00000000000159
 21
50.200000000000038
 31
0.0
  0
LINE
  5
DE2B
  8
0
 10
135.00000000000139
 20
50.200000000000038
 30
0.0
 11
135.00000000000139
 21
50.0
 31
0.0
  0
LINE
  5
DE2C
  8
0
 10
125.50000000000141
 20
50.200000000000038
 30
0.0
 11
174.50000000000159
 21
50.200000000000038
 31
0.0
  0
ARC
  5
DE2D
  8
0
 10
174.50000000000159
 20
50.700000000000038
 30
0.0
 40
0.500000000000005
 50
270.0
 51
0.0
  0
ARC
  5
DE2E
  8
0
 10
125.50000000000141
 20
50.700000000000038
 30
0.0
 40
0.5000000000000071
 50
180.0
 51
270.0
  0
LINE
  5
DE30
  8
0
 10
175.00000000000159
 20
50.700000000000038
 30
0.0
 11
175.00000000000159
 21
58.500000000000121
 31
0.0
  0
LINE
  5
DE31
  8
0
 10
125.00000000000141
 20
58.500000000000121
 30
0.0
 11
125.00000000000141
 21
50.700000000000038
 31
0.0
  0
LINE
  5
DE32
  8
0
 10
115.8551068883626
 20
82.241379310344897
 30
0.0
 11
81.034482758622232
 21
82.241379310344996
 31
0.0
  0
POLYLINE
  5
DE33
  8
0
 66
     1
 10
0.0
 20
0.0
 30
0.0
  0
VERTEX
  5
E636
  8
0
 10
122.50000000000151
 20
78.717676554699437
 30
0.0
  0
VERTEX
  5
E637
  8
0
 10
122.41956417450859
 20
79.144204192855568
 30
0.0
  0
VERTEX
  5
E638
  8
0
 10
122.1860479004376
 20
79.588617999871872
 30
0.0
  0
VERTEX
  5
E639
  8
0
 10
121.8080499839995
 20
80.037227852645742
 30
0.0
  0
VERTEX
  5
E63A
  8
0
 10
121.2968417446464
 20
80.478353054733361
 30
0.0
  0
VERTEX
  5
E63B
  8
0
 10
120.64947567742919
 20
80.907106440076049
 30
0.0
  0
VERTEX
  5
E63C
  8
0
 10
119.89120622552061
 20
81.30170708708556
 30
0.0
  0
VERTEX
  5
E63D
  8
0
 10
119.0982217654128
 20
81.626212674534258
 30
0.0
  0
VERTEX
  5
E63E
  8
0
 10
118.2496164695155
 20
81.894859035335344
 30
0.0
  0
VERTEX
  5
E63F
  8
0
 10
117.4772974213893
 20
82.074251970384594
 30
0.0
  0
VERTEX
  5
E640
  8
0
 10
116.7113944626301
 20
82.191688435919673
 30
0.0
  0
VERTEX
  5
E641
  8
0
 10
115.8551068883626
 20
82.241379310344897
 30
0.0
  0
SEQEND
  5
E642
  8
0
  0
LINE
  5
DE34
  8
0
 10
125.00000000000151
 20
58.500000000000121
 30
0.0
 11
175.00000000000159
 21
58.500000000000121
 31
0.0
  0
LINE
  5
DE35
  8
0
 10
177.50000000000151
 20
78.717676554699437
 30
0.0
 11
177.50000000000151
 21
59.85000000000025
 31
0.0
  0
POLYLINE
  5
DE36
  8
0
 66
     1
 10
0.0
 20
0.0
 30
0.0
  0
VERTEX
  5
E643
  8
0
 10
184.1448931116405
 20
82.241379310344755
 30
0.0
  0
VERTEX
  5
E644
  8
0
 10
183.5219835995959
 20
82.214208841953436
 30
0.0
  0
VERTEX
  5
E645
  8
0
 10
182.8654242804987
 20
82.134734489538801
 30
0.0
  0
VERTEX
  5
E646
  8
0
 10
182.1959092989851
 20
82.005741853381437
 30
0.0
  0
VERTEX
  5
E647
  8
0
 10
181.53031191585919
 20
81.832554851097015
 30
0.0
  0
VERTEX
  5
E648
  8
0
 10
180.85917477184211
 20
81.610892081712564
 30
0.0
  0
VERTEX
  5
E649
  8
0
 10
180.22459026984589
 20
81.354141910034855
 30
0.0
  0
VERTEX
  5
E64A
  8
0
 10
179.58262321798301
 20
81.03827769799716
 30
0.0
  0
VERTEX
  5
E64B
  8
0
 10
179.01173289552111
 20
80.696276820522712
 30
0.0
  0
VERTEX
  5
E64C
  8
0
 10
178.47373723887191
 20
80.295427599442746
 30
0.0
  0
VERTEX
  5
E64D
  8
0
 10
178.04505608292379
 20
79.882037376689709
 30
0.0
  0
VERTEX
  5
E64E
  8
0
 10
177.71565479654259
 20
79.432074727899703
 30
0.0
  0
VERTEX
  5
E64F
  8
0
 10
177.53385887218241
 20
78.991380377867017
 30
0.0
  0
VERTEX
  5
E650
  8
0
 10
177.50000000000151
 20
78.717676554699437
 30
0.0
  0
SEQEND
  5
E651
  8
0
  0
LINE
  5
DE37
  8
0
 10
175.00000000000159
 20
58.500000000000121
 30
0.0
 11
177.507385351316
 21
59.853988089709787
 31
0.0
  0
LINE
  5
DE38
  8
0
 10
218.96551724138081
 20
82.241379310344996
 30
0.0
 11
219.1249448645946
 21
82.32747022688045
 31
0.0
  0
LINE
  5
DE39
  8
0
 10
80.875055135408445
 20
82.32747022688045
 30
0.0
 11
81.034482758622232
 21
82.241379310344996
 31
0.0
  0
LINE
  5
DE3A
  8
0
 10
122.49335292895221
 20
59.853589418366589
 30
0.0
 11
125.00000000000151
 21
58.500000000000121
 31
0.0
  0
LINE
  5
DE3B
  8
0
 10
122.50000000000151
 20
59.850000000019349
 30
0.0
 11
122.50000000000151
 21
78.717676554699437
 31
0.0
  0
LINE
  5
DE3C
  8
0
 10
218.96551724138081
 20
82.241379310344996
 30
0.0
 11
184.1448931116405
 21
82.241379310344755
 31
0.0
  0
ARC
  5
DE3E
  8
0
 10
221.7857787871099
 20
77.400000000000432
 30
0.0
 40
5.5999999999997874
 50
90.0
 51
118.3690462932786
  0
ARC
  5
DE3F
  8
0
 10
78.214221212893165
 20
77.400000000000432
 30
0.0
 40
5.5999999999997954
 50
61.630953706721343
 51
90.0
  0
LINE
  5
DE40
  8
0
 10
54.649374695699812
 20
111.0000000000002
 30
0.0
 11
245.35062530430329
 21
111.0000000000002
 31
0.0
  0
ARC
  5
DE41
  8
0
 10
245.35062530430329
 20
108.2000000000002
 30
0.0
 40
2.799999999999963
 50
15.00000000000116
 51
90.0
  0
ARC
  5
DE42
  8
0
 10
54.649374695699812
 20
108.2000000000002
 30
0.0
 40
2.7999999999999621
 50
90.0
 51
164.99999999999881
  0
LINE
  5
DE44
  8
0
 10
51.944782382090409
 20
108.9246933262873
 30
0.0
 11
50.95407686390768
 21
105.22732999709039
 31
0.0
  0
LINE
  5
DE45
  8
0
 10
249.04592313609541
 20
105.22732999709039
 30
0.0
 11
248.05521761791269
 21
108.9246933262873
 31
0.0
  0
ARC
  5
DE47
  8
0
 10
222.0000000000021
 20
97.980396734219767
 30
0.0
 40
27.999999999999432
 50
0.0
 51
15.00000000000116
  0
ARC
  5
DE48
  8
0
 10
78.00000000000108
 20
97.980396734219767
 30
0.0
 40
27.999999999999488
 50
164.99999999999881
 51
179.99999914622629
  0
LINE
  5
DE49
  8
0
 10
59.333333333334792
 20
83.000000000000227
 30
0.0
 11
240.66666666666819
 21
83.000000000000227
 31
0.0
  0
ARC
  5
DE4A
  8
0
 10
240.66666666666819
 20
92.333333333333599
 30
0.0
 40
9.3333333333333357
 50
270.0
 51
0.0
  0
ARC
  5
DE4B
  8
0
 10
59.333333333334792
 20
92.333333333333485
 30
0.0
 40
9.3333333333332877
 50
180.0
 51
270.0
  0
LINE
  5
DE4E
  8
0
 10
250.00000000000151
 20
92.333333333333599
 30
0.0
 11
250.00000000000151
 21
97.980396734219894
 31
0.0
  0
LINE
  5
DE4F
  8
0
 10
50.000000000001528
 20
97.980396734219894
 30
0.0
 11
50.000000000001528
 21
92.333333333333599
 31
0.0
  0
LINE
  5
DEA1
  8
1
 10
167.0000000000033
 20
445.00000000000091
 30
0.0
 11
133.0000000000033
 21
445.00000000000091
 31
0.0
  0
LINE
  5
DEA2
  8
1
 10
150.00000000000151
 20
255.99999999999989
 30
0.0
 11
150.00000000000151
 21
466.00000000000313
 31
0.0
  0
LINE
  5
DEA3
  8
1
 10
255.00000000000321
 20
361.00000000000148
 30
0.0
 11
45.000000000000163
 21
361.00000000000148
 31
0.0
  0
CIRCLE
  5
DEA4
  8
0
 10
150.0000000000033
 20
445.00000000000091
 30
0.0
 40
12.00000000000003
  0
CIRCLE
  5
DEA7
  8
0
 10
150.0000000000033
 20
361.00000000000102
 30
0.0
 40
17.999999999998181
  0
ARC
  5
DEA8
  8
0
 10
150.0000000000033
 20
361.0000000000008
 30
0.0
 40
68.965517241379345
 50
119.6764073220503
 51
240.3235926779497
  0
POLYLINE
  5
DEA9
  8
0
 66
     1
 10
0.0
 20
0.0
 30
0.0
  0
VERTEX
  5
E652
  8
0
 10
122.5000000000033
 20
417.0581956898655
 30
0.0
  0
VERTEX
  5
E653
  8
0
 10
122.2472176009032
 20
418.53571242999811
 30
0.0
  0
VERTEX
  5
E654
  8
0
 10
121.5179083819777
 20
419.84480641351217
 30
0.0
  0
VERTEX
  5
E655
  8
0
 10
120.3930246717679
 20
420.83831798292982
 30
0.0
  0
VERTEX
  5
E656
  8
0
 10
119.0024229151274
 20
421.40060615217078
 30
0.0
  0
VERTEX
  5
E657
  8
0
 10
117.50783402548009
 20
421.46876113493511
 30
0.0
  0
VERTEX
  5
E658
  8
0
 10
116.0799230396794
 20
421.03939683800593
 30
0.0
  0
VERTEX
  5
E659
  8
0
 10
115.8551068883643
 20
420.91968660436947
 30
0.0
  0
SEQEND
  5
E65A
  8
0
  0
LINE
  5
DEAA
  8
0
 10
122.5000000000033
 20
304.94180431013598
 30
0.0
 11
122.5000000000033
 21
417.0581956898655
 31
0.0
  0
POLYLINE
  5
DEAB
  8
0
 66
     1
 10
0.0
 20
0.0
 30
0.0
  0
VERTEX
  5
E65B
  8
0
 10
115.8551068883643
 20
301.08031339563229
 30
0.0
  0
VERTEX
  5
E65C
  8
0
 10
117.2519121596026
 20
300.57062097928758
 30
0.0
  0
VERTEX
  5
E65D
  8
0
 10
118.7374029143906
 20
300.54997432720108
 30
0.0
  0
VERTEX
  5
E65E
  8
0
 10
120.14724265080049
 20
301.0203337294289
 30
0.0
  0
VERTEX
  5
E65F
  8
0
 10
121.32596724748861
 20
301.9322372673472
 30
0.0
  0
VERTEX
  5
E660
  8
0
 10
122.1390536322414
 20
303.1873443141593
 30
0.0
  0
VERTEX
  5
E661
  8
0
 10
122.4901042537021
 20
304.6453852426863
 30
0.0
  0
VERTEX
  5
E662
  8
0
 10
122.5000000000033
 20
304.94180431013598
 30
0.0
  0
SEQEND
  5
E663
  8
0
  0
LINE
  5
DEAE
  8
0
 10
177.5000000000033
 20
417.0581956898655
 30
0.0
 11
177.5000000000033
 21
304.94180431013598
 31
0.0
  0
POLYLINE
  5
DEAF
  8
0
 66
     1
 10
0.0
 20
0.0
 30
0.0
  0
VERTEX
  5
E664
  8
0
 10
184.14489311164209
 20
420.91968660436947
 30
0.0
  0
VERTEX
  5
E665
  8
0
 10
182.74808784040411
 20
421.42937902071418
 30
0.0
  0
VERTEX
  5
E666
  8
0
 10
181.26259708561579
 20
421.45002567280062
 30
0.0
  0
VERTEX
  5
E667
  8
0
 10
179.8527573492062
 20
420.97966627057292
 30
0.0
  0
VERTEX
  5
E668
  8
0
 10
178.6740327525178
 20
420.06776273265461
 30
0.0
  0
VERTEX
  5
E669
  8
0
 10
177.860946367765
 20
418.81265568584251
 30
0.0
  0
VERTEX
  5
E66A
  8
0
 10
177.5098957463043
 20
417.35461475731552
 30
0.0
  0
VERTEX
  5
E66B
  8
0
 10
177.5000000000033
 20
417.0581956898655
 30
0.0
  0
SEQEND
  5
E66C
  8
0
  0
ARC
  5
DEB0
  8
0
 10
150.0000000000031
 20
361.00000000000102
 30
0.0
 40
68.965517241379345
 50
299.6764073220503
 51
60.323592677949712
  0
POLYLINE
  5
DEB1
  8
0
 66
     1
 10
0.0
 20
0.0
 30
0.0
  0
VERTEX
  5
E66D
  8
0
 10
177.5000000000033
 20
304.94180431013598
 30
0.0
  0
VERTEX
  5
E66E
  8
0
 10
177.7527823991033
 20
303.46428757000371
 30
0.0
  0
VERTEX
  5
E66F
  8
0
 10
178.4820916180287
 20
302.15519358648959
 30
0.0
  0
VERTEX
  5
E670
  8
0
 10
179.60697532823849
 20
301.16168201707188
 30
0.0
  0
VERTEX
  5
E671
  8
0
 10
180.99757708487911
 20
300.59939384783098
 30
0.0
  0
VERTEX
  5
E672
  8
0
 10
182.4921659745261
 20
300.53123886506648
 30
0.0
  0
VERTEX
  5
E673
  8
0
 10
183.92007696032681
 20
300.96060316199589
 30
0.0
  0
VERTEX
  5
E674
  8
0
 10
184.14489311164209
 20
301.08031339563252
 30
0.0
  0
SEQEND
  5
E675
  8
0
  0
ARC
  5
DEB9
  8
0
 10
150.0000000000033
 20
361.0000000000008
 30
0.0
 40
83.770159395895305
 50
98.201829945868553
 51
81.798170054131447
  0
CIRCLE
  5
DEBB
  8
0
 10
150.00000000000151
 20
361.00000000000148
 30
0.0
 40
100.00000000000151
  0
LINE
  5
DF68
  8
2
 10
165.00000000000159
 20
50.200000000000038
 30
0.0
 11
165.00000000000159
 21
82.999999999999886
 31
0.0
  0
LINE
  5
DF69
  8
2
 10
135.00000000000139
 20
50.200000000000038
 30
0.0
 11
135.00000000000139
 21
82.999999999999886
 31
0.0
  0
LINE
  5
DF6C
  8
2
 10
168.00000000000151
 20
87.000000000000114
 30
0.0
 11
168.00000000000151
 21
84.0
 31
0.0
  0
LINE
  5
DF6D
  8
2
 10
164.00000000000151
 20
84.0
 30
0.0
 11
164.00000000000151
 21
83.000000000000227
 31
0.0
  0
LINE
  5
DF6E
  8
2
 10
136.00000000000151
 20
84.0
 30
0.0
 11
136.00000000000151
 21
83.000000000000227
 31
0.0
  0
LINE
  5
DF6F
  8
2
 10
132.00000000000151
 20
87.000000000000114
 30
0.0
 11
132.00000000000151
 21
84.0
 31
0.0
  0
LINE
  5
DF77
  8
2
 10
135.00000000000139
 20
83.0
 30
0.0
 11
136.00000000000151
 21
83.0
 31
0.0
  0
LINE
  5
DF7A
  8
2
 10
164.00000000000139
 20
83.0
 30
0.0
 11
165.00000000000159
 21
83.0
 31
0.0
  0
LINE
  5
E0D4
  8
2
 10
461.00000000000279
 20
353.00000000009828
 30
0.0
 11
427.00000000000279
 21
353.00000000009828
 31
0.0
  0
LINE
  5
E0D5
  8
2
 10
427.00000000000279
 20
369.0000000000984
 30
0.0
 11
461.00000000000279
 21
369.0000000000984
 31
0.0
  0
LINE
  5
E0D6
  8
2
 10
427.00000000000279
 20
379.00000000009828
 30
0.0
 11
427.00000000000279
 21
343.00000000009828
 31
0.0
  0
LINE
  5
E0D7
  8
2
 10
428.00000000000279
 20
376.00000000009828
 30
0.0
 11
428.00000000000279
 21
375.0000000000984
 31
0.0
  0
LINE
  5
E0D8
  8
2
 10
428.00000000000279
 20
347.00000000009828
 30
0.0
 11
428.00000000000279
 21
346.0000000000984
 31
0.0
  0
LINE
  5
E0D9
  8
2
 10
424.00000000000279
 20
379.00000000009828
 30
0.0
 11
424.00000000000279
 21
343.00000000009828
 31
0.0
  0
LINE
  5
E0DA
  8
2
 10
460.8000000000028
 20
346.0000000000984
 30
0.0
 11
428.00000000000301
 21
346.0000000000984
 31
0.0
  0
LINE
  5
E0DB
  8
2
 10
460.8000000000028
 20
376.00000000009828
 30
0.0
 11
428.00000000000301
 21
376.00000000009828
 31
0.0
  0
LINE
  5
E0DC
  8
2
 10
424.00000000000279
 20
343.00000000009828
 30
0.0
 11
427.00000000000279
 21
343.00000000009828
 31
0.0
  0
LINE
  5
E0DD
  8
2
 10
427.00000000000279
 20
347.00000000009828
 30
0.0
 11
428.00000000000261
 21
347.00000000009828
 31
0.0
  0
LINE
  5
E0DE
  8
2
 10
427.00000000000279
 20
375.0000000000984
 30
0.0
 11
428.00000000000261
 21
375.0000000000984
 31
0.0
  0
LINE
  5
E0DF
  8
2
 10
424.00000000000279
 20
379.00000000009828
 30
0.0
 11
427.00000000000279
 21
379.00000000009828
 31
0.0
  0
ENDSEC
  0
EOF
