  0
SECTION
  2
HEADER
  9
$ACADVER
  1
AC1009
  9
$INSBASE
 10
0.0
 20
0.0
 30
0.0
  9
$EXTMIN
 10
0.0
 20
-2.960436562073669
 30
0.0
  9
$EXTMAX
 10
803.36822744121685
 20
483.79437351102808
 30
0.0
  9
$LIMMIN
 10
0.0
 20
0.0
  9
$LIMMAX
 10
375.0
 20
270.0
  9
$ORTHOMODE
 70
     1
  9
$REGENMODE
 70
     1
  9
$FILLMODE
 70
     1
  9
$QTEXTMODE
 70
     0
  9
$MIRRTEXT
 70
     0
  9
$DRAGMODE
 70
     2
  9
$LTSCALE
 40
10.0
  9
$OSMODE
 70
    37
  9
$ATTMODE
 70
     1
  9
$TEXTSIZE
 40
0.2
  9
$TRACEWID
 40
0.05
  9
$TEXTSTYLE
  7
STANDARD
  9
$CLAYER
  8
0
  9
$CELTYPE
  6
BYLAYER
  9
$CECOLOR
 62
   256
  9
$DIMSCALE
 40
1.0
  9
$DIMASZ
 40
3.0
  9
$DIMEXO
 40
2.0
  9
$DIMDLI
 40
0.38
  9
$DIMRND
 40
0.0
  9
$DIMDLE
 40
0.0
  9
$DIMEXE
 40
2.0
  9
$DIMTP
 40
0.0
  9
$DIMTM
 40
0.0
  9
$DIMTXT
 40
3.2000000000000002
  9
$DIMCEN
 40
0.0
  9
$DIMTSZ
 40
0.0
  9
$DIMTOL
 70
     0
  9
$DIMLIM
 70
     0
  9
$DIMTIH
 70
     0
  9
$DIMTOH
 70
     0
  9
$DIMSE1
 70
     0
  9
$DIMSE2
 70
     0
  9
$DIMTAD
 70
     1
  9
$DIMZIN
 70
     8
  9
$DIMBLK
  1

  9
$DIMASO
 70
     1
  9
$DIMSHO
 70
     0
  9
$DIMPOST
  1

  9
$DIMAPOST
  1

  9
$DIMALT
 70
     0
  9
$DIMALTD
 70
     2
  9
$DIMALTF
 40
25.399999999999999
  9
$DIMLFAC
 40
1.0
  9
$DIMTOFL
 70
     1
  9
$DIMTVP
 40
1.6000000000000001
  9
$DIMTIX
 70
     1
  9
$DIMSOXD
 70
     0
  9
$DIMSAH
 70
     0
  9
$DIMBLK1
  1

  9
$DIMBLK2
  1

  9
$DIMSTYLE
  2
STANDARD
  9
$DIMCLRD
 70
     0
  9
$DIMCLRE
 70
     0
  9
$DIMCLRT
 70
     0
  9
$DIMTFAC
 40
1.0
  9
$DIMGAP
 40
1.5
  9
$LUNITS
 70
     2
  9
$LUPREC
 70
     1
  9
$SKETCHINC
 40
0.1
  9
$FILLETRAD
 40
0.0
  9
$AUNITS
 70
     0
  9
$AUPREC
 70
     1
  9
$MENU
  1
E:\r13\win\SUPPORT\ACAD
  9
$ELEVATION
 40
0.0
  9
$PELEVATION
 40
0.0
  9
$THICKNESS
 40
0.0
  9
$LIMCHECK
 70
     0
  9
$BLIPMODE
 70
     0
  9
$CHAMFERA
 40
0.0
  9
$CHAMFERB
 40
0.0
  9
$SKPOLY
 70
     0
  9
$TDCREATE
 40
2449839.7800462958
  9
$TDUPDATE
 40
2458053.4770824891
  9
$TDINDWG
 40
1.0924956713
  9
$TDUSRTIMER
 40
1.0924956713
  9
$USRTIMER
 70
     1
  9
$ANGBASE
 50
0.0
  9
$ANGDIR
 70
     0
  9
$PDMODE
 70
     0
  9
$PDSIZE
 40
0.0
  9
$PLINEWID
 40
0.0
  9
$COORDS
 70
     1
  9
$SPLFRAME
 70
     0
  9
$SPLINETYPE
 70
     6
  9
$SPLINESEGS
 70
     8
  9
$ATTDIA
 70
     0
  9
$ATTREQ
 70
     1
  9
$HANDLING
 70
     1
  9
$HANDSEED
  5
9FA9
  9
$SURFTAB1
 70
     6
  9
$SURFTAB2
 70
     6
  9
$SURFTYPE
 70
     6
  9
$SURFU
 70
     6
  9
$SURFV
 70
     6
  9
$UCSNAME
  2

  9
$UCSORG
 10
0.0
 20
0.0
 30
0.0
  9
$UCSXDIR
 10
1.0
 20
0.0
 30
0.0
  9
$UCSYDIR
 10
0.0
 20
1.0
 30
0.0
  9
$PUCSNAME
  2

  9
$PUCSORG
 10
0.0
 20
0.0
 30
0.0
  9
$PUCSXDIR
 10
1.0
 20
0.0
 30
0.0
  9
$PUCSYDIR
 10
0.0
 20
1.0
 30
0.0
  9
$USERI1
 70
     0
  9
$USERI2
 70
     1
  9
$USERI3
 70
     1
  9
$USERI4
 70
     0
  9
$USERI5
 70
     0
  9
$USERR1
 40
0.0
  9
$USERR2
 40
0.0
  9
$USERR3
 40
0.0
  9
$USERR4
 40
0.0
  9
$USERR5
 40
0.0
  9
$WORLDVIEW
 70
     1
  9
$SHADEDGE
 70
     3
  9
$SHADEDIF
 70
    70
  9
$TILEMODE
 70
     1
  9
$MAXACTVP
 70
    16
  9
$PLIMCHECK
 70
     0
  9
$PEXTMIN
 10
1.0000000000000000E+020
 20
1.0000000000000000E+020
 30
1.0000000000000000E+020
  9
$PEXTMAX
 10
-1.0000000000000000E+020
 20
-1.0000000000000000E+020
 30
-1.0000000000000000E+020
  9
$PLIMMIN
 10
0.0
 20
0.0
  9
$PLIMMAX
 10
12.0
 20
9.0
  9
$UNITMODE
 70
     0
  9
$VISRETAIN
 70
     0
  9
$PLINEGEN
 70
     0
  9
$PSLTSCALE
 70
     0
  0
ENDSEC
  0
SECTION
  2
TABLES
  0
TABLE
  2
VPORT
 70
     1
  0
VPORT
  2
*ACTIVE
 70
     0
 10
0.0
 20
0.0
 11
1.0
 21
1.0
 12
635.68376068376062
 22
350.0
 13
0.0
 23
0.0
 14
10.0
 24
10.0
 15
10.0
 25
10.0
 16
0.0
 26
0.0
 36
1.0
 17
0.0
 27
0.0
 37
0.0
 40
700.0
 41
1.816239316239316
 42
50.0
 43
0.0
 44
0.0
 50
0.0
 51
0.0
 71
     0
 72
   500
 73
     1
 74
     0
 75
     0
 76
     0
 77
     0
 78
     2
  0
ENDTAB
  0
TABLE
  2
LTYPE
 70
     4
  0
LTYPE
  2
CONTINUOUS
 70
     0
  3
Solid Line
 72
    65
 73
     0
 40
0.0
  0
LTYPE
  2
CENTER
 70
     0
  3
____ _ ____ _ ____ _ ____ _ ____ _ ____ _ ____
 72
    65
 73
     4
 40
2.0
 49
1.25
 49
-0.25
 49
0.25
 49
-0.25
  0
LTYPE
  2
HIDDEN
 70
     0
  3
_ _ _ _ _ _ _ _ _ _ _ _ _ _ _ _ _ _ _ _ _ _ _
 72
    65
 73
     2
 40
0.375
 49
0.25
 49
-0.125
  0
LTYPE
  2
PHANTOM2
 70
     0
  3
___ _ _ ___ _ _ ___ _ _ ___ _ _
 72
    65
 73
     6
 40
1.25
 49
0.625
 49
-0.125
 49
0.125
 49
-0.125
 49
0.125
 49
-0.125
  0
ENDTAB
  0
TABLE
  2
LAYER
 70
     4
  0
LAYER
  2
0
 70
     0
 62
     7
  6
CONTINUOUS
  0
LAYER
  2
1
 70
     0
 62
     1
  6
CENTER
  0
LAYER
  2
2
 70
     0
 62
     2
  6
HIDDEN
  0
LAYER
  2
DEFPOINTS
 70
     0
 62
     7
  6
CONTINUOUS
  0
ENDTAB
  0
TABLE
  2
STYLE
 70
     2
  0
STYLE
  2
STANDARD
 70
     0
 40
0.0
 41
1.0
 50
0.0
 71
     0
 42
0.2
  3
TXT
  4
BIGFONT
  0
STYLE
  2
STANDARD1
 70
     0
 40
0.0
 41
1.0
 50
0.0
 71
     0
 42
3.0
  3
txt
  4

  0
ENDTAB
  0
TABLE
  2
VIEW
 70
     1
  0
VIEW
  2
ALL
 70
     0
 40
270.0
 10
220.99159663865549
 20
135.0
 41
0.0
 11
0.0
 21
0.0
 31
1.0
 12
0.0
 22
0.0
 32
0.0
 42
0.0
 43
0.0
 44
0.0
 50
0.0
 71
     0
  0
ENDTAB
  0
TABLE
  2
UCS
 70
     0
  0
ENDTAB
  0
TABLE
  2
APPID
 70
     8
  0
APPID
  2
ACAD
 70
     0
  0
APPID
  2
ACAD_MLEADERVER
 70
     0
  0
APPID
  2
ACAD_EXEMPT_FROM_CAD_STANDARDS
 70
     0
  0
APPID
  2
ACAD_DSTYLE_DIMJAG
 70
     0
  0
APPID
  2
ACAD_DSTYLE_DIMTALN
 70
     0
  0
APPID
  2
ACAD_DSTYLE_DIMRADIAL_EXTENSION
 70
     0
  0
APPID
  2
ACAD_PSEXT
 70
     0
  0
APPID
  2
ACAD_NAV_VCDISPLAY
 70
     0
  0
ENDTAB
  0
TABLE
  2
DIMSTYLE
 70
     1
  0
DIMSTYLE
  2
STANDARD
 70
     0
  3

  4

  5

  6

  7

 40
1.0
 41
0.18
 42
0.0625
 43
0.38
 44
0.18
 45
0.0
 46
0.0
 47
0.0
 48
0.0
140
0.18
141
0.09
142
0.0
143
25.399999999999999
144
1.0
145
0.0
146
1.0
147
0.09
 71
     0
 72
     0
 73
     1
 74
     1
 75
     0
 76
     0
 77
     0
 78
     0
170
     0
171
     2
172
     0
173
     0
174
     0
175
     0
176
     0
177
     0
178
     0
  0
ENDTAB
  0
ENDSEC
  0
SECTION
  2
BLOCKS
  0
BLOCK
  8
0
  2
$MODEL_SPACE
 70
     0
 10
0.0
 20
0.0
 30
0.0
  3
$MODEL_SPACE
  1

  0
ENDBLK
  5
11B
  8
0
  0
BLOCK
 67
     1
  8
0
  2
$PAPER_SPACE
 70
     0
 10
0.0
 20
0.0
 30
0.0
  3
$PAPER_SPACE
  1

  0
ENDBLK
  5
119
 67
     1
  8
0
  0
ENDSEC
  0
SECTION
  2
ENTITIES
  0
LINE
  5
46D1
  8
1
 10
593.72355129488551
 20
458.79437351102808
 30
0.0
 11
553.7235512948854
 21
458.79437351102808
 31
0.0
  0
CIRCLE
  5
46D9
  8
0
 10
573.72355129488551
 20
393.79437351102808
 30
0.0
 40
80.0
  0
ARC
  5
46E5
  8
0
 10
573.72355129488551
 20
393.79437351102808
 30
0.0
 40
60.246457611173312
 50
98.061943702478317
 51
81.938056297522095
  0
POLYLINE
  5
46EE
  8
0
 66
     1
 10
0.0
 20
0.0
 30
0.0
  0
VERTEX
  5
9A60
  8
0
 10
546.40763680557427
 20
441.7301227945228
 30
0.0
  0
VERTEX
  5
9A61
  8
0
 10
546.43651466971755
 20
441.74640081857262
 30
0.0
  0
VERTEX
  5
9A62
  8
0
 10
546.49497667739195
 20
441.77828285261933
 30
0.0
  0
VERTEX
  5
9A63
  8
0
 10
546.55435407276173
 20
441.80923179737567
 30
0.0
  0
VERTEX
  5
9A64
  8
0
 10
546.58437581056228
 20
441.82434383273551
 30
0.0
  0
VERTEX
  5
9A65
  8
0
 10
546.61461394117566
 20
441.8392077709691
 30
0.0
  0
VERTEX
  5
9A66
  8
0
 10
546.67572199755057
 20
441.86817259924061
 30
0.0
  0
VERTEX
  5
9A67
  8
0
 10
546.73764276197119
 20
441.89608991595389
 30
0.0
  0
VERTEX
  5
9A68
  8
0
 10
546.80033974208527
 20
441.92292524601231
 30
0.0
  0
VERTEX
  5
9A69
  8
0
 10
546.86377562275311
 20
441.9486460719146
 30
0.0
  0
VERTEX
  5
9A6A
  8
0
 10
546.92791246334707
 20
441.9732218834647
 30
0.0
  0
VERTEX
  5
9A6B
  8
0
 10
546.96023176648021
 20
441.98507143172088
 30
0.0
  0
VERTEX
  5
9A6C
  8
0
 10
546.99271190299123
 20
441.99662421058622
 30
0.0
  0
VERTEX
  5
9A6D
  8
0
 10
547.05813537393033
 20
442.01882663889103
 30
0.0
  0
VERTEX
  5
9A6E
  8
0
 10
547.12414426787382
 20
442.03980479055832
 30
0.0
  0
VERTEX
  5
9A6F
  8
0
 10
547.19069945004719
 20
442.05953610509511
 30
0.0
  0
VERTEX
  5
9A70
  8
0
 10
547.25776066774267
 20
442.07799966115232
 30
0.0
  0
VERTEX
  5
9A71
  8
0
 10
547.32528664676465
 20
442.09517624609049
 30
0.0
  0
VERTEX
  5
9A72
  8
0
 10
547.35921078811634
 20
442.10327640771732
 30
0.0
  0
VERTEX
  5
9A73
  8
0
 10
547.39323526979865
 20
442.11104843604392
 30
0.0
  0
VERTEX
  5
9A74
  8
0
 10
547.46156375740645
 20
442.12560065905342
 30
0.0
  0
VERTEX
  5
9A75
  8
0
 10
547.53022885185828
 20
442.13881924153708
 30
0.0
  0
VERTEX
  5
9A76
  8
0
 10
547.5646740237562
 20
442.14492467138598
 30
0.0
  0
VERTEX
  5
9A77
  8
0
 10
547.59918700403307
 20
442.1506924382511
 30
0.0
  0
VERTEX
  5
9A78
  8
0
 10
547.66839456359594
 20
442.16121044576551
 30
0.0
  0
VERTEX
  5
9A79
  8
0
 10
547.73780797264089
 20
442.17036539934873
 30
0.0
  0
VERTEX
  5
9A7A
  8
0
 10
547.77257833261524
 20
442.17442979874937
 30
0.0
  0
VERTEX
  5
9A7B
  8
0
 10
547.80738508223203
 20
442.17815146716208
 30
0.0
  0
VERTEX
  5
9A7C
  8
0
 10
547.87709924798116
 20
442.1845658427315
 30
0.0
  0
VERTEX
  5
9A7D
  8
0
 10
547.94691254039344
 20
442.18960552395998
 30
0.0
  0
VERTEX
  5
9A7E
  8
0
 10
548.01678093973817
 20
442.1932686437741
 30
0.0
  0
VERTEX
  5
9A7F
  8
0
 10
548.08665986437609
 20
442.19555518859579
 30
0.0
  0
VERTEX
  5
9A80
  8
0
 10
548.15650435951954
 20
442.19646704864101
 30
0.0
  0
VERTEX
  5
9A81
  8
0
 10
548.19139959202403
 20
442.19640859165838
 30
0.0
  0
VERTEX
  5
9A82
  8
0
 10
548.22626928575278
 20
442.19600805115448
 30
0.0
  0
VERTEX
  5
9A83
  8
0
 10
548.29590950744284
 20
442.19418397680931
 30
0.0
  0
VERTEX
  5
9A84
  8
0
 10
548.3653800812499
 20
442.19100255939162
 30
0.0
  0
VERTEX
  5
9A85
  8
0
 10
548.43463644497251
 20
442.18647346876571
 30
0.0
  0
VERTEX
  5
9A86
  8
0
 10
548.50363460701351
 20
442.18060827698719
 30
0.0
  0
VERTEX
  5
9A87
  8
0
 10
548.57233132257545
 20
442.17342040894528
 30
0.0
  0
VERTEX
  5
9A88
  8
0
 10
548.60655327793324
 20
442.1693351691934
 30
0.0
  0
VERTEX
  5
9A89
  8
0
 10
548.64068380901881
 20
442.16492513916739
 30
0.0
  0
VERTEX
  5
9A8A
  8
0
 10
548.70864897786987
 20
442.15513970155831
 30
0.0
  0
VERTEX
  5
9A8B
  8
0
 10
548.77618344021403
 20
442.14408336089821
 30
0.0
  0
VERTEX
  5
9A8C
  8
0
 10
548.84324371827495
 20
442.1317774493823
 30
0.0
  0
VERTEX
  5
9A8D
  8
0
 10
548.90978645305415
 20
442.11824538449679
 30
0.0
  0
VERTEX
  5
9A8E
  8
0
 10
548.9757686074006
 20
442.10351266875762
 30
0.0
  0
VERTEX
  5
9A8F
  8
0
 10
549.00853615479457
 20
442.09570460239598
 30
0.0
  0
VERTEX
  5
9A90
  8
0
 10
549.04114766473185
 20
442.08760687164579
 30
0.0
  0
VERTEX
  5
9A91
  8
0
 10
549.10588182377251
 20
442.0705575938992
 30
0.0
  0
VERTEX
  5
9A92
  8
0
 10
549.16993018979792
 20
442.05239641415437
 30
0.0
  0
VERTEX
  5
9A93
  8
0
 10
549.23325922695847
 20
442.03315485066111
 30
0.0
  0
VERTEX
  5
9A94
  8
0
 10
549.29630081940195
 20
442.01271044647461
 30
0.0
  0
VERTEX
  5
9A95
  8
0
 10
549.35930055907875
 20
441.99097008284258
 30
0.0
  0
VERTEX
  5
9A96
  8
0
 10
549.39076878629965
 20
441.97961264505432
 30
0.0
  0
VERTEX
  5
9A97
  8
0
 10
549.42220743663029
 20
441.96792996177749
 30
0.0
  0
VERTEX
  5
9A98
  8
0
 10
549.48497069042935
 20
441.94358842957217
 30
0.0
  0
VERTEX
  5
9A99
  8
0
 10
549.54753999693025
 20
441.91794592341932
 30
0.0
  0
VERTEX
  5
9A9A
  8
0
 10
549.60986565298015
 20
441.8910049021739
 30
0.0
  0
VERTEX
  5
9A9B
  8
0
 10
549.67189875066197
 20
441.86276976115869
 30
0.0
  0
VERTEX
  5
9A9C
  8
0
 10
549.73359134503914
 20
441.83324673080011
 30
0.0
  0
VERTEX
  5
9A9D
  8
0
 10
549.76429527373455
 20
441.81800467726271
 30
0.0
  0
VERTEX
  5
9A9E
  8
0
 10
549.79489661499838
 20
441.80244375882421
 30
0.0
  0
VERTEX
  5
9A9F
  8
0
 10
549.85576901717513
 20
441.7703703756971
 30
0.0
  0
VERTEX
  5
9AA0
  8
0
 10
549.91616442752809
 20
441.7370375459127
 30
0.0
  0
VERTEX
  5
9AA1
  8
0
 10
549.94616983601281
 20
441.7199026497625
 30
0.0
  0
VERTEX
  5
9AA2
  8
0
 10
549.97603996691976
 20
441.70245768483028
 30
0.0
  0
VERTEX
  5
9AA3
  8
0
 10
550.03535330318005
 20
441.66664502592857
 30
0.0
  0
VERTEX
  5
9AA4
  8
0
 10
550.09406258327454
 20
441.62961569732499
 30
0.0
  0
VERTEX
  5
9AA5
  8
0
 10
550.12317779763362
 20
441.61065032374069
 30
0.0
  0
VERTEX
  5
9AA6
  8
0
 10
550.15212660917314
 20
441.59138765454469
 30
0.0
  0
VERTEX
  5
9AA7
  8
0
 10
550.20950500554977
 20
441.55198059916631
 30
0.0
  0
VERTEX
  5
9AA8
  8
0
 10
550.2661583774011
 20
441.51141588466601
 30
0.0
  0
VERTEX
  5
9AA9
  8
0
 10
550.32204845790545
 20
441.4697164094365
 30
0.0
  0
VERTEX
  5
9AAA
  8
0
 10
550.37713824674461
 20
441.42690649687898
 30
0.0
  0
VERTEX
  5
9AAB
  8
0
 10
550.43139213901247
 20
441.38301176238582
 30
0.0
  0
VERTEX
  5
9AAC
  8
0
 10
550.45819490856445
 20
441.36066590926208
 30
0.0
  0
VERTEX
  5
9AAD
  8
0
 10
550.48477604473635
 20
441.33805896698101
 30
0.0
  0
VERTEX
  5
9AAE
  8
0
 10
550.53726385297455
 20
441.29207017885261
 30
0.0
  0
VERTEX
  5
9AAF
  8
0
 10
550.58883392095549
 20
441.24506481500657
 30
0.0
  0
VERTEX
  5
9AB0
  8
0
 10
550.63945505547235
 20
441.19707249973641
 30
0.0
  0
VERTEX
  5
9AB1
  8
0
 10
550.68909681532205
 20
441.14812464517178
 30
0.0
  0
VERTEX
  5
9AB2
  8
0
 10
550.73772980539536
 20
441.09825424551042
 30
0.0
  0
VERTEX
  5
9AB3
  8
0
 10
550.76165914966884
 20
441.07298380872999
 30
0.0
  0
VERTEX
  5
9AB4
  8
0
 10
550.78532582941443
 20
441.04749577118127
 30
0.0
  0
VERTEX
  5
9AB5
  8
0
 10
550.83185803074355
 20
440.99588505209209
 30
0.0
  0
VERTEX
  5
9AB6
  8
0
 10
550.87730102152136
 20
440.94345914993079
 30
0.0
  0
VERTEX
  5
9AB7
  8
0
 10
550.92163100031496
 20
440.89025621937259
 30
0.0
  0
VERTEX
  5
9AB8
  8
0
 10
550.96482585842784
 20
440.8363153579304
 30
0.0
  0
VERTEX
  5
9AB9
  8
0
 10
551.00686527487687
 20
440.78167644415828
 30
0.0
  0
VERTEX
  5
9ABA
  8
0
 10
551.02744584220875
 20
440.75410786371827
 30
0.0
  0
VERTEX
  5
9ABB
  8
0
 10
551.0477307169034
 20
440.72638007852362
 30
0.0
  0
VERTEX
  5
9ABC
  8
0
 10
551.08740501353566
 20
440.67046813803017
 30
0.0
  0
VERTEX
  5
9ABD
  8
0
 10
551.12587218134831
 20
440.61398410738872
 30
0.0
  0
VERTEX
  5
9ABE
  8
0
 10
551.16311758165421
 20
440.55697297952531
 30
0.0
  0
VERTEX
  5
9ABF
  8
0
 10
551.19912807807816
 20
440.49948112588169
 30
0.0
  0
VERTEX
  5
9AC0
  8
0
 10
551.23389217838087
 20
440.4415561578258
 30
0.0
  0
VERTEX
  5
9AC1
  8
0
 10
551.2508037196576
 20
440.41244643740549
 30
0.0
  0
VERTEX
  5
9AC2
  8
0
 10
551.2674001609048
 20
440.38324677929592
 30
0.0
  0
VERTEX
  5
9AC3
  8
0
 10
551.29964418600196
 20
440.32460263058198
 30
0.0
  0
VERTEX
  5
9AC4
  8
0
 10
551.3306183927607
 20
440.26567412296401
 30
0.0
  0
VERTEX
  5
9AC5
  8
0
 10
551.36031898129568
 20
440.20651226371513
 30
0.0
  0
VERTEX
  5
9AC6
  8
0
 10
551.38881815816478
 20
440.14701049070987
 30
0.0
  0
VERTEX
  5
9AC7
  8
0
 10
551.41637262449649
 20
440.08662121961891
 30
0.0
  0
VERTEX
  5
9AC8
  8
0
 10
551.42979176281995
 20
440.05608447491392
 30
0.0
  0
VERTEX
  5
9AC9
  8
0
 10
551.44296486808344
 20
440.02532614582202
 30
0.0
  0
VERTEX
  5
9ACA
  8
0
 10
551.4685518647683
 20
439.96316475141981
 30
0.0
  0
VERTEX
  5
9ACB
  8
0
 10
551.49309276457461
 20
439.90017788656371
 30
0.0
  0
VERTEX
  5
9ACC
  8
0
 10
551.50495878140839
 20
439.86838799068897
 30
0.0
  0
VERTEX
  5
9ACD
  8
0
 10
551.51654898907725
 20
439.83640755842049
 30
0.0
  0
VERTEX
  5
9ACE
  8
0
 10
551.53888430867801
 20
439.77189671215422
 30
0.0
  0
VERTEX
  5
9ACF
  8
0
 10
551.56006489992114
 20
439.70668900302189
 30
0.0
  0
VERTEX
  5
9AD0
  8
0
 10
551.57021227008795
 20
439.67383760306041
 30
0.0
  0
VERTEX
  5
9AD1
  8
0
 10
551.58005938272254
 20
439.64082855880832
 30
0.0
  0
VERTEX
  5
9AD2
  8
0
 10
551.59883883710654
 20
439.57435973197943
 30
0.0
  0
VERTEX
  5
9AD3
  8
0
 10
551.61637678360739
 20
439.50732690162067
 30
0.0
  0
VERTEX
  5
9AD4
  8
0
 10
551.63264898209036
 20
439.43977498909283
 30
0.0
  0
VERTEX
  5
9AD5
  8
0
 10
551.64763327727383
 20
439.37175009081608
 30
0.0
  0
VERTEX
  5
9AD6
  8
0
 10
551.66130967220295
 20
439.3032993519397
 30
0.0
  0
VERTEX
  5
9AD7
  8
0
 10
551.66765176800197
 20
439.26892925847739
 30
0.0
  0
VERTEX
  5
9AD8
  8
0
 10
551.67366040705065
 20
439.23447074908847
 30
0.0
  0
VERTEX
  5
9AD9
  8
0
 10
551.68467001760166
 20
439.16531287078362
 30
0.0
  0
VERTEX
  5
9ADA
  8
0
 10
551.69432537373905
 20
439.0958746948582
 30
0.0
  0
VERTEX
  5
9ADB
  8
0
 10
551.70261569802335
 20
439.02620536221508
 30
0.0
  0
VERTEX
  5
9ADC
  8
0
 10
551.70953256427299
 20
438.95635394631211
 30
0.0
  0
VERTEX
  5
9ADD
  8
0
 10
551.71506990978082
 20
438.88636872727932
 30
0.0
  0
VERTEX
  5
9ADE
  8
0
 10
551.71732024696394
 20
438.85133645101592
 30
0.0
  0
VERTEX
  5
9ADF
  8
0
 10
551.71922460075302
 20
438.8162836555212
 30
0.0
  0
VERTEX
  5
9AE0
  8
0
 10
551.72199431564513
 20
438.74614141303078
 30
0.0
  0
VERTEX
  5
9AE1
  8
0
 10
551.72337841562012
 20
438.6759919193683
 30
0.0
  0
VERTEX
  5
9AE2
  8
0
 10
551.72355129488551
 20
438.64093006291989
 30
0.0
  0
SEQEND
  5
9AE3
  8
0
  0
ARC
  5
46EF
  8
0
 10
573.72355129488551
 20
393.79437351102808
 30
0.0
 40
55.172413793103431
 50
119.6764073220501
 51
240.32359366832139
  0
POLYLINE
  5
46F0
  8
0
 66
     1
 10
0.0
 20
0.0
 30
0.0
  0
VERTEX
  5
9AE4
  8
0
 10
551.72355129488551
 20
348.94781695913628
 30
0.0
  0
VERTEX
  5
9AE5
  8
0
 10
551.72337841562012
 20
348.91275510268781
 30
0.0
  0
VERTEX
  5
9AE6
  8
0
 10
551.72199431564513
 20
348.84260560902533
 30
0.0
  0
VERTEX
  5
9AE7
  8
0
 10
551.71922460075302
 20
348.77246336653491
 30
0.0
  0
VERTEX
  5
9AE8
  8
0
 10
551.71732024696394
 20
348.7374105710399
 30
0.0
  0
VERTEX
  5
9AE9
  8
0
 10
551.71506990978082
 20
348.70237829477662
 30
0.0
  0
VERTEX
  5
9AEA
  8
0
 10
551.70953256427299
 20
348.63239307574401
 30
0.0
  0
VERTEX
  5
9AEB
  8
0
 10
551.70261569802335
 20
348.5625416598408
 30
0.0
  0
VERTEX
  5
9AEC
  8
0
 10
551.69432537373905
 20
348.49287232719809
 30
0.0
  0
VERTEX
  5
9AED
  8
0
 10
551.68467001760166
 20
348.42343415127232
 30
0.0
  0
VERTEX
  5
9AEE
  8
0
 10
551.67366040705065
 20
348.35427627296752
 30
0.0
  0
VERTEX
  5
9AEF
  8
0
 10
551.66765176800197
 20
348.3198177635785
 30
0.0
  0
VERTEX
  5
9AF0
  8
0
 10
551.66130967220295
 20
348.28544767011653
 30
0.0
  0
VERTEX
  5
9AF1
  8
0
 10
551.6476332772736
 20
348.21699693123981
 30
0.0
  0
VERTEX
  5
9AF2
  8
0
 10
551.63264898209036
 20
348.14897203296329
 30
0.0
  0
VERTEX
  5
9AF3
  8
0
 10
551.61637678360739
 20
348.08142012043561
 30
0.0
  0
VERTEX
  5
9AF4
  8
0
 10
551.59883883710654
 20
348.0143872900768
 30
0.0
  0
VERTEX
  5
9AF5
  8
0
 10
551.58005938272254
 20
347.94791846324767
 30
0.0
  0
VERTEX
  5
9AF6
  8
0
 10
551.57021227008795
 20
347.91490941899599
 30
0.0
  0
VERTEX
  5
9AF7
  8
0
 10
551.56006489992114
 20
347.88205801903422
 30
0.0
  0
VERTEX
  5
9AF8
  8
0
 10
551.53888430867801
 20
347.81685030990189
 30
0.0
  0
VERTEX
  5
9AF9
  8
0
 10
551.51654898907725
 20
347.75233946363562
 30
0.0
  0
VERTEX
  5
9AFA
  8
0
 10
551.50495878140839
 20
347.72035903136691
 30
0.0
  0
VERTEX
  5
9AFB
  8
0
 10
551.49309276457461
 20
347.68856913549251
 30
0.0
  0
VERTEX
  5
9AFC
  8
0
 10
551.4685518647683
 20
347.6255822706363
 30
0.0
  0
VERTEX
  5
9AFD
  8
0
 10
551.44296486808344
 20
347.56342087623432
 30
0.0
  0
VERTEX
  5
9AFE
  8
0
 10
551.42979176281995
 20
347.53266254714219
 30
0.0
  0
VERTEX
  5
9AFF
  8
0
 10
551.41637262449649
 20
347.50212580243698
 30
0.0
  0
VERTEX
  5
9B00
  8
0
 10
551.38881815816478
 20
347.44173653134618
 30
0.0
  0
VERTEX
  5
9B01
  8
0
 10
551.36031898129568
 20
347.38223475834081
 30
0.0
  0
VERTEX
  5
9B02
  8
0
 10
551.3306183927607
 20
347.32307289909193
 30
0.0
  0
VERTEX
  5
9B03
  8
0
 10
551.29964418600196
 20
347.26414439147408
 30
0.0
  0
VERTEX
  5
9B04
  8
0
 10
551.2674001609048
 20
347.20550024276019
 30
0.0
  0
VERTEX
  5
9B05
  8
0
 10
551.25080371965737
 20
347.17630058465051
 30
0.0
  0
VERTEX
  5
9B06
  8
0
 10
551.23389217838087
 20
347.14719086423031
 30
0.0
  0
VERTEX
  5
9B07
  8
0
 10
551.19912807807816
 20
347.08926589617442
 30
0.0
  0
VERTEX
  5
9B08
  8
0
 10
551.16311758165421
 20
347.03177404253063
 30
0.0
  0
VERTEX
  5
9B09
  8
0
 10
551.12587218134831
 20
346.97476291466739
 30
0.0
  0
VERTEX
  5
9B0A
  8
0
 10
551.08740501353566
 20
346.91827888402588
 30
0.0
  0
VERTEX
  5
9B0B
  8
0
 10
551.04773071690329
 20
346.86236694353232
 30
0.0
  0
VERTEX
  5
9B0C
  8
0
 10
551.02744584220875
 20
346.83463915833778
 30
0.0
  0
VERTEX
  5
9B0D
  8
0
 10
551.00686527487687
 20
346.80707057789789
 30
0.0
  0
VERTEX
  5
9B0E
  8
0
 10
550.96482585842784
 20
346.75243166412548
 30
0.0
  0
VERTEX
  5
9B0F
  8
0
 10
550.92163100031485
 20
346.69849080268352
 30
0.0
  0
VERTEX
  5
9B10
  8
0
 10
550.87730102152136
 20
346.64528787212532
 30
0.0
  0
VERTEX
  5
9B11
  8
0
 10
550.83185803074355
 20
346.5928619699643
 30
0.0
  0
VERTEX
  5
9B12
  8
0
 10
550.78532582941443
 20
346.54125125087478
 30
0.0
  0
VERTEX
  5
9B13
  8
0
 10
550.76165914966884
 20
346.5157632133259
 30
0.0
  0
VERTEX
  5
9B14
  8
0
 10
550.73772980539525
 20
346.49049277654569
 30
0.0
  0
VERTEX
  5
9B15
  8
0
 10
550.68909681532205
 20
346.44062237688428
 30
0.0
  0
VERTEX
  5
9B16
  8
0
 10
550.63945505547235
 20
346.3916745223197
 30
0.0
  0
VERTEX
  5
9B17
  8
0
 10
550.58883392095549
 20
346.34368220704948
 30
0.0
  0
VERTEX
  5
9B18
  8
0
 10
550.53726385297432
 20
346.29667684320327
 30
0.0
  0
VERTEX
  5
9B19
  8
0
 10
550.48477604473635
 20
346.2506880550751
 30
0.0
  0
VERTEX
  5
9B1A
  8
0
 10
550.45819490856445
 20
346.22808111279397
 30
0.0
  0
VERTEX
  5
9B1B
  8
0
 10
550.43139213901247
 20
346.2057352596704
 30
0.0
  0
VERTEX
  5
9B1C
  8
0
 10
550.37713824674461
 20
346.16184052517713
 30
0.0
  0
VERTEX
  5
9B1D
  8
0
 10
550.32204845790545
 20
346.11903061261972
 30
0.0
  0
VERTEX
  5
9B1E
  8
0
 10
550.2661583774011
 20
346.07733113739039
 30
0.0
  0
VERTEX
  5
9B1F
  8
0
 10
550.20950500554954
 20
346.03676642288991
 30
0.0
  0
VERTEX
  5
9B20
  8
0
 10
550.15212660917314
 20
345.99735936751142
 30
0.0
  0
VERTEX
  5
9B21
  8
0
 10
550.12317779763362
 20
345.97809669831543
 30
0.0
  0
VERTEX
  5
9B22
  8
0
 10
550.09406258327419
 20
345.95913132473117
 30
0.0
  0
VERTEX
  5
9B23
  8
0
 10
550.0353533031797
 20
345.92210199612771
 30
0.0
  0
VERTEX
  5
9B24
  8
0
 10
549.97603996691964
 20
345.88628933722578
 30
0.0
  0
VERTEX
  5
9B25
  8
0
 10
549.94616983601281
 20
345.86884437229372
 30
0.0
  0
VERTEX
  5
9B26
  8
0
 10
549.91616442752809
 20
345.8517094761433
 30
0.0
  0
VERTEX
  5
9B27
  8
0
 10
549.85576901717513
 20
345.8183766463593
 30
0.0
  0
VERTEX
  5
9B28
  8
0
 10
549.79489661499838
 20
345.78630326323179
 30
0.0
  0
VERTEX
  5
9B29
  8
0
 10
549.76429527373455
 20
345.7707423447934
 30
0.0
  0
VERTEX
  5
9B2A
  8
0
 10
549.73359134503914
 20
345.755500291256
 30
0.0
  0
VERTEX
  5
9B2B
  8
0
 10
549.67189875066197
 20
345.72597726089742
 30
0.0
  0
VERTEX
  5
9B2C
  8
0
 10
549.60986565298015
 20
345.69774211988232
 30
0.0
  0
VERTEX
  5
9B2D
  8
0
 10
549.54753999693025
 20
345.6708010986369
 30
0.0
  0
VERTEX
  5
9B2E
  8
0
 10
549.48497069042924
 20
345.64515859248388
 30
0.0
  0
VERTEX
  5
9B2F
  8
0
 10
549.42220743663029
 20
345.62081706027891
 30
0.0
  0
VERTEX
  5
9B30
  8
0
 10
549.39076878629953
 20
345.60913437700208
 30
0.0
  0
VERTEX
  5
9B31
  8
0
 10
549.35930055907875
 20
345.5977769392133
 30
0.0
  0
VERTEX
  5
9B32
  8
0
 10
549.29630081940195
 20
345.57603657558133
 30
0.0
  0
VERTEX
  5
9B33
  8
0
 10
549.23325922695847
 20
345.55559217139478
 30
0.0
  0
VERTEX
  5
9B34
  8
0
 10
549.16993018979792
 20
345.5363506079014
 30
0.0
  0
VERTEX
  5
9B35
  8
0
 10
549.10588182377251
 20
345.51818942815692
 30
0.0
  0
VERTEX
  5
9B36
  8
0
 10
549.04114766473185
 20
345.50114015041038
 30
0.0
  0
VERTEX
  5
9B37
  8
0
 10
549.00853615479446
 20
345.49304241966013
 30
0.0
  0
VERTEX
  5
9B38
  8
0
 10
548.9757686074006
 20
345.48523435329832
 30
0.0
  0
VERTEX
  5
9B39
  8
0
 10
548.90978645305404
 20
345.47050163755932
 30
0.0
  0
VERTEX
  5
9B3A
  8
0
 10
548.84324371827495
 20
345.45696957267381
 30
0.0
  0
VERTEX
  5
9B3B
  8
0
 10
548.77618344021403
 20
345.44466366115802
 30
0.0
  0
VERTEX
  5
9B3C
  8
0
 10
548.70864897786964
 20
345.4336073204978
 30
0.0
  0
VERTEX
  5
9B3D
  8
0
 10
548.64068380901858
 20
345.42382188288877
 30
0.0
  0
VERTEX
  5
9B3E
  8
0
 10
548.6065532779329
 20
345.41941185286271
 30
0.0
  0
VERTEX
  5
9B3F
  8
0
 10
548.57233132257534
 20
345.41532661311078
 30
0.0
  0
VERTEX
  5
9B40
  8
0
 10
548.50363460701317
 20
345.4081387450691
 30
0.0
  0
VERTEX
  5
9B41
  8
0
 10
548.43463644497228
 20
345.4022735532904
 30
0.0
  0
VERTEX
  5
9B42
  8
0
 10
548.36538008124955
 20
345.39774446266432
 30
0.0
  0
VERTEX
  5
9B43
  8
0
 10
548.29590950744284
 20
345.39456304524708
 30
0.0
  0
VERTEX
  5
9B44
  8
0
 10
548.22626928575255
 20
345.39273897090158
 30
0.0
  0
VERTEX
  5
9B45
  8
0
 10
548.1913995920238
 20
345.39233843039767
 30
0.0
  0
VERTEX
  5
9B46
  8
0
 10
548.15650435951954
 20
345.39227997341487
 30
0.0
  0
VERTEX
  5
9B47
  8
0
 10
548.08665986437609
 20
345.39319183346032
 30
0.0
  0
VERTEX
  5
9B48
  8
0
 10
548.01678093973817
 20
345.39547837828189
 30
0.0
  0
VERTEX
  5
9B49
  8
0
 10
547.94691254039344
 20
345.3991414980959
 30
0.0
  0
VERTEX
  5
9B4A
  8
0
 10
547.87709924798116
 20
345.40418117932438
 30
0.0
  0
VERTEX
  5
9B4B
  8
0
 10
547.80738508223203
 20
345.41059555489397
 30
0.0
  0
VERTEX
  5
9B4C
  8
0
 10
547.77257833261501
 20
345.41431722330651
 30
0.0
  0
VERTEX
  5
9B4D
  8
0
 10
547.73780797264089
 20
345.41838162270739
 30
0.0
  0
VERTEX
  5
9B4E
  8
0
 10
547.66839456359594
 20
345.42753657629072
 30
0.0
  0
VERTEX
  5
9B4F
  8
0
 10
547.59918700403296
 20
345.43805458380473
 30
0.0
  0
VERTEX
  5
9B50
  8
0
 10
547.56467402375586
 20
345.4438223506703
 30
0.0
  0
VERTEX
  5
9B51
  8
0
 10
547.53022885185828
 20
345.44992778051909
 30
0.0
  0
VERTEX
  5
9B52
  8
0
 10
547.46156375740634
 20
345.46314636300269
 30
0.0
  0
VERTEX
  5
9B53
  8
0
 10
547.39323526979842
 20
345.47769858601202
 30
0.0
  0
VERTEX
  5
9B54
  8
0
 10
547.359210788116
 20
345.48547061433891
 30
0.0
  0
VERTEX
  5
9B55
  8
0
 10
547.32528664676443
 20
345.49357077596562
 30
0.0
  0
VERTEX
  5
9B56
  8
0
 10
547.25776066774267
 20
345.51074736090362
 30
0.0
  0
VERTEX
  5
9B57
  8
0
 10
547.19069945004719
 20
345.52921091696101
 30
0.0
  0
VERTEX
  5
9B58
  8
0
 10
547.12414426787359
 20
345.54894223149762
 30
0.0
  0
VERTEX
  5
9B59
  8
0
 10
547.05813537413792
 20
345.56992038309693
 30
0.0
  0
VERTEX
  5
9B5A
  8
0
 10
546.99271192963351
 20
345.59212280213882
 30
0.0
  0
VERTEX
  5
9B5B
  8
0
 10
546.96023182101646
 20
345.60367557063881
 30
0.0
  0
VERTEX
  5
9B5C
  8
0
 10
546.92791255394604
 20
345.6155251048757
 30
0.0
  0
VERTEX
  5
9B5D
  8
0
 10
546.86377580515307
 20
345.6401008782222
 30
0.0
  0
VERTEX
  5
9B5E
  8
0
 10
546.80034003453852
 20
345.66582165417401
 30
0.0
  0
VERTEX
  5
9B5F
  8
0
 10
546.73764317330051
 20
345.69265692535981
 30
0.0
  0
VERTEX
  5
9B60
  8
0
 10
546.67572252737864
 20
345.72057417782349
 30
0.0
  0
VERTEX
  5
9B61
  8
0
 10
546.6146145802204
 20
345.74953894070711
 30
0.0
  0
VERTEX
  5
9B62
  8
0
 10
546.58437649804682
 20
345.76440284732467
 30
0.0
  0
VERTEX
  5
9B63
  8
0
 10
546.55435480318965
 20
345.77951485266738
 30
0.0
  0
VERTEX
  5
9B64
  8
0
 10
546.49497747322857
 20
345.8104637450507
 30
0.0
  0
VERTEX
  5
9B65
  8
0
 10
546.43651549730794
 20
345.84234574205351
 30
0.0
  0
VERTEX
  5
9B66
  8
0
 10
546.40763763416044
 20
345.85862375536828
 30
0.0
  0
SEQEND
  5
9B67
  8
0
  0
POLYLINE
  5
46F5
  8
0
 66
     1
 10
0.0
 20
0.0
 30
0.0
  0
VERTEX
  5
9B68
  8
0
 10
601.03946578419664
 20
345.85862422753343
 30
0.0
  0
VERTEX
  5
9B69
  8
0
 10
601.01058792005369
 20
345.84234620348332
 30
0.0
  0
VERTEX
  5
9B6A
  8
0
 10
600.95212591237885
 20
345.81046416943678
 30
0.0
  0
VERTEX
  5
9B6B
  8
0
 10
600.8927485170093
 20
345.77951522468032
 30
0.0
  0
VERTEX
  5
9B6C
  8
0
 10
600.86272677920886
 20
345.7644031893206
 30
0.0
  0
VERTEX
  5
9B6D
  8
0
 10
600.83248864859524
 20
345.74953925108701
 30
0.0
  0
VERTEX
  5
9B6E
  8
0
 10
600.77138059222034
 20
345.7205744228155
 30
0.0
  0
VERTEX
  5
9B6F
  8
0
 10
600.70945982779995
 20
345.6926571061025
 30
0.0
  0
VERTEX
  5
9B70
  8
0
 10
600.64676284768575
 20
345.6658217760438
 30
0.0
  0
VERTEX
  5
9B71
  8
0
 10
600.58332696701791
 20
345.6401009501418
 30
0.0
  0
VERTEX
  5
9B72
  8
0
 10
600.51919012642384
 20
345.61552513859158
 30
0.0
  0
VERTEX
  5
9B73
  8
0
 10
600.4868708232907
 20
345.603675590335
 30
0.0
  0
VERTEX
  5
9B74
  8
0
 10
600.45439068677967
 20
345.59212281147001
 30
0.0
  0
VERTEX
  5
9B75
  8
0
 10
600.38896721584069
 20
345.5699203831652
 30
0.0
  0
VERTEX
  5
9B76
  8
0
 10
600.32295832189709
 20
345.54894223149762
 30
0.0
  0
VERTEX
  5
9B77
  8
0
 10
600.25640313972372
 20
345.52921091696101
 30
0.0
  0
VERTEX
  5
9B78
  8
0
 10
600.18934192202823
 20
345.51074736090379
 30
0.0
  0
VERTEX
  5
9B79
  8
0
 10
600.12181594300625
 20
345.49357077596562
 30
0.0
  0
VERTEX
  5
9B7A
  8
0
 10
600.08789180165456
 20
345.48547061433891
 30
0.0
  0
VERTEX
  5
9B7B
  8
0
 10
600.05386731997214
 20
345.47769858601231
 30
0.0
  0
VERTEX
  5
9B7C
  8
0
 10
599.98553883236445
 20
345.46314636300269
 30
0.0
  0
VERTEX
  5
9B7D
  8
0
 10
599.91687373791274
 20
345.44992778051932
 30
0.0
  0
VERTEX
  5
9B7E
  8
0
 10
599.88242856601528
 20
345.4438223506703
 30
0.0
  0
VERTEX
  5
9B7F
  8
0
 10
599.84791558573795
 20
345.4380545838049
 30
0.0
  0
VERTEX
  5
9B80
  8
0
 10
599.77870802617497
 20
345.42753657629072
 30
0.0
  0
VERTEX
  5
9B81
  8
0
 10
599.70929461713013
 20
345.41838162270739
 30
0.0
  0
VERTEX
  5
9B82
  8
0
 10
599.67452425715589
 20
345.41431722330651
 30
0.0
  0
VERTEX
  5
9B83
  8
0
 10
599.63971750753888
 20
345.41059555489397
 30
0.0
  0
VERTEX
  5
9B84
  8
0
 10
599.57000334178974
 20
345.40418117932438
 30
0.0
  0
VERTEX
  5
9B85
  8
0
 10
599.50019004937747
 20
345.3991414980959
 30
0.0
  0
VERTEX
  5
9B86
  8
0
 10
599.43032165003251
 20
345.39547837828189
 30
0.0
  0
VERTEX
  5
9B87
  8
0
 10
599.36044272539493
 20
345.39319183346032
 30
0.0
  0
VERTEX
  5
9B88
  8
0
 10
599.29059823025125
 20
345.39227997341487
 30
0.0
  0
VERTEX
  5
9B89
  8
0
 10
599.25570299774722
 20
345.39233843039767
 30
0.0
  0
VERTEX
  5
9B8A
  8
0
 10
599.22083330401824
 20
345.39273897090192
 30
0.0
  0
VERTEX
  5
9B8B
  8
0
 10
599.15119308232795
 20
345.39456304524708
 30
0.0
  0
VERTEX
  5
9B8C
  8
0
 10
599.08172250852112
 20
345.39774446266432
 30
0.0
  0
VERTEX
  5
9B8D
  8
0
 10
599.01246614479851
 20
345.4022735532904
 30
0.0
  0
VERTEX
  5
9B8E
  8
0
 10
598.9434679827574
 20
345.4081387450691
 30
0.0
  0
VERTEX
  5
9B8F
  8
0
 10
598.87477126719546
 20
345.41532661311078
 30
0.0
  0
VERTEX
  5
9B90
  8
0
 10
598.84054931183778
 20
345.41941185286288
 30
0.0
  0
VERTEX
  5
9B91
  8
0
 10
598.80641878075221
 20
345.42382188288877
 30
0.0
  0
VERTEX
  5
9B92
  8
0
 10
598.73845361190115
 20
345.43360732049803
 30
0.0
  0
VERTEX
  5
9B93
  8
0
 10
598.67091914955688
 20
345.44466366115819
 30
0.0
  0
VERTEX
  5
9B94
  8
0
 10
598.60385887149596
 20
345.45696957267381
 30
0.0
  0
VERTEX
  5
9B95
  8
0
 10
598.53731613671675
 20
345.47050163755932
 30
0.0
  0
VERTEX
  5
9B96
  8
0
 10
598.47133398237042
 20
345.48523435329849
 30
0.0
  0
VERTEX
  5
9B97
  8
0
 10
598.43856643497634
 20
345.49304241966013
 30
0.0
  0
VERTEX
  5
9B98
  8
0
 10
598.40595492503917
 20
345.50114015041038
 30
0.0
  0
VERTEX
  5
9B99
  8
0
 10
598.34122076599851
 20
345.51818942815692
 30
0.0
  0
VERTEX
  5
9B9A
  8
0
 10
598.27717239997298
 20
345.5363506079014
 30
0.0
  0
VERTEX
  5
9B9B
  8
0
 10
598.21384336281244
 20
345.55559217139478
 30
0.0
  0
VERTEX
  5
9B9C
  8
0
 10
598.15080177036896
 20
345.5760365755815
 30
0.0
  0
VERTEX
  5
9B9D
  8
0
 10
598.08780203069216
 20
345.5977769392133
 30
0.0
  0
VERTEX
  5
9B9E
  8
0
 10
598.05633380347126
 20
345.60913437700208
 30
0.0
  0
VERTEX
  5
9B9F
  8
0
 10
598.02489515314073
 20
345.62081706027891
 30
0.0
  0
VERTEX
  5
9BA0
  8
0
 10
597.96213189934178
 20
345.64515859248388
 30
0.0
  0
VERTEX
  5
9BA1
  8
0
 10
597.89956259284077
 20
345.67080109863713
 30
0.0
  0
VERTEX
  5
9BA2
  8
0
 10
597.83723693679076
 20
345.69774211988232
 30
0.0
  0
VERTEX
  5
9BA3
  8
0
 10
597.77520383910905
 20
345.72597726089742
 30
0.0
  0
VERTEX
  5
9BA4
  8
0
 10
597.71351124473165
 20
345.755500291256
 30
0.0
  0
VERTEX
  5
9BA5
  8
0
 10
597.68280731603625
 20
345.77074234479358
 30
0.0
  0
VERTEX
  5
9BA6
  8
0
 10
597.65220597477264
 20
345.78630326323179
 30
0.0
  0
VERTEX
  5
9BA7
  8
0
 10
597.59133357259589
 20
345.8183766463593
 30
0.0
  0
VERTEX
  5
9BA8
  8
0
 10
597.53093816224282
 20
345.8517094761433
 30
0.0
  0
VERTEX
  5
9BA9
  8
0
 10
597.50093275375809
 20
345.86884437229372
 30
0.0
  0
VERTEX
  5
9BAA
  8
0
 10
597.47106262285138
 20
345.88628933722578
 30
0.0
  0
VERTEX
  5
9BAB
  8
0
 10
597.4117492865912
 20
345.92210199612771
 30
0.0
  0
VERTEX
  5
9BAC
  8
0
 10
597.35304000649671
 20
345.95913132473117
 30
0.0
  0
VERTEX
  5
9BAD
  8
0
 10
597.3239247921374
 20
345.9780966983156
 30
0.0
  0
VERTEX
  5
9BAE
  8
0
 10
597.29497598059777
 20
345.99735936751142
 30
0.0
  0
VERTEX
  5
9BAF
  8
0
 10
597.23759758422136
 20
346.03676642288991
 30
0.0
  0
VERTEX
  5
9BB0
  8
0
 10
597.18094421236981
 20
346.07733113739039
 30
0.0
  0
VERTEX
  5
9BB1
  8
0
 10
597.12505413186545
 20
346.11903061261972
 30
0.0
  0
VERTEX
  5
9BB2
  8
0
 10
597.06996434302641
 20
346.16184052517713
 30
0.0
  0
VERTEX
  5
9BB3
  8
0
 10
597.01571045075843
 20
346.2057352596704
 30
0.0
  0
VERTEX
  5
9BB4
  8
0
 10
596.98890768120646
 20
346.22808111279397
 30
0.0
  0
VERTEX
  5
9BB5
  8
0
 10
596.96232654503444
 20
346.2506880550751
 30
0.0
  0
VERTEX
  5
9BB6
  8
0
 10
596.90983873679647
 20
346.29667684320327
 30
0.0
  0
VERTEX
  5
9BB7
  8
0
 10
596.85826866881553
 20
346.34368220704948
 30
0.0
  0
VERTEX
  5
9BB8
  8
0
 10
596.80764753429867
 20
346.3916745223197
 30
0.0
  0
VERTEX
  5
9BB9
  8
0
 10
596.75800577444886
 20
346.44062237688428
 30
0.0
  0
VERTEX
  5
9BBA
  8
0
 10
596.70937278437566
 20
346.49049277654569
 30
0.0
  0
VERTEX
  5
9BBB
  8
0
 10
596.68544344010195
 20
346.51576321332612
 30
0.0
  0
VERTEX
  5
9BBC
  8
0
 10
596.66177676035647
 20
346.54125125087478
 30
0.0
  0
VERTEX
  5
9BBD
  8
0
 10
596.61524455902736
 20
346.5928619699643
 30
0.0
  0
VERTEX
  5
9BBE
  8
0
 10
596.56980156824955
 20
346.64528787212532
 30
0.0
  0
VERTEX
  5
9BBF
  8
0
 10
596.52547158945617
 20
346.69849080268381
 30
0.0
  0
VERTEX
  5
9BC0
  8
0
 10
596.48227673134295
 20
346.75243166412582
 30
0.0
  0
VERTEX
  5
9BC1
  8
0
 10
596.44023731489415
 20
346.80707057789789
 30
0.0
  0
VERTEX
  5
9BC2
  8
0
 10
596.41965674756204
 20
346.83463915833778
 30
0.0
  0
VERTEX
  5
9BC3
  8
0
 10
596.39937187286773
 20
346.86236694353249
 30
0.0
  0
VERTEX
  5
9BC4
  8
0
 10
596.35969757623525
 20
346.91827888402588
 30
0.0
  0
VERTEX
  5
9BC5
  8
0
 10
596.32123040842271
 20
346.97476291466739
 30
0.0
  0
VERTEX
  5
9BC6
  8
0
 10
596.2839850081167
 20
347.03177404253063
 30
0.0
  0
VERTEX
  5
9BC7
  8
0
 10
596.24797451169275
 20
347.08926589617471
 30
0.0
  0
VERTEX
  5
9BC8
  8
0
 10
596.21321041139004
 20
347.14719086423031
 30
0.0
  0
VERTEX
  5
9BC9
  8
0
 10
596.19629887011365
 20
347.17630058465051
 30
0.0
  0
VERTEX
  5
9BCA
  8
0
 10
596.17970242886622
 20
347.20550024276019
 30
0.0
  0
VERTEX
  5
9BCB
  8
0
 10
596.14745840376895
 20
347.26414439147408
 30
0.0
  0
VERTEX
  5
9BCC
  8
0
 10
596.11648419701032
 20
347.32307289909193
 30
0.0
  0
VERTEX
  5
9BCD
  8
0
 10
596.08678360847534
 20
347.38223475834081
 30
0.0
  0
VERTEX
  5
9BCE
  8
0
 10
596.05828443160635
 20
347.44173653134618
 30
0.0
  0
VERTEX
  5
9BCF
  8
0
 10
596.03072996527453
 20
347.50212580243732
 30
0.0
  0
VERTEX
  5
9BD0
  8
0
 10
596.01731082695085
 20
347.53266254714219
 30
0.0
  0
VERTEX
  5
9BD1
  8
0
 10
596.00413772168747
 20
347.56342087623432
 30
0.0
  0
VERTEX
  5
9BD2
  8
0
 10
595.97855072500261
 20
347.62558227063653
 30
0.0
  0
VERTEX
  5
9BD3
  8
0
 10
595.95400982519641
 20
347.68856913549251
 30
0.0
  0
VERTEX
  5
9BD4
  8
0
 10
595.94214380836252
 20
347.72035903136691
 30
0.0
  0
VERTEX
  5
9BD5
  8
0
 10
595.93055360069366
 20
347.75233946363562
 30
0.0
  0
VERTEX
  5
9BD6
  8
0
 10
595.90821828109301
 20
347.81685030990189
 30
0.0
  0
VERTEX
  5
9BD7
  8
0
 10
595.88703768984988
 20
347.88205801903422
 30
0.0
  0
VERTEX
  5
9BD8
  8
0
 10
595.87689031968307
 20
347.91490941899599
 30
0.0
  0
VERTEX
  5
9BD9
  8
0
 10
595.86704320704837
 20
347.94791846324767
 30
0.0
  0
VERTEX
  5
9BDA
  8
0
 10
595.84826375266437
 20
348.0143872900768
 30
0.0
  0
VERTEX
  5
9BDB
  8
0
 10
595.83072580616363
 20
348.08142012043561
 30
0.0
  0
VERTEX
  5
9BDC
  8
0
 10
595.81445360768055
 20
348.14897203296329
 30
0.0
  0
VERTEX
  5
9BDD
  8
0
 10
595.79946931249742
 20
348.21699693123981
 30
0.0
  0
VERTEX
  5
9BDE
  8
0
 10
595.78579291756796
 20
348.28544767011653
 30
0.0
  0
VERTEX
  5
9BDF
  8
0
 10
595.77945082176893
 20
348.3198177635785
 30
0.0
  0
VERTEX
  5
9BE0
  8
0
 10
595.77344218272026
 20
348.35427627296752
 30
0.0
  0
VERTEX
  5
9BE1
  8
0
 10
595.76243257216925
 20
348.42343415127232
 30
0.0
  0
VERTEX
  5
9BE2
  8
0
 10
595.75277721603186
 20
348.49287232719809
 30
0.0
  0
VERTEX
  5
9BE3
  8
0
 10
595.74448689174756
 20
348.5625416598408
 30
0.0
  0
VERTEX
  5
9BE4
  8
0
 10
595.73757002549792
 20
348.63239307574401
 30
0.0
  0
VERTEX
  5
9BE5
  8
0
 10
595.73203267999043
 20
348.70237829477662
 30
0.0
  0
VERTEX
  5
9BE6
  8
0
 10
595.72978234280708
 20
348.7374105710399
 30
0.0
  0
VERTEX
  5
9BE7
  8
0
 10
595.727877989018
 20
348.77246336653491
 30
0.0
  0
VERTEX
  5
9BE8
  8
0
 10
595.72510827412577
 20
348.84260560902533
 30
0.0
  0
VERTEX
  5
9BE9
  8
0
 10
595.72372417415079
 20
348.91275510268781
 30
0.0
  0
VERTEX
  5
9BEA
  8
0
 10
595.7235512948854
 20
348.94781695913628
 30
0.0
  0
SEQEND
  5
9BEB
  8
0
  0
POLYLINE
  5
46F7
  8
0
 66
     1
 10
0.0
 20
0.0
 30
0.0
  0
VERTEX
  5
9BEC
  8
0
 10
595.7235512948854
 20
438.64093006291989
 30
0.0
  0
VERTEX
  5
9BED
  8
0
 10
595.72372417415079
 20
438.6759919193683
 30
0.0
  0
VERTEX
  5
9BEE
  8
0
 10
595.72510827412577
 20
438.74614141303078
 30
0.0
  0
VERTEX
  5
9BEF
  8
0
 10
595.727877989018
 20
438.8162836555212
 30
0.0
  0
VERTEX
  5
9BF0
  8
0
 10
595.7297823428072
 20
438.85133645101592
 30
0.0
  0
VERTEX
  5
9BF1
  8
0
 10
595.73203267999043
 20
438.88636872727932
 30
0.0
  0
VERTEX
  5
9BF2
  8
0
 10
595.73757002549792
 20
438.95635394631211
 30
0.0
  0
VERTEX
  5
9BF3
  8
0
 10
595.74448689174756
 20
439.02620536221559
 30
0.0
  0
VERTEX
  5
9BF4
  8
0
 10
595.75277721603186
 20
439.0958746948582
 30
0.0
  0
VERTEX
  5
9BF5
  8
0
 10
595.76243257216925
 20
439.16531287078362
 30
0.0
  0
VERTEX
  5
9BF6
  8
0
 10
595.77344218272026
 20
439.23447074908847
 30
0.0
  0
VERTEX
  5
9BF7
  8
0
 10
595.77945082176893
 20
439.2689292584779
 30
0.0
  0
VERTEX
  5
9BF8
  8
0
 10
595.78579291756796
 20
439.3032993519397
 30
0.0
  0
VERTEX
  5
9BF9
  8
0
 10
595.79946931249742
 20
439.37175009081608
 30
0.0
  0
VERTEX
  5
9BFA
  8
0
 10
595.81445360768055
 20
439.43977498909283
 30
0.0
  0
VERTEX
  5
9BFB
  8
0
 10
595.83072580616363
 20
439.50732690162067
 30
0.0
  0
VERTEX
  5
9BFC
  8
0
 10
595.84826375266437
 20
439.57435973197943
 30
0.0
  0
VERTEX
  5
9BFD
  8
0
 10
595.86704320704837
 20
439.64082855880832
 30
0.0
  0
VERTEX
  5
9BFE
  8
0
 10
595.87689031968307
 20
439.67383760306041
 30
0.0
  0
VERTEX
  5
9BFF
  8
0
 10
595.88703768984988
 20
439.70668900302189
 30
0.0
  0
VERTEX
  5
9C00
  8
0
 10
595.90821828109301
 20
439.77189671215422
 30
0.0
  0
VERTEX
  5
9C01
  8
0
 10
595.93055360069366
 20
439.83640755842049
 30
0.0
  0
VERTEX
  5
9C02
  8
0
 10
595.94214380836252
 20
439.86838799068897
 30
0.0
  0
VERTEX
  5
9C03
  8
0
 10
595.95400982519641
 20
439.90017788656371
 30
0.0
  0
VERTEX
  5
9C04
  8
0
 10
595.97855072500261
 20
439.96316475141981
 30
0.0
  0
VERTEX
  5
9C05
  8
0
 10
596.00413772168747
 20
440.02532614582202
 30
0.0
  0
VERTEX
  5
9C06
  8
0
 10
596.01731082695085
 20
440.05608447491392
 30
0.0
  0
VERTEX
  5
9C07
  8
0
 10
596.03072996527453
 20
440.08662121961891
 30
0.0
  0
VERTEX
  5
9C08
  8
0
 10
596.05828443160635
 20
440.14701049070987
 30
0.0
  0
VERTEX
  5
9C09
  8
0
 10
596.08678360847534
 20
440.20651226371513
 30
0.0
  0
VERTEX
  5
9C0A
  8
0
 10
596.11648419701032
 20
440.26567412296453
 30
0.0
  0
VERTEX
  5
9C0B
  8
0
 10
596.14745840376906
 20
440.32460263058198
 30
0.0
  0
VERTEX
  5
9C0C
  8
0
 10
596.17970242886622
 20
440.38324677929592
 30
0.0
  0
VERTEX
  5
9C0D
  8
0
 10
596.19629887011365
 20
440.41244643740549
 30
0.0
  0
VERTEX
  5
9C0E
  8
0
 10
596.21321041139004
 20
440.4415561578258
 30
0.0
  0
VERTEX
  5
9C0F
  8
0
 10
596.24797451169275
 20
440.49948112588169
 30
0.0
  0
VERTEX
  5
9C10
  8
0
 10
596.2839850081167
 20
440.55697297952531
 30
0.0
  0
VERTEX
  5
9C11
  8
0
 10
596.32123040842271
 20
440.61398410738872
 30
0.0
  0
VERTEX
  5
9C12
  8
0
 10
596.35969757623525
 20
440.67046813803017
 30
0.0
  0
VERTEX
  5
9C13
  8
0
 10
596.39937187286773
 20
440.72638007852362
 30
0.0
  0
VERTEX
  5
9C14
  8
0
 10
596.41965674756204
 20
440.75410786371827
 30
0.0
  0
VERTEX
  5
9C15
  8
0
 10
596.44023731489415
 20
440.78167644415828
 30
0.0
  0
VERTEX
  5
9C16
  8
0
 10
596.48227673134329
 20
440.8363153579304
 30
0.0
  0
VERTEX
  5
9C17
  8
0
 10
596.52547158945617
 20
440.89025621937259
 30
0.0
  0
VERTEX
  5
9C18
  8
0
 10
596.56980156824955
 20
440.94345914993079
 30
0.0
  0
VERTEX
  5
9C19
  8
0
 10
596.61524455902736
 20
440.99588505209209
 30
0.0
  0
VERTEX
  5
9C1A
  8
0
 10
596.66177676035647
 20
441.04749577118127
 30
0.0
  0
VERTEX
  5
9C1B
  8
0
 10
596.68544344010195
 20
441.07298380872999
 30
0.0
  0
VERTEX
  5
9C1C
  8
0
 10
596.70937278437566
 20
441.09825424551042
 30
0.0
  0
VERTEX
  5
9C1D
  8
0
 10
596.75800577444886
 20
441.14812464517178
 30
0.0
  0
VERTEX
  5
9C1E
  8
0
 10
596.80764753429867
 20
441.19707249973641
 30
0.0
  0
VERTEX
  5
9C1F
  8
0
 10
596.85826866881553
 20
441.24506481500657
 30
0.0
  0
VERTEX
  5
9C20
  8
0
 10
596.90983873679647
 20
441.29207017885261
 30
0.0
  0
VERTEX
  5
9C21
  8
0
 10
596.96232654503444
 20
441.33805896698101
 30
0.0
  0
VERTEX
  5
9C22
  8
0
 10
596.98890768120646
 20
441.36066590926208
 30
0.0
  0
VERTEX
  5
9C23
  8
0
 10
597.01571045075843
 20
441.38301176238582
 30
0.0
  0
VERTEX
  5
9C24
  8
0
 10
597.06996434302641
 20
441.42690649687898
 30
0.0
  0
VERTEX
  5
9C25
  8
0
 10
597.12505413186545
 20
441.4697164094365
 30
0.0
  0
VERTEX
  5
9C26
  8
0
 10
597.18094421236981
 20
441.51141588466601
 30
0.0
  0
VERTEX
  5
9C27
  8
0
 10
597.23759758422136
 20
441.55198059916631
 30
0.0
  0
VERTEX
  5
9C28
  8
0
 10
597.29497598059777
 20
441.59138765454469
 30
0.0
  0
VERTEX
  5
9C29
  8
0
 10
597.3239247921374
 20
441.61065032374069
 30
0.0
  0
VERTEX
  5
9C2A
  8
0
 10
597.35304000649671
 20
441.62961569732499
 30
0.0
  0
VERTEX
  5
9C2B
  8
0
 10
597.4117492865912
 20
441.66664502592857
 30
0.0
  0
VERTEX
  5
9C2C
  8
0
 10
597.47106262285138
 20
441.70245768483028
 30
0.0
  0
VERTEX
  5
9C2D
  8
0
 10
597.50093275375809
 20
441.7199026497625
 30
0.0
  0
VERTEX
  5
9C2E
  8
0
 10
597.53093816224282
 20
441.7370375459127
 30
0.0
  0
VERTEX
  5
9C2F
  8
0
 10
597.59133357259589
 20
441.7703703756971
 30
0.0
  0
VERTEX
  5
9C30
  8
0
 10
597.65220597477264
 20
441.80244375882421
 30
0.0
  0
VERTEX
  5
9C31
  8
0
 10
597.68280731603625
 20
441.81800467726271
 30
0.0
  0
VERTEX
  5
9C32
  8
0
 10
597.71351124473165
 20
441.83324673080011
 30
0.0
  0
VERTEX
  5
9C33
  8
0
 10
597.77520383910905
 20
441.86276976115869
 30
0.0
  0
VERTEX
  5
9C34
  8
0
 10
597.83723693679076
 20
441.8910049021739
 30
0.0
  0
VERTEX
  5
9C35
  8
0
 10
597.89956259284077
 20
441.91794592341932
 30
0.0
  0
VERTEX
  5
9C36
  8
0
 10
597.96213189934178
 20
441.94358842957217
 30
0.0
  0
VERTEX
  5
9C37
  8
0
 10
598.02489515314073
 20
441.96792996177749
 30
0.0
  0
VERTEX
  5
9C38
  8
0
 10
598.05633380347126
 20
441.97961264505432
 30
0.0
  0
VERTEX
  5
9C39
  8
0
 10
598.08780203069216
 20
441.99097008284258
 30
0.0
  0
VERTEX
  5
9C3A
  8
0
 10
598.15080177036896
 20
442.01271044647461
 30
0.0
  0
VERTEX
  5
9C3B
  8
0
 10
598.21384336281244
 20
442.03315485066111
 30
0.0
  0
VERTEX
  5
9C3C
  8
0
 10
598.27717239997298
 20
442.05239641415488
 30
0.0
  0
VERTEX
  5
9C3D
  8
0
 10
598.34122076599851
 20
442.0705575938992
 30
0.0
  0
VERTEX
  5
9C3E
  8
0
 10
598.40595492503917
 20
442.08760687164579
 30
0.0
  0
VERTEX
  5
9C3F
  8
0
 10
598.43856643497634
 20
442.09570460239598
 30
0.0
  0
VERTEX
  5
9C40
  8
0
 10
598.47133398237042
 20
442.10351266875762
 30
0.0
  0
VERTEX
  5
9C41
  8
0
 10
598.53731613671675
 20
442.11824538449679
 30
0.0
  0
VERTEX
  5
9C42
  8
0
 10
598.60385887149596
 20
442.1317774493823
 30
0.0
  0
VERTEX
  5
9C43
  8
0
 10
598.67091914955688
 20
442.14408336089821
 30
0.0
  0
VERTEX
  5
9C44
  8
0
 10
598.73845361190115
 20
442.15513970155831
 30
0.0
  0
VERTEX
  5
9C45
  8
0
 10
598.80641878075221
 20
442.16492513916739
 30
0.0
  0
VERTEX
  5
9C46
  8
0
 10
598.84054931183778
 20
442.1693351691934
 30
0.0
  0
VERTEX
  5
9C47
  8
0
 10
598.87477126719546
 20
442.17342040894528
 30
0.0
  0
VERTEX
  5
9C48
  8
0
 10
598.9434679827574
 20
442.18060827698719
 30
0.0
  0
VERTEX
  5
9C49
  8
0
 10
599.01246614479851
 20
442.18647346876571
 30
0.0
  0
VERTEX
  5
9C4A
  8
0
 10
599.08172250852135
 20
442.19100255939162
 30
0.0
  0
VERTEX
  5
9C4B
  8
0
 10
599.15119308232795
 20
442.19418397680931
 30
0.0
  0
VERTEX
  5
9C4C
  8
0
 10
599.22083330401824
 20
442.19600805115448
 30
0.0
  0
VERTEX
  5
9C4D
  8
0
 10
599.25570299774722
 20
442.19640859165838
 30
0.0
  0
VERTEX
  5
9C4E
  8
0
 10
599.29059823025125
 20
442.19646704864101
 30
0.0
  0
VERTEX
  5
9C4F
  8
0
 10
599.36044272539493
 20
442.19555518859579
 30
0.0
  0
VERTEX
  5
9C50
  8
0
 10
599.43032165003251
 20
442.1932686437741
 30
0.0
  0
VERTEX
  5
9C51
  8
0
 10
599.50019004937747
 20
442.18960552395998
 30
0.0
  0
VERTEX
  5
9C52
  8
0
 10
599.57000334178974
 20
442.18456584273201
 30
0.0
  0
VERTEX
  5
9C53
  8
0
 10
599.63971750753888
 20
442.17815146716208
 30
0.0
  0
VERTEX
  5
9C54
  8
0
 10
599.67452425715589
 20
442.17442979874937
 30
0.0
  0
VERTEX
  5
9C55
  8
0
 10
599.70929461713013
 20
442.17036539934873
 30
0.0
  0
VERTEX
  5
9C56
  8
0
 10
599.77870802617497
 20
442.16121044576551
 30
0.0
  0
VERTEX
  5
9C57
  8
0
 10
599.84791558573795
 20
442.1506924382511
 30
0.0
  0
VERTEX
  5
9C58
  8
0
 10
599.88242856601528
 20
442.14492467138598
 30
0.0
  0
VERTEX
  5
9C59
  8
0
 10
599.91687373791274
 20
442.13881924153708
 30
0.0
  0
VERTEX
  5
9C5A
  8
0
 10
599.98553883236445
 20
442.12560065905342
 30
0.0
  0
VERTEX
  5
9C5B
  8
0
 10
600.05386731997214
 20
442.11104843604392
 30
0.0
  0
VERTEX
  5
9C5C
  8
0
 10
600.08789180165456
 20
442.10327640771732
 30
0.0
  0
VERTEX
  5
9C5D
  8
0
 10
600.12181594300671
 20
442.09517624609049
 30
0.0
  0
VERTEX
  5
9C5E
  8
0
 10
600.18934192202823
 20
442.07799966115232
 30
0.0
  0
VERTEX
  5
9C5F
  8
0
 10
600.25640313972372
 20
442.05953610509511
 30
0.0
  0
VERTEX
  5
9C60
  8
0
 10
600.32295832189709
 20
442.03980479055832
 30
0.0
  0
VERTEX
  5
9C61
  8
0
 10
600.38896721584069
 20
442.01882663889103
 30
0.0
  0
VERTEX
  5
9C62
  8
0
 10
600.45439068677967
 20
441.99662421058622
 30
0.0
  0
VERTEX
  5
9C63
  8
0
 10
600.4868708232907
 20
441.98507143172128
 30
0.0
  0
VERTEX
  5
9C64
  8
0
 10
600.51919012642384
 20
441.9732218834647
 30
0.0
  0
VERTEX
  5
9C65
  8
0
 10
600.58332696701791
 20
441.9486460719146
 30
0.0
  0
VERTEX
  5
9C66
  8
0
 10
600.64676284768575
 20
441.92292524601231
 30
0.0
  0
VERTEX
  5
9C67
  8
0
 10
600.70945982779995
 20
441.89608991595389
 30
0.0
  0
VERTEX
  5
9C68
  8
0
 10
600.77138059222034
 20
441.86817259924061
 30
0.0
  0
VERTEX
  5
9C69
  8
0
 10
600.83248864859524
 20
441.8392077709691
 30
0.0
  0
VERTEX
  5
9C6A
  8
0
 10
600.86272677920886
 20
441.82434383273551
 30
0.0
  0
VERTEX
  5
9C6B
  8
0
 10
600.8927485170093
 20
441.80923179737567
 30
0.0
  0
VERTEX
  5
9C6C
  8
0
 10
600.95212591237885
 20
441.77828285261933
 30
0.0
  0
VERTEX
  5
9C6D
  8
0
 10
601.01058792005369
 20
441.74640081857262
 30
0.0
  0
VERTEX
  5
9C6E
  8
0
 10
601.03946578419664
 20
441.7301227945228
 30
0.0
  0
SEQEND
  5
9C6F
  8
0
  0
ARC
  5
46F8
  8
0
 10
573.72355129488551
 20
393.79437351102808
 30
0.0
 40
55.172413793103452
 50
299.67640732205001
 51
60.323592677949911
  0
LINE
  5
4701
  8
1
 10
573.72355129488551
 20
303.79437351102808
 30
0.0
 11
573.72355129488551
 21
483.79437351102808
 31
0.0
  0
LINE
  5
4702
  8
1
 10
663.72355129488551
 20
393.79437351102808
 30
0.0
 11
483.72355129488551
 21
393.79437351102808
 31
0.0
  0
LINE
  5
472D
  8
0
 10
793.16822744121635
 20
380.79437351102808
 30
0.0
 11
793.36822744121673
 21
380.79437351102808
 31
0.0
  0
LINE
  5
472E
  8
0
 10
793.36822744121673
 20
406.79437351102803
 30
0.0
 11
793.16822744121635
 21
406.79437351102803
 31
0.0
  0
ARC
  5
472F
  8
0
 10
792.66822744121635
 20
413.29437351102808
 30
0.0
 40
0.5000000000000017
 50
0.0
 51
90.0
  0
ARC
  5
4730
  8
0
 10
792.66822744121635
 20
374.29437351102808
 30
0.0
 40
0.5
 50
270.0
 51
0.0
  0
LINE
  5
4731
  8
0
 10
789.86822744121673
 20
373.79437351102808
 30
0.0
 11
792.66822744121635
 21
373.79437351102808
 31
0.0
  0
LINE
  5
4732
  8
0
 10
792.66822744121635
 20
413.79437351102808
 30
0.0
 11
789.86822744121673
 21
413.79437351102808
 31
0.0
  0
ARC
  5
4733
  8
0
 10
759.03489410788325
 20
465.461040177695
 30
0.0
 40
8.3333333333333002
 50
0.0
 51
90.0
  0
ARC
  5
4734
  8
0
 10
759.03489410788325
 20
322.12770684436163
 30
0.0
 40
8.3333333333333002
 50
270.0
 51
0.0
  0
LINE
  5
4735
  8
0
 10
753.99287321423481
 20
313.79437351102808
 30
0.0
 11
759.03489410788325
 21
313.79437351102808
 31
0.0
  0
LINE
  5
4736
  8
0
 10
759.03489410788325
 20
473.79437351102803
 30
0.0
 11
753.99287321423481
 21
473.79437351102803
 31
0.0
  0
ARC
  5
4737
  8
0
 10
753.99287321423481
 20
448.79437351102757
 30
0.0
 40
25.000000000000341
 50
90.0
 51
104.9999999999944
  0
ARC
  5
4738
  8
0
 10
753.99287321423481
 20
338.79437351102848
 30
0.0
 40
25.000000000000501
 50
255.00000000000551
 51
270.0
  0
LINE
  5
4739
  8
0
 10
744.22117982846021
 20
315.53078635217901
 30
0.0
 11
747.52239708667184
 21
314.64622785380158
 31
0.0
  0
LINE
  5
473A
  8
0
 10
747.52239708667184
 20
472.94251916825488
 30
0.0
 11
744.22117982846021
 21
472.0579606698771
 31
0.0
  0
ARC
  5
473B
  8
0
 10
744.86822744121673
 20
469.64314610415482
 30
0.0
 40
2.49999999999998
 50
104.9999999999944
 51
180.0
  0
ARC
  5
473C
  8
0
 10
744.86822744121673
 20
317.9456009179018
 30
0.0
 40
2.5000000000000071
 50
180.0
 51
255.00000000000551
  0
LINE
  5
4743
  8
0
 10
767.36822744121673
 20
338.83618952058657
 30
0.0
 11
789.86822744121673
 21
373.79437351102808
 31
0.0
  0
LINE
  5
4744
  8
0
 10
789.86822744121673
 20
413.79437351102808
 30
0.0
 11
767.36822744121673
 21
448.75255750146971
 31
0.0
  0
LINE
  5
4755
  8
0
 10
793.36822744121673
 20
406.79437351102803
 30
0.0
 11
793.36822744121673
 21
380.79437351102808
 31
0.0
  0
LINE
  5
4756
  8
0
 10
793.16822744121635
 20
413.29437351102808
 30
0.0
 11
793.16822744121635
 21
374.29437351102808
 31
0.0
  0
LINE
  5
4758
  8
0
 10
767.36822744121673
 20
465.461040177695
 30
0.0
 11
767.36822744121673
 21
322.12770684436163
 31
0.0
  0
LINE
  5
475D
  8
0
 10
742.36822744121673
 20
469.64314610415482
 30
0.0
 11
742.36822744121673
 21
317.9456009179018
 31
0.0
  0
LINE
  5
4763
  8
0
 10
789.86822744121673
 20
413.79437351102808
 30
0.0
 11
789.86822744121673
 21
373.79437351102808
 31
0.0
  0
POLYLINE
  5
477B
  8
0
 66
     1
 10
0.0
 20
0.0
 30
0.0
  0
VERTEX
  5
9C70
  8
0
 10
767.36822744121673
 20
444.28708213296449
 30
0.0
  0
VERTEX
  5
9C71
  8
0
 10
772.6692570603459
 20
433.42947898886092
 30
0.0
  0
VERTEX
  5
9C72
  8
0
 10
776.56555210135593
 20
425.0913821919267
 30
0.0
  0
VERTEX
  5
9C73
  8
0
 10
779.35961975377359
 20
418.63436701189949
 30
0.0
  0
VERTEX
  5
9C74
  8
0
 10
780.46054635442215
 20
415.89284745137832
 30
0.0
  0
VERTEX
  5
9C75
  8
0
 10
781.40521384961028
 20
413.39787229933341
 30
0.0
  0
VERTEX
  5
9C76
  8
0
 10
782.91066281393751
 20
408.98159954860108
 30
0.0
  0
VERTEX
  5
9C77
  8
0
 10
784.00456059424585
 20
405.12514971683549
 30
0.0
  0
VERTEX
  5
9C78
  8
0
 10
784.76819425199528
 20
401.64768836021278
 30
0.0
  0
VERTEX
  5
9C79
  8
0
 10
785.08236759701185
 20
399.73951663542869
 30
0.0
  0
VERTEX
  5
9C7A
  8
0
 10
785.15573227795903
 20
399.20640087612321
 30
0.0
  0
VERTEX
  5
9C7B
  8
0
 10
785.22204971322299
 20
398.67776400402738
 30
0.0
  0
VERTEX
  5
9C7C
  8
0
 10
785.25260070088689
 20
398.41498006609987
 30
0.0
  0
VERTEX
  5
9C7D
  8
0
 10
785.28143030796116
 20
398.153143198686
 30
0.0
  0
VERTEX
  5
9C7E
  8
0
 10
785.33397216742969
 20
397.63208683003779
 30
0.0
  0
VERTEX
  5
9C7F
  8
0
 10
785.3797615081711
 20
397.11415311330683
 30
0.0
  0
VERTEX
  5
9C80
  8
0
 10
785.41887301589395
 20
396.59890882175438
 30
0.0
  0
VERTEX
  5
9C81
  8
0
 10
785.4513701528308
 20
396.08592804920278
 30
0.0
  0
VERTEX
  5
9C82
  8
0
 10
785.47730541697126
 20
395.574791014749
 30
0.0
  0
VERTEX
  5
9C83
  8
0
 10
785.48782580768921
 20
395.31978410651362
 30
0.0
  0
VERTEX
  5
9C84
  8
0
 10
785.4967205551543
 20
395.06508290249411
 30
0.0
  0
VERTEX
  5
9C85
  8
0
 10
785.50964673164606
 20
394.55639272947531
 30
0.0
  0
VERTEX
  5
9C86
  8
0
 10
785.51610465347585
 20
394.04831223524951
 30
0.0
  0
VERTEX
  5
9C87
  8
0
 10
785.51691165173042
 20
393.7943735110249
 30
0.0
  0
VERTEX
  5
9C88
  8
0
 10
785.51610465347585
 20
393.5404347868008
 30
0.0
  0
VERTEX
  5
9C89
  8
0
 10
785.50964673164572
 20
393.03235429257501
 30
0.0
  0
VERTEX
  5
9C8A
  8
0
 10
785.49672055515339
 20
392.52366411955569
 30
0.0
  0
VERTEX
  5
9C8B
  8
0
 10
785.48782580768784
 20
392.26896291553669
 30
0.0
  0
VERTEX
  5
9C8C
  8
0
 10
785.47730541697001
 20
392.01395600730132
 30
0.0
  0
VERTEX
  5
9C8D
  8
0
 10
785.45137015282899
 20
391.50281897284742
 30
0.0
  0
VERTEX
  5
9C8E
  8
0
 10
785.41887301589213
 20
390.98983820029582
 30
0.0
  0
VERTEX
  5
9C8F
  8
0
 10
785.37976150816894
 20
390.47459390874309
 30
0.0
  0
VERTEX
  5
9C90
  8
0
 10
785.33397216742685
 20
389.95666019201201
 30
0.0
  0
VERTEX
  5
9C91
  8
0
 10
785.28143030795854
 20
389.43560382336381
 30
0.0
  0
VERTEX
  5
9C92
  8
0
 10
785.2526007008837
 20
389.17376695594987
 30
0.0
  0
VERTEX
  5
9C93
  8
0
 10
785.22204971321935
 20
388.91098301802242
 30
0.0
  0
VERTEX
  5
9C94
  8
0
 10
785.15573227795528
 20
388.38234614592608
 30
0.0
  0
VERTEX
  5
9C95
  8
0
 10
785.08236759700765
 20
387.84923038662112
 30
0.0
  0
VERTEX
  5
9C96
  8
0
 10
784.76819425199017
 20
385.94105866183611
 30
0.0
  0
VERTEX
  5
9C97
  8
0
 10
784.00456059423857
 20
382.46359730521192
 30
0.0
  0
VERTEX
  5
9C98
  8
0
 10
782.91066281392841
 20
378.60714747344502
 30
0.0
  0
VERTEX
  5
9C99
  8
0
 10
781.40521384960039
 20
374.19087472271133
 30
0.0
  0
VERTEX
  5
9C9A
  8
0
 10
780.46054635441169
 20
371.69589957066597
 30
0.0
  0
VERTEX
  5
9C9B
  8
0
 10
779.35961975376313
 20
368.95438001014469
 30
0.0
  0
VERTEX
  5
9C9C
  8
0
 10
776.56555210134638
 20
362.4973648301185
 30
0.0
  0
VERTEX
  5
9C9D
  8
0
 10
772.66925706034135
 20
354.15926803318928
 30
0.0
  0
VERTEX
  5
9C9E
  8
0
 10
767.36822744121673
 20
343.30166488908799
 30
0.0
  0
SEQEND
  5
9C9F
  8
0
  0
LINE
  5
4798
  8
1
 10
732.36822744121673
 20
393.79437351102808
 30
0.0
 11
803.36822744121685
 21
393.79437351102808
 31
0.0
  0
LINE
  5
4AFE
  8
2
 10
566.72355129488551
 20
144.05469671333719
 30
0.0
 11
566.72355129488574
 21
117.05469671333719
 31
0.0
  0
LINE
  5
4AFF
  8
2
 10
580.72355129488551
 20
117.05469671333719
 30
0.0
 11
580.72355129488551
 21
144.05469671333719
 31
0.0
  0
LINE
  5
4B02
  8
0
 10
560.72355129488551
 20
117.2546967133372
 30
0.0
 11
560.72355129488551
 21
117.05469671333719
 31
0.0
  0
LINE
  5
4B03
  8
0
 10
586.7235512948854
 20
117.05469671333719
 30
0.0
 11
586.7235512948854
 21
117.2546967133372
 31
0.0
  0
ARC
  5
4B04
  8
0
 10
593.22355129488551
 20
117.7546967133372
 30
0.0
 40
0.5000000000000017
 50
270.0
 51
0.0
  0
ARC
  5
4B05
  8
0
 10
554.22355129488551
 20
117.7546967133372
 30
0.0
 40
0.5
 50
180.0
 51
270.0
  0
LINE
  5
4B06
  8
0
 10
553.7235512948854
 20
120.55469671333719
 30
0.0
 11
553.7235512948854
 21
117.7546967133372
 31
0.0
  0
LINE
  5
4B07
  8
0
 10
593.72355129488551
 20
117.7546967133372
 30
0.0
 11
593.72355129488551
 21
120.55469671333719
 31
0.0
  0
ARC
  5
4B08
  8
0
 10
645.39021796155203
 20
151.38803004667059
 30
0.0
 40
8.3333333333333073
 50
270.0
 51
0.0
  0
ARC
  5
4B09
  8
0
 10
502.05688462821871
 20
151.38803004667059
 30
0.0
 40
8.3333333333332842
 50
180.0
 51
270.0
  0
LINE
  5
4B0A
  8
0
 10
493.72355129488551
 20
156.43005094031909
 30
0.0
 11
493.72355129488551
 21
151.38803004667059
 31
0.0
  0
LINE
  5
4B0B
  8
0
 10
653.7235512948854
 20
151.38803004667059
 30
0.0
 11
653.7235512948854
 21
156.43005094031909
 31
0.0
  0
ARC
  5
4B0C
  8
0
 10
628.72355129488506
 20
156.43005094031909
 30
0.0
 40
25.000000000000291
 50
0.0
 51
14.99999999999447
  0
ARC
  5
4B0D
  8
0
 10
518.72355129488585
 20
156.43005094031889
 30
0.0
 40
25.000000000000501
 50
165.00000000000551
 51
180.0
  0
LINE
  5
4B0E
  8
0
 10
495.45996413603621
 20
166.20174432609349
 30
0.0
 11
494.57540563765878
 21
162.90052706788211
 31
0.0
  0
LINE
  5
4B0F
  8
0
 10
652.87169695211242
 20
162.90052706788211
 30
0.0
 11
651.98713845373459
 21
166.20174432609349
 31
0.0
  0
ARC
  5
4B10
  8
0
 10
649.57232388801231
 20
165.55469671333719
 30
0.0
 40
2.500000000000012
 50
14.99999999999447
 51
90.0
  0
ARC
  5
4B11
  8
0
 10
497.87477870175888
 20
165.55469671333719
 30
0.0
 40
2.5
 50
90.0
 51
165.00000000000551
  0
ARC
  5
4B21
  8
0
 10
629.96736489091506
 20
138.05469671333691
 30
0.0
 40
5.0000000000003508
 50
90.0
 51
102.37328761382081
  0
ARC
  5
4B22
  8
0
 10
517.47973769885607
 20
138.05469671333671
 30
0.0
 40
5.0000000000005187
 50
77.626712386179122
 51
90.0
  0
LINE
  5
4B2E
  8
2
 10
589.22355129488517
 20
144.05469671333719
 30
0.0
 11
558.2235512948854
 21
144.05469671333719
 31
0.0
  0
LINE
  5
4B30
  8
0
 10
586.7235512948854
 20
117.05469671333719
 30
0.0
 11
560.72355129488551
 21
117.05469671333719
 31
0.0
  0
LINE
  5
4B31
  8
0
 10
593.22355129488551
 20
117.2546967133372
 30
0.0
 11
554.22355129488551
 21
117.2546967133372
 31
0.0
  0
LINE
  5
4B33
  8
0
 10
645.39021796155203
 20
143.05469671333719
 30
0.0
 11
502.05688462821871
 21
143.05469671333719
 31
0.0
  0
LINE
  5
4B38
  8
0
 10
649.57232388801231
 20
168.05469671333719
 30
0.0
 11
497.87477870175888
 21
168.05469671333719
 31
0.0
  0
LINE
  5
4B4F
  8
0
 10
600.03946578419664
 20
142.93855814280991
 30
0.0
 11
628.89596508798866
 21
142.93855814280991
 31
0.0
  0
POLYLINE
  5
4B50
  8
0
 66
     1
 10
0.0
 20
0.0
 30
0.0
  0
VERTEX
  5
9CA0
  8
0
 10
594.7235512948854
 20
140.2980644290131
 30
0.0
  0
VERTEX
  5
9CA1
  8
0
 10
594.72550114638545
 20
140.35675702377071
 30
0.0
  0
VERTEX
  5
9CA2
  8
0
 10
594.74101457121765
 20
140.47640818749949
 30
0.0
  0
VERTEX
  5
9CA3
  8
0
 10
594.77172579954322
 20
140.59837219886219
 30
0.0
  0
VERTEX
  5
9CA4
  8
0
 10
594.79262050369255
 20
140.65992738773281
 30
0.0
  0
VERTEX
  5
9CA5
  8
0
 10
594.81709318940489
 20
140.7217015501875
 30
0.0
  0
VERTEX
  5
9CA6
  8
0
 10
594.87634291663664
 20
140.84541475189681
 30
0.0
  0
VERTEX
  5
9CA7
  8
0
 10
594.94847401634865
 20
140.9685243641992
 30
0.0
  0
VERTEX
  5
9CA8
  8
0
 10
595.03224416723242
 20
141.090021861558
 30
0.0
  0
VERTEX
  5
9CA9
  8
0
 10
595.1268502791138
 20
141.2097056583446
 30
0.0
  0
VERTEX
  5
9CAA
  8
0
 10
595.23503602557594
 20
141.33106922081481
 30
0.0
  0
VERTEX
  5
9CAB
  8
0
 10
595.29438401941184
 20
141.39234490322599
 30
0.0
  0
VERTEX
  5
9CAC
  8
0
 10
595.35719493102738
 20
141.4538621769712
 30
0.0
  0
VERTEX
  5
9CAD
  8
0
 10
595.49301434639301
 20
141.57716899531039
 30
0.0
  0
VERTEX
  5
9CAE
  8
0
 10
595.64200644369794
 20
141.70010630300601
 30
0.0
  0
VERTEX
  5
9CAF
  8
0
 10
595.80349808442668
 20
141.82180760473929
 30
0.0
  0
VERTEX
  5
9CB0
  8
0
 10
595.97664554840253
 20
141.9414343984609
 30
0.0
  0
VERTEX
  5
9CB1
  8
0
 10
596.16056097345768
 20
142.0582535222855
 30
0.0
  0
VERTEX
  5
9CB2
  8
0
 10
596.25622851132903
 20
142.11538046929641
 30
0.0
  0
VERTEX
  5
9CB3
  8
0
 10
596.35416475860268
 20
142.17152740683699
 30
0.0
  0
VERTEX
  5
9CB4
  8
0
 10
596.55617837041416
 20
142.2805256730245
 30
0.0
  0
VERTEX
  5
9CB5
  8
0
 10
596.7652071452394
 20
142.3845802690945
 30
0.0
  0
VERTEX
  5
9CB6
  8
0
 10
596.87187847691212
 20
142.4345589468615
 30
0.0
  0
VERTEX
  5
9CB7
  8
0
 10
596.95140755845864
 20
142.46989935413339
 30
0.0
  0
VERTEX
  5
9CB8
  8
0
 10
597.11403973053484
 20
142.5353980067394
 30
0.0
  0
VERTEX
  5
9CB9
  8
0
 10
597.2811847318975
 20
142.59434493740909
 30
0.0
  0
VERTEX
  5
9CBA
  8
0
 10
597.36635417850584
 20
142.62149358643941
 30
0.0
  0
VERTEX
  5
9CBB
  8
0
 10
597.45253731718503
 20
142.64716159286979
 30
0.0
  0
VERTEX
  5
9CBC
  8
0
 10
597.62779242056422
 20
142.69425931517259
 30
0.0
  0
VERTEX
  5
9CBD
  8
0
 10
597.80664737164989
 20
142.73603761349349
 30
0.0
  0
VERTEX
  5
9CBE
  8
0
 10
597.98812508726485
 20
142.77275458795759
 30
0.0
  0
VERTEX
  5
9CBF
  8
0
 10
598.17085536808963
 20
142.80465874525581
 30
0.0
  0
VERTEX
  5
9CC0
  8
0
 10
598.3543858290559
 20
142.83219436469889
 30
0.0
  0
VERTEX
  5
9CC1
  8
0
 10
598.44631393032751
 20
142.84445383458149
 30
0.0
  0
VERTEX
  5
9CC2
  8
0
 10
598.53827813957139
 20
142.8557725149534
 30
0.0
  0
VERTEX
  5
9CC3
  8
0
 10
598.72209934361763
 20
142.87576789458231
 30
0.0
  0
VERTEX
  5
9CC4
  8
0
 10
598.90542127032666
 20
142.89251723760131
 30
0.0
  0
VERTEX
  5
9CC5
  8
0
 10
599.08769786065295
 20
142.90630913407529
 30
0.0
  0
VERTEX
  5
9CC6
  8
0
 10
599.26788009568327
 20
142.91736925901969
 30
0.0
  0
VERTEX
  5
9CC7
  8
0
 10
599.44545207735655
 20
142.92593241063159
 30
0.0
  0
VERTEX
  5
9CC8
  8
0
 10
599.5331267672691
 20
142.9293396803952
 30
0.0
  0
VERTEX
  5
9CC9
  8
0
 10
599.61999061357574
 20
142.93219090082479
 30
0.0
  0
VERTEX
  5
9CCA
  8
0
 10
599.79097652384735
 20
142.9362847409212
 30
0.0
  0
VERTEX
  5
9CCB
  8
0
 10
599.95776867723225
 20
142.93830654423081
 30
0.0
  0
VERTEX
  5
9CCC
  8
0
 10
600.03946578419664
 20
142.93855814280991
 30
0.0
  0
SEQEND
  5
9CCD
  8
0
  0
LINE
  5
4B76
  8
1
 10
573.72355129488551
 20
181.05469671333719
 30
0.0
 11
573.72355129488551
 21
107.05469671333719
 31
0.0
  0
LINE
  5
69AD
  8
2
 10
589.22355129488551
 20
147.05469671333719
 30
0.0
 11
558.2235512948854
 21
147.05469671333719
 31
0.0
  0
LINE
  5
69CB
  8
2
 10
558.2235512948854
 20
147.05469671333719
 30
0.0
 11
558.22355129488574
 21
144.05469671333719
 31
0.0
  0
LINE
  5
69CD
  8
2
 10
560.72355129488551
 20
117.2546967133372
 30
0.0
 11
560.72355129488528
 21
142.05065352200111
 31
0.0
  0
LINE
  5
69CF
  8
2
 10
561.7235512948854
 20
144.05469671333719
 30
0.0
 11
561.7235512948854
 21
142.05083995157281
 31
0.0
  0
LINE
  5
69D0
  8
2
 10
561.72355129488528
 20
142.05083995157281
 30
0.0
 11
560.72355129488528
 21
142.05065352200111
 31
0.0
  0
LINE
  5
69D1
  8
2
 10
585.72355129488574
 20
142.05083995157281
 30
0.0
 11
586.72355129488574
 21
142.05065352200111
 31
0.0
  0
LINE
  5
69D2
  8
2
 10
589.22355129488551
 20
147.05469671333719
 30
0.0
 11
589.22355129488517
 21
144.05469671333719
 31
0.0
  0
LINE
  5
69D3
  8
2
 10
586.7235512948854
 20
117.2546967133372
 30
0.0
 11
586.72355129488574
 21
142.05065352200111
 31
0.0
  0
LINE
  5
69D4
  8
2
 10
585.72355129488551
 20
144.05469671333719
 30
0.0
 11
585.72355129488551
 21
142.05083995157281
 31
0.0
  0
LINE
  5
6A54
  8
0
 10
552.72355129488551
 20
120.55469671333719
 30
0.0
 11
594.7235512948854
 21
120.55469671333719
 31
0.0
  0
LINE
  5
6A56
  8
0
 10
594.7235512948854
 20
140.2980644290131
 30
0.0
 11
594.7235512948854
 21
120.55469671333719
 31
0.0
  0
LINE
  5
6A58
  8
0
 10
547.40763680557438
 20
142.93855814280991
 30
0.0
 11
518.55113750178225
 21
142.93855814280991
 31
0.0
  0
POLYLINE
  5
6A59
  8
0
 66
     1
 10
0.0
 20
0.0
 30
0.0
  0
VERTEX
  5
9CCE
  8
0
 10
552.72355129488551
 20
140.2980644290131
 30
0.0
  0
VERTEX
  5
9CCF
  8
0
 10
552.72160144338545
 20
140.35675702377071
 30
0.0
  0
VERTEX
  5
9CD0
  8
0
 10
552.70608801855326
 20
140.47640818749949
 30
0.0
  0
VERTEX
  5
9CD1
  8
0
 10
552.6753767902278
 20
140.59837219886219
 30
0.0
  0
VERTEX
  5
9CD2
  8
0
 10
552.65448208607836
 20
140.65992738773281
 30
0.0
  0
VERTEX
  5
9CD3
  8
0
 10
552.63000940036613
 20
140.7217015501875
 30
0.0
  0
VERTEX
  5
9CD4
  8
0
 10
552.57075967313426
 20
140.84541475189681
 30
0.0
  0
VERTEX
  5
9CD5
  8
0
 10
552.49862857342237
 20
140.9685243641992
 30
0.0
  0
VERTEX
  5
9CD6
  8
0
 10
552.41485842253849
 20
141.090021861558
 30
0.0
  0
VERTEX
  5
9CD7
  8
0
 10
552.32025231065722
 20
141.2097056583446
 30
0.0
  0
VERTEX
  5
9CD8
  8
0
 10
552.21206656419497
 20
141.33106922081481
 30
0.0
  0
VERTEX
  5
9CD9
  8
0
 10
552.15271857035907
 20
141.39234490322599
 30
0.0
  0
VERTEX
  5
9CDA
  8
0
 10
552.08990765874364
 20
141.4538621769712
 30
0.0
  0
VERTEX
  5
9CDB
  8
0
 10
551.95408824337801
 20
141.57716899531039
 30
0.0
  0
VERTEX
  5
9CDC
  8
0
 10
551.80509614607308
 20
141.70010630300601
 30
0.0
  0
VERTEX
  5
9CDD
  8
0
 10
551.64360450534423
 20
141.82180760473929
 30
0.0
  0
VERTEX
  5
9CDE
  8
0
 10
551.47045704136849
 20
141.9414343984609
 30
0.0
  0
VERTEX
  5
9CDF
  8
0
 10
551.28654161631334
 20
142.0582535222855
 30
0.0
  0
VERTEX
  5
9CE0
  8
0
 10
551.19087407844188
 20
142.11538046929641
 30
0.0
  0
VERTEX
  5
9CE1
  8
0
 10
551.09293783116823
 20
142.17152740683699
 30
0.0
  0
VERTEX
  5
9CE2
  8
0
 10
550.89092421935675
 20
142.2805256730245
 30
0.0
  0
VERTEX
  5
9CE3
  8
0
 10
550.68189544453162
 20
142.3845802690945
 30
0.0
  0
VERTEX
  5
9CE4
  8
0
 10
550.5752241128589
 20
142.4345589468615
 30
0.0
  0
VERTEX
  5
9CE5
  8
0
 10
550.49569503131238
 20
142.46989935413339
 30
0.0
  0
VERTEX
  5
9CE6
  8
0
 10
550.33306285923618
 20
142.5353980067394
 30
0.0
  0
VERTEX
  5
9CE7
  8
0
 10
550.16591785787341
 20
142.59434493740909
 30
0.0
  0
VERTEX
  5
9CE8
  8
0
 10
550.08074841126518
 20
142.62149358643941
 30
0.0
  0
VERTEX
  5
9CE9
  8
0
 10
549.99456527258599
 20
142.64716159286979
 30
0.0
  0
VERTEX
  5
9CEA
  8
0
 10
549.81931016920669
 20
142.69425931517259
 30
0.0
  0
VERTEX
  5
9CEB
  8
0
 10
549.64045521812113
 20
142.73603761349349
 30
0.0
  0
VERTEX
  5
9CEC
  8
0
 10
549.45897750250595
 20
142.77275458795759
 30
0.0
  0
VERTEX
  5
9CED
  8
0
 10
549.27624722168139
 20
142.80465874525581
 30
0.0
  0
VERTEX
  5
9CEE
  8
0
 10
549.09271676071512
 20
142.83219436469889
 30
0.0
  0
VERTEX
  5
9CEF
  8
0
 10
549.00078865944351
 20
142.84445383458149
 30
0.0
  0
VERTEX
  5
9CF0
  8
0
 10
548.90882445019952
 20
142.8557725149534
 30
0.0
  0
VERTEX
  5
9CF1
  8
0
 10
548.72500324615339
 20
142.87576789458231
 30
0.0
  0
VERTEX
  5
9CF2
  8
0
 10
548.54168131944425
 20
142.89251723760131
 30
0.0
  0
VERTEX
  5
9CF3
  8
0
 10
548.35940472911795
 20
142.90630913407529
 30
0.0
  0
VERTEX
  5
9CF4
  8
0
 10
548.17922249408775
 20
142.91736925901969
 30
0.0
  0
VERTEX
  5
9CF5
  8
0
 10
548.00165051241447
 20
142.92593241063159
 30
0.0
  0
VERTEX
  5
9CF6
  8
0
 10
547.91397582250192
 20
142.9293396803952
 30
0.0
  0
VERTEX
  5
9CF7
  8
0
 10
547.82711197619517
 20
142.93219090082479
 30
0.0
  0
VERTEX
  5
9CF8
  8
0
 10
547.65612606592356
 20
142.9362847409212
 30
0.0
  0
VERTEX
  5
9CF9
  8
0
 10
547.48933391253877
 20
142.93830654423081
 30
0.0
  0
VERTEX
  5
9CFA
  8
0
 10
547.40763680557438
 20
142.93855814280991
 30
0.0
  0
SEQEND
  5
9CFB
  8
0
  0
LINE
  5
6A5A
  8
0
 10
552.72355129488551
 20
140.2980644290131
 30
0.0
 11
552.72355129488551
 21
120.55469671333719
 31
0.0
  0
LINE
  5
6C25
  8
2
 10
766.36822744121764
 20
386.79437351102808
 30
0.0
 11
793.36822744121764
 21
386.79437351102843
 31
0.0
  0
LINE
  5
6C26
  8
2
 10
793.36822744121764
 20
400.79437351102808
 30
0.0
 11
766.36822744121764
 21
400.79437351102808
 31
0.0
  0
LINE
  5
6C27
  8
2
 10
766.36822744121764
 20
409.29437351102791
 30
0.0
 11
766.36822744121764
 21
378.29437351102808
 31
0.0
  0
LINE
  5
6C28
  8
2
 10
768.37208420298202
 20
381.79437351102791
 30
0.0
 11
768.37227063255364
 21
380.79437351102791
 31
0.0
  0
LINE
  5
6C29
  8
2
 10
763.36822744121764
 20
409.29437351102808
 30
0.0
 11
763.36822744121764
 21
378.29437351102808
 31
0.0
  0
LINE
  5
6C2A
  8
2
 10
763.36822744121764
 20
378.29437351102808
 30
0.0
 11
766.36822744121764
 21
378.29437351102843
 31
0.0
  0
LINE
  5
6C2B
  8
2
 10
793.16822744121748
 20
380.79437351102808
 30
0.0
 11
768.37227063255364
 21
380.79437351102791
 31
0.0
  0
LINE
  5
6C2C
  8
2
 10
766.36822744121764
 20
381.79437351102808
 30
0.0
 11
768.37208420298202
 21
381.79437351102808
 31
0.0
  0
LINE
  5
6C2D
  8
2
 10
768.37208420298202
 20
405.79437351102831
 30
0.0
 11
768.37227063255375
 21
406.79437351102831
 31
0.0
  0
LINE
  5
6C2E
  8
2
 10
763.36822744121764
 20
409.29437351102808
 30
0.0
 11
766.36822744121764
 21
409.29437351102791
 31
0.0
  0
LINE
  5
6C2F
  8
2
 10
793.16822744121748
 20
406.79437351102808
 30
0.0
 11
768.37227063255375
 21
406.79437351102831
 31
0.0
  0
LINE
  5
6C30
  8
2
 10
766.36822744121764
 20
405.79437351102808
 30
0.0
 11
768.37208420298202
 21
405.79437351102808
 31
0.0
  0
LINE
  5
6C78
  8
0
 10
588.72355129488574
 20
143.05469671333719
 30
0.0
 11
588.72355129488551
 21
120.55469671333719
 31
0.0
  0
LINE
  5
6C79
  8
0
 10
558.72355129488517
 20
143.05469671333719
 30
0.0
 11
558.72355129488551
 21
120.55469671333719
 31
0.0
  0
LINE
  5
8AC4
  8
1
 10
301.42164772606611
 20
458.79437351102808
 30
0.0
 11
344.42164772606611
 21
458.79437351102808
 31
0.0
  0
CIRCLE
  5
8AC5
  8
0
 10
322.92164772606611
 20
393.79437351102808
 30
0.0
 40
80.0
  0
ARC
  5
8AC6
  8
0
 10
322.92164772606611
 20
393.79437351102882
 30
0.0
 40
75.848772593125901
 50
93.113424094767296
 51
86.886575905232704
  0
ARC
  5
8AC7
  8
0
 10
322.92164772606611
 20
393.79437351102808
 30
0.0
 40
60.246457611173312
 50
99.598870111988091
 51
80.401129888011894
  0
CIRCLE
  5
8AC8
  8
0
 10
322.92164772606611
 20
393.79437351102808
 30
0.0
 40
20.000000000000028
  0
POLYLINE
  5
8AC9
  8
0
 66
     1
 10
0.0
 20
0.0
 30
0.0
  0
VERTEX
  5
9CFC
  8
0
 10
350.23756221537718
 20
441.7301227945228
 30
0.0
  0
VERTEX
  5
9CFD
  8
0
 10
350.20868435123413
 20
441.74640081857262
 30
0.0
  0
VERTEX
  5
9CFE
  8
0
 10
350.15022234355962
 20
441.77828285261933
 30
0.0
  0
VERTEX
  5
9CFF
  8
0
 10
350.0908449481899
 20
441.80923179737567
 30
0.0
  0
VERTEX
  5
9D00
  8
0
 10
350.0608232103894
 20
441.82434383273551
 30
0.0
  0
VERTEX
  5
9D01
  8
0
 10
350.03058507977579
 20
441.8392077709691
 30
0.0
  0
VERTEX
  5
9D02
  8
0
 10
349.96947702340088
 20
441.86817259924061
 30
0.0
  0
VERTEX
  5
9D03
  8
0
 10
349.90755625898032
 20
441.89608991595389
 30
0.0
  0
VERTEX
  5
9D04
  8
0
 10
349.84485927886641
 20
441.92292524601231
 30
0.0
  0
VERTEX
  5
9D05
  8
0
 10
349.78142339819851
 20
441.9486460719146
 30
0.0
  0
VERTEX
  5
9D06
  8
0
 10
349.7172865576045
 20
441.9732218834647
 30
0.0
  0
VERTEX
  5
9D07
  8
0
 10
349.6849672544713
 20
441.98507143172088
 30
0.0
  0
VERTEX
  5
9D08
  8
0
 10
349.65248711796039
 20
441.99662421058622
 30
0.0
  0
VERTEX
  5
9D09
  8
0
 10
349.5870636470213
 20
442.01882663889103
 30
0.0
  0
VERTEX
  5
9D0A
  8
0
 10
349.52105475307781
 20
442.03980479055832
 30
0.0
  0
VERTEX
  5
9D0B
  8
0
 10
349.45449957090432
 20
442.05953610509511
 30
0.0
  0
VERTEX
  5
9D0C
  8
0
 10
349.38743835320878
 20
442.07799966115232
 30
0.0
  0
VERTEX
  5
9D0D
  8
0
 10
349.31991237418703
 20
442.09517624609049
 30
0.0
  0
VERTEX
  5
9D0E
  8
0
 10
349.28598823283528
 20
442.10327640771732
 30
0.0
  0
VERTEX
  5
9D0F
  8
0
 10
349.25196375115303
 20
442.11104843604392
 30
0.0
  0
VERTEX
  5
9D10
  8
0
 10
349.18363526354511
 20
442.12560065905342
 30
0.0
  0
VERTEX
  5
9D11
  8
0
 10
349.11497016909328
 20
442.13881924153708
 30
0.0
  0
VERTEX
  5
9D12
  8
0
 10
349.08052499719543
 20
442.14492467138598
 30
0.0
  0
VERTEX
  5
9D13
  8
0
 10
349.04601201691838
 20
442.1506924382511
 30
0.0
  0
VERTEX
  5
9D14
  8
0
 10
348.97680445735568
 20
442.16121044576551
 30
0.0
  0
VERTEX
  5
9D15
  8
0
 10
348.90739104831073
 20
442.17036539934873
 30
0.0
  0
VERTEX
  5
9D16
  8
0
 10
348.87262068833638
 20
442.17442979874937
 30
0.0
  0
VERTEX
  5
9D17
  8
0
 10
348.83781393871959
 20
442.17815146716208
 30
0.0
  0
VERTEX
  5
9D18
  8
0
 10
348.76809977297029
 20
442.1845658427315
 30
0.0
  0
VERTEX
  5
9D19
  8
0
 10
348.69828648055818
 20
442.18960552395998
 30
0.0
  0
VERTEX
  5
9D1A
  8
0
 10
348.6284180812134
 20
442.1932686437741
 30
0.0
  0
VERTEX
  5
9D1B
  8
0
 10
348.55853915657548
 20
442.19555518859579
 30
0.0
  0
VERTEX
  5
9D1C
  8
0
 10
348.48869466143202
 20
442.19646704864101
 30
0.0
  0
VERTEX
  5
9D1D
  8
0
 10
348.4537994289276
 20
442.19640859165838
 30
0.0
  0
VERTEX
  5
9D1E
  8
0
 10
348.4189297351989
 20
442.19600805115448
 30
0.0
  0
VERTEX
  5
9D1F
  8
0
 10
348.34928951350861
 20
442.19418397680931
 30
0.0
  0
VERTEX
  5
9D20
  8
0
 10
348.27981893970173
 20
442.19100255939162
 30
0.0
  0
VERTEX
  5
9D21
  8
0
 10
348.21056257597911
 20
442.18647346876571
 30
0.0
  0
VERTEX
  5
9D22
  8
0
 10
348.14156441393811
 20
442.18060827698719
 30
0.0
  0
VERTEX
  5
9D23
  8
0
 10
348.07286769837611
 20
442.17342040894528
 30
0.0
  0
VERTEX
  5
9D24
  8
0
 10
348.03864574301838
 20
442.1693351691934
 30
0.0
  0
VERTEX
  5
9D25
  8
0
 10
348.00451521193281
 20
442.16492513916739
 30
0.0
  0
VERTEX
  5
9D26
  8
0
 10
347.93655004308181
 20
442.15513970155831
 30
0.0
  0
VERTEX
  5
9D27
  8
0
 10
347.8690155807376
 20
442.14408336089821
 30
0.0
  0
VERTEX
  5
9D28
  8
0
 10
347.8019553026765
 20
442.1317774493823
 30
0.0
  0
VERTEX
  5
9D29
  8
0
 10
347.7354125678973
 20
442.11824538449679
 30
0.0
  0
VERTEX
  5
9D2A
  8
0
 10
347.66943041355103
 20
442.10351266875762
 30
0.0
  0
VERTEX
  5
9D2B
  8
0
 10
347.63666286615688
 20
442.09570460239598
 30
0.0
  0
VERTEX
  5
9D2C
  8
0
 10
347.60405135621983
 20
442.08760687164579
 30
0.0
  0
VERTEX
  5
9D2D
  8
0
 10
347.53931719717912
 20
442.0705575938992
 30
0.0
  0
VERTEX
  5
9D2E
  8
0
 10
347.4752688311537
 20
442.05239641415437
 30
0.0
  0
VERTEX
  5
9D2F
  8
0
 10
347.41193979399299
 20
442.03315485066111
 30
0.0
  0
VERTEX
  5
9D30
  8
0
 10
347.34889820154967
 20
442.01271044647461
 30
0.0
  0
VERTEX
  5
9D31
  8
0
 10
347.28589846187288
 20
441.99097008284258
 30
0.0
  0
VERTEX
  5
9D32
  8
0
 10
347.25443023465192
 20
441.97961264505432
 30
0.0
  0
VERTEX
  5
9D33
  8
0
 10
347.22299158432128
 20
441.96792996177749
 30
0.0
  0
VERTEX
  5
9D34
  8
0
 10
347.16022833052222
 20
441.94358842957217
 30
0.0
  0
VERTEX
  5
9D35
  8
0
 10
347.09765902402143
 20
441.91794592341932
 30
0.0
  0
VERTEX
  5
9D36
  8
0
 10
347.03533336797142
 20
441.8910049021739
 30
0.0
  0
VERTEX
  5
9D37
  8
0
 10
346.97330027028971
 20
441.86276976115869
 30
0.0
  0
VERTEX
  5
9D38
  8
0
 10
346.91160767591242
 20
441.83324673080011
 30
0.0
  0
VERTEX
  5
9D39
  8
0
 10
346.88090374721702
 20
441.81800467726271
 30
0.0
  0
VERTEX
  5
9D3A
  8
0
 10
346.8503024059533
 20
441.80244375882421
 30
0.0
  0
VERTEX
  5
9D3B
  8
0
 10
346.78943000377649
 20
441.7703703756971
 30
0.0
  0
VERTEX
  5
9D3C
  8
0
 10
346.72903459342342
 20
441.7370375459127
 30
0.0
  0
VERTEX
  5
9D3D
  8
0
 10
346.69902918493881
 20
441.7199026497625
 30
0.0
  0
VERTEX
  5
9D3E
  8
0
 10
346.6691590540317
 20
441.70245768483028
 30
0.0
  0
VERTEX
  5
9D3F
  8
0
 10
346.60984571777158
 20
441.66664502592857
 30
0.0
  0
VERTEX
  5
9D40
  8
0
 10
346.55113643767709
 20
441.62961569732499
 30
0.0
  0
VERTEX
  5
9D41
  8
0
 10
346.52202122331801
 20
441.61065032374069
 30
0.0
  0
VERTEX
  5
9D42
  8
0
 10
346.49307241177848
 20
441.59138765454469
 30
0.0
  0
VERTEX
  5
9D43
  8
0
 10
346.43569401540191
 20
441.55198059916631
 30
0.0
  0
VERTEX
  5
9D44
  8
0
 10
346.37904064355052
 20
441.51141588466601
 30
0.0
  0
VERTEX
  5
9D45
  8
0
 10
346.32315056304611
 20
441.4697164094365
 30
0.0
  0
VERTEX
  5
9D46
  8
0
 10
346.26806077420702
 20
441.42690649687898
 30
0.0
  0
VERTEX
  5
9D47
  8
0
 10
346.21380688193909
 20
441.38301176238582
 30
0.0
  0
VERTEX
  5
9D48
  8
0
 10
346.18700411238711
 20
441.36066590926208
 30
0.0
  0
VERTEX
  5
9D49
  8
0
 10
346.16042297621522
 20
441.33805896698101
 30
0.0
  0
VERTEX
  5
9D4A
  8
0
 10
346.10793516797708
 20
441.29207017885261
 30
0.0
  0
VERTEX
  5
9D4B
  8
0
 10
346.05636509999613
 20
441.24506481500657
 30
0.0
  0
VERTEX
  5
9D4C
  8
0
 10
346.00574396547933
 20
441.19707249973641
 30
0.0
  0
VERTEX
  5
9D4D
  8
0
 10
345.95610220562958
 20
441.14812464517178
 30
0.0
  0
VERTEX
  5
9D4E
  8
0
 10
345.90746921555609
 20
441.09825424551042
 30
0.0
  0
VERTEX
  5
9D4F
  8
0
 10
345.88353987128272
 20
441.07298380872999
 30
0.0
  0
VERTEX
  5
9D50
  8
0
 10
345.85987319153719
 20
441.04749577118127
 30
0.0
  0
VERTEX
  5
9D51
  8
0
 10
345.81334099020791
 20
440.99588505209209
 30
0.0
  0
VERTEX
  5
9D52
  8
0
 10
345.76789799943032
 20
440.94345914993079
 30
0.0
  0
VERTEX
  5
9D53
  8
0
 10
345.72356802063661
 20
440.89025621937259
 30
0.0
  0
VERTEX
  5
9D54
  8
0
 10
345.68037316252372
 20
440.8363153579304
 30
0.0
  0
VERTEX
  5
9D55
  8
0
 10
345.63833374607469
 20
440.78167644415828
 30
0.0
  0
VERTEX
  5
9D56
  8
0
 10
345.61775317874282
 20
440.75410786371827
 30
0.0
  0
VERTEX
  5
9D57
  8
0
 10
345.59746830404811
 20
440.72638007852362
 30
0.0
  0
VERTEX
  5
9D58
  8
0
 10
345.55779400741579
 20
440.67046813803017
 30
0.0
  0
VERTEX
  5
9D59
  8
0
 10
345.51932683960331
 20
440.61398410738872
 30
0.0
  0
VERTEX
  5
9D5A
  8
0
 10
345.48208143929742
 20
440.55697297952531
 30
0.0
  0
VERTEX
  5
9D5B
  8
0
 10
345.4460709428734
 20
440.49948112588169
 30
0.0
  0
VERTEX
  5
9D5C
  8
0
 10
345.41130684257058
 20
440.4415561578258
 30
0.0
  0
VERTEX
  5
9D5D
  8
0
 10
345.39439530129403
 20
440.41244643740549
 30
0.0
  0
VERTEX
  5
9D5E
  8
0
 10
345.37779886004682
 20
440.38324677929592
 30
0.0
  0
VERTEX
  5
9D5F
  8
0
 10
345.3455548349495
 20
440.32460263058198
 30
0.0
  0
VERTEX
  5
9D60
  8
0
 10
345.31458062819092
 20
440.26567412296401
 30
0.0
  0
VERTEX
  5
9D61
  8
0
 10
345.284880039656
 20
440.20651226371513
 30
0.0
  0
VERTEX
  5
9D62
  8
0
 10
345.25638086278673
 20
440.14701049070987
 30
0.0
  0
VERTEX
  5
9D63
  8
0
 10
345.22882639645508
 20
440.08662121961891
 30
0.0
  0
VERTEX
  5
9D64
  8
0
 10
345.21540725813162
 20
440.05608447491392
 30
0.0
  0
VERTEX
  5
9D65
  8
0
 10
345.20223415286819
 20
440.02532614582202
 30
0.0
  0
VERTEX
  5
9D66
  8
0
 10
345.17664715618321
 20
439.96316475141981
 30
0.0
  0
VERTEX
  5
9D67
  8
0
 10
345.15210625637701
 20
439.90017788656371
 30
0.0
  0
VERTEX
  5
9D68
  8
0
 10
345.14024023954312
 20
439.86838799068897
 30
0.0
  0
VERTEX
  5
9D69
  8
0
 10
345.1286500318742
 20
439.83640755842049
 30
0.0
  0
VERTEX
  5
9D6A
  8
0
 10
345.10631471227362
 20
439.77189671215422
 30
0.0
  0
VERTEX
  5
9D6B
  8
0
 10
345.08513412103048
 20
439.70668900302189
 30
0.0
  0
VERTEX
  5
9D6C
  8
0
 10
345.07498675086367
 20
439.67383760306041
 30
0.0
  0
VERTEX
  5
9D6D
  8
0
 10
345.06513963822908
 20
439.64082855880832
 30
0.0
  0
VERTEX
  5
9D6E
  8
0
 10
345.04636018384508
 20
439.57435973197943
 30
0.0
  0
VERTEX
  5
9D6F
  8
0
 10
345.02882223734417
 20
439.50732690162067
 30
0.0
  0
VERTEX
  5
9D70
  8
0
 10
345.01255003886132
 20
439.43977498909283
 30
0.0
  0
VERTEX
  5
9D71
  8
0
 10
344.9975657436778
 20
439.37175009081608
 30
0.0
  0
VERTEX
  5
9D72
  8
0
 10
344.98388934874851
 20
439.3032993519397
 30
0.0
  0
VERTEX
  5
9D73
  8
0
 10
344.97754725294948
 20
439.26892925847739
 30
0.0
  0
VERTEX
  5
9D74
  8
0
 10
344.97153861390098
 20
439.23447074908847
 30
0.0
  0
VERTEX
  5
9D75
  8
0
 10
344.9605290033499
 20
439.16531287078362
 30
0.0
  0
VERTEX
  5
9D76
  8
0
 10
344.95087364721257
 20
439.0958746948582
 30
0.0
  0
VERTEX
  5
9D77
  8
0
 10
344.94258332292821
 20
439.02620536221508
 30
0.0
  0
VERTEX
  5
9D78
  8
0
 10
344.93566645667852
 20
438.95635394631211
 30
0.0
  0
VERTEX
  5
9D79
  8
0
 10
344.9301291111708
 20
438.88636872727932
 30
0.0
  0
VERTEX
  5
9D7A
  8
0
 10
344.92787877398769
 20
438.85133645101592
 30
0.0
  0
VERTEX
  5
9D7B
  8
0
 10
344.9259744201986
 20
438.8162836555212
 30
0.0
  0
VERTEX
  5
9D7C
  8
0
 10
344.92320470530649
 20
438.74614141303078
 30
0.0
  0
VERTEX
  5
9D7D
  8
0
 10
344.9218206053315
 20
438.6759919193683
 30
0.0
  0
VERTEX
  5
9D7E
  8
0
 10
344.92164772606611
 20
438.64093006291989
 30
0.0
  0
SEQEND
  5
9D7F
  8
0
  0
ARC
  5
8ACA
  8
0
 10
322.92164772606611
 20
393.79437351102808
 30
0.0
 40
55.172413793103431
 50
299.67640633167889
 51
60.323592677949691
  0
POLYLINE
  5
8ACB
  8
0
 66
     1
 10
0.0
 20
0.0
 30
0.0
  0
VERTEX
  5
9D80
  8
0
 10
344.92164772606611
 20
348.94781695913628
 30
0.0
  0
VERTEX
  5
9D81
  8
0
 10
344.9218206053315
 20
348.91275510268781
 30
0.0
  0
VERTEX
  5
9D82
  8
0
 10
344.92320470530649
 20
348.84260560902533
 30
0.0
  0
VERTEX
  5
9D83
  8
0
 10
344.9259744201986
 20
348.77246336653491
 30
0.0
  0
VERTEX
  5
9D84
  8
0
 10
344.92787877398769
 20
348.7374105710399
 30
0.0
  0
VERTEX
  5
9D85
  8
0
 10
344.9301291111708
 20
348.70237829477662
 30
0.0
  0
VERTEX
  5
9D86
  8
0
 10
344.93566645667852
 20
348.63239307574401
 30
0.0
  0
VERTEX
  5
9D87
  8
0
 10
344.94258332292821
 20
348.5625416598408
 30
0.0
  0
VERTEX
  5
9D88
  8
0
 10
344.95087364721257
 20
348.49287232719809
 30
0.0
  0
VERTEX
  5
9D89
  8
0
 10
344.9605290033499
 20
348.42343415127232
 30
0.0
  0
VERTEX
  5
9D8A
  8
0
 10
344.97153861390098
 20
348.35427627296752
 30
0.0
  0
VERTEX
  5
9D8B
  8
0
 10
344.97754725294948
 20
348.3198177635785
 30
0.0
  0
VERTEX
  5
9D8C
  8
0
 10
344.98388934874851
 20
348.28544767011653
 30
0.0
  0
VERTEX
  5
9D8D
  8
0
 10
344.99756574367802
 20
348.21699693123981
 30
0.0
  0
VERTEX
  5
9D8E
  8
0
 10
345.01255003886132
 20
348.14897203296329
 30
0.0
  0
VERTEX
  5
9D8F
  8
0
 10
345.02882223734417
 20
348.08142012043561
 30
0.0
  0
VERTEX
  5
9D90
  8
0
 10
345.04636018384508
 20
348.0143872900768
 30
0.0
  0
VERTEX
  5
9D91
  8
0
 10
345.06513963822908
 20
347.94791846324767
 30
0.0
  0
VERTEX
  5
9D92
  8
0
 10
345.07498675086367
 20
347.91490941899599
 30
0.0
  0
VERTEX
  5
9D93
  8
0
 10
345.08513412103048
 20
347.88205801903422
 30
0.0
  0
VERTEX
  5
9D94
  8
0
 10
345.10631471227362
 20
347.81685030990189
 30
0.0
  0
VERTEX
  5
9D95
  8
0
 10
345.1286500318742
 20
347.75233946363562
 30
0.0
  0
VERTEX
  5
9D96
  8
0
 10
345.14024023954312
 20
347.72035903136691
 30
0.0
  0
VERTEX
  5
9D97
  8
0
 10
345.15210625637701
 20
347.68856913549251
 30
0.0
  0
VERTEX
  5
9D98
  8
0
 10
345.17664715618321
 20
347.6255822706363
 30
0.0
  0
VERTEX
  5
9D99
  8
0
 10
345.20223415286819
 20
347.56342087623432
 30
0.0
  0
VERTEX
  5
9D9A
  8
0
 10
345.21540725813162
 20
347.53266254714219
 30
0.0
  0
VERTEX
  5
9D9B
  8
0
 10
345.22882639645508
 20
347.50212580243698
 30
0.0
  0
VERTEX
  5
9D9C
  8
0
 10
345.25638086278673
 20
347.44173653134618
 30
0.0
  0
VERTEX
  5
9D9D
  8
0
 10
345.284880039656
 20
347.38223475834081
 30
0.0
  0
VERTEX
  5
9D9E
  8
0
 10
345.31458062819092
 20
347.32307289909193
 30
0.0
  0
VERTEX
  5
9D9F
  8
0
 10
345.3455548349495
 20
347.26414439147408
 30
0.0
  0
VERTEX
  5
9DA0
  8
0
 10
345.37779886004682
 20
347.20550024276019
 30
0.0
  0
VERTEX
  5
9DA1
  8
0
 10
345.3943953012942
 20
347.17630058465051
 30
0.0
  0
VERTEX
  5
9DA2
  8
0
 10
345.41130684257058
 20
347.14719086423031
 30
0.0
  0
VERTEX
  5
9DA3
  8
0
 10
345.4460709428734
 20
347.08926589617442
 30
0.0
  0
VERTEX
  5
9DA4
  8
0
 10
345.48208143929742
 20
347.03177404253063
 30
0.0
  0
VERTEX
  5
9DA5
  8
0
 10
345.51932683960331
 20
346.97476291466739
 30
0.0
  0
VERTEX
  5
9DA6
  8
0
 10
345.55779400741579
 20
346.91827888402588
 30
0.0
  0
VERTEX
  5
9DA7
  8
0
 10
345.59746830404839
 20
346.86236694353232
 30
0.0
  0
VERTEX
  5
9DA8
  8
0
 10
345.61775317874282
 20
346.83463915833778
 30
0.0
  0
VERTEX
  5
9DA9
  8
0
 10
345.63833374607469
 20
346.80707057789789
 30
0.0
  0
VERTEX
  5
9DAA
  8
0
 10
345.68037316252372
 20
346.75243166412548
 30
0.0
  0
VERTEX
  5
9DAB
  8
0
 10
345.72356802063678
 20
346.69849080268352
 30
0.0
  0
VERTEX
  5
9DAC
  8
0
 10
345.76789799943032
 20
346.64528787212532
 30
0.0
  0
VERTEX
  5
9DAD
  8
0
 10
345.81334099020791
 20
346.5928619699643
 30
0.0
  0
VERTEX
  5
9DAE
  8
0
 10
345.85987319153719
 20
346.54125125087478
 30
0.0
  0
VERTEX
  5
9DAF
  8
0
 10
345.88353987128272
 20
346.5157632133259
 30
0.0
  0
VERTEX
  5
9DB0
  8
0
 10
345.90746921555638
 20
346.49049277654569
 30
0.0
  0
VERTEX
  5
9DB1
  8
0
 10
345.95610220562958
 20
346.44062237688428
 30
0.0
  0
VERTEX
  5
9DB2
  8
0
 10
346.00574396547933
 20
346.3916745223197
 30
0.0
  0
VERTEX
  5
9DB3
  8
0
 10
346.05636509999613
 20
346.34368220704948
 30
0.0
  0
VERTEX
  5
9DB4
  8
0
 10
346.1079351679773
 20
346.29667684320327
 30
0.0
  0
VERTEX
  5
9DB5
  8
0
 10
346.16042297621522
 20
346.2506880550751
 30
0.0
  0
VERTEX
  5
9DB6
  8
0
 10
346.18700411238711
 20
346.22808111279397
 30
0.0
  0
VERTEX
  5
9DB7
  8
0
 10
346.21380688193909
 20
346.2057352596704
 30
0.0
  0
VERTEX
  5
9DB8
  8
0
 10
346.26806077420702
 20
346.16184052517713
 30
0.0
  0
VERTEX
  5
9DB9
  8
0
 10
346.32315056304611
 20
346.11903061261972
 30
0.0
  0
VERTEX
  5
9DBA
  8
0
 10
346.37904064355052
 20
346.07733113739039
 30
0.0
  0
VERTEX
  5
9DBB
  8
0
 10
346.43569401540208
 20
346.03676642288991
 30
0.0
  0
VERTEX
  5
9DBC
  8
0
 10
346.49307241177848
 20
345.99735936751142
 30
0.0
  0
VERTEX
  5
9DBD
  8
0
 10
346.52202122331801
 20
345.97809669831543
 30
0.0
  0
VERTEX
  5
9DBE
  8
0
 10
346.55113643767731
 20
345.95913132473117
 30
0.0
  0
VERTEX
  5
9DBF
  8
0
 10
346.6098457177718
 20
345.92210199612771
 30
0.0
  0
VERTEX
  5
9DC0
  8
0
 10
346.66915905403198
 20
345.88628933722578
 30
0.0
  0
VERTEX
  5
9DC1
  8
0
 10
346.69902918493881
 20
345.86884437229372
 30
0.0
  0
VERTEX
  5
9DC2
  8
0
 10
346.72903459342342
 20
345.8517094761433
 30
0.0
  0
VERTEX
  5
9DC3
  8
0
 10
346.78943000377649
 20
345.8183766463593
 30
0.0
  0
VERTEX
  5
9DC4
  8
0
 10
346.8503024059533
 20
345.78630326323179
 30
0.0
  0
VERTEX
  5
9DC5
  8
0
 10
346.88090374721702
 20
345.7707423447934
 30
0.0
  0
VERTEX
  5
9DC6
  8
0
 10
346.91160767591242
 20
345.755500291256
 30
0.0
  0
VERTEX
  5
9DC7
  8
0
 10
346.97330027028971
 20
345.72597726089742
 30
0.0
  0
VERTEX
  5
9DC8
  8
0
 10
347.03533336797142
 20
345.69774211988232
 30
0.0
  0
VERTEX
  5
9DC9
  8
0
 10
347.09765902402143
 20
345.6708010986369
 30
0.0
  0
VERTEX
  5
9DCA
  8
0
 10
347.16022833052239
 20
345.64515859248388
 30
0.0
  0
VERTEX
  5
9DCB
  8
0
 10
347.22299158432128
 20
345.62081706027891
 30
0.0
  0
VERTEX
  5
9DCC
  8
0
 10
347.25443023465209
 20
345.60913437700208
 30
0.0
  0
VERTEX
  5
9DCD
  8
0
 10
347.28589846187288
 20
345.5977769392133
 30
0.0
  0
VERTEX
  5
9DCE
  8
0
 10
347.34889820154967
 20
345.57603657558133
 30
0.0
  0
VERTEX
  5
9DCF
  8
0
 10
347.41193979399299
 20
345.55559217139478
 30
0.0
  0
VERTEX
  5
9DD0
  8
0
 10
347.4752688311537
 20
345.5363506079014
 30
0.0
  0
VERTEX
  5
9DD1
  8
0
 10
347.53931719717912
 20
345.51818942815692
 30
0.0
  0
VERTEX
  5
9DD2
  8
0
 10
347.60405135621983
 20
345.50114015041038
 30
0.0
  0
VERTEX
  5
9DD3
  8
0
 10
347.63666286615722
 20
345.49304241966013
 30
0.0
  0
VERTEX
  5
9DD4
  8
0
 10
347.66943041355103
 20
345.48523435329832
 30
0.0
  0
VERTEX
  5
9DD5
  8
0
 10
347.73541256789758
 20
345.47050163755932
 30
0.0
  0
VERTEX
  5
9DD6
  8
0
 10
347.8019553026765
 20
345.45696957267381
 30
0.0
  0
VERTEX
  5
9DD7
  8
0
 10
347.8690155807376
 20
345.44466366115802
 30
0.0
  0
VERTEX
  5
9DD8
  8
0
 10
347.93655004308198
 20
345.4336073204978
 30
0.0
  0
VERTEX
  5
9DD9
  8
0
 10
348.00451521193298
 20
345.42382188288877
 30
0.0
  0
VERTEX
  5
9DDA
  8
0
 10
348.03864574301861
 20
345.41941185286271
 30
0.0
  0
VERTEX
  5
9DDB
  8
0
 10
348.07286769837629
 20
345.41532661311078
 30
0.0
  0
VERTEX
  5
9DDC
  8
0
 10
348.14156441393828
 20
345.4081387450691
 30
0.0
  0
VERTEX
  5
9DDD
  8
0
 10
348.21056257597928
 20
345.4022735532904
 30
0.0
  0
VERTEX
  5
9DDE
  8
0
 10
348.27981893970201
 20
345.39774446266432
 30
0.0
  0
VERTEX
  5
9DDF
  8
0
 10
348.34928951350861
 20
345.39456304524708
 30
0.0
  0
VERTEX
  5
9DE0
  8
0
 10
348.41892973519907
 20
345.39273897090158
 30
0.0
  0
VERTEX
  5
9DE1
  8
0
 10
348.45379942892782
 20
345.39233843039767
 30
0.0
  0
VERTEX
  5
9DE2
  8
0
 10
348.48869466143202
 20
345.39227997341487
 30
0.0
  0
VERTEX
  5
9DE3
  8
0
 10
348.55853915657548
 20
345.39319183346032
 30
0.0
  0
VERTEX
  5
9DE4
  8
0
 10
348.6284180812134
 20
345.39547837828189
 30
0.0
  0
VERTEX
  5
9DE5
  8
0
 10
348.69828648055818
 20
345.3991414980959
 30
0.0
  0
VERTEX
  5
9DE6
  8
0
 10
348.76809977297029
 20
345.40418117932438
 30
0.0
  0
VERTEX
  5
9DE7
  8
0
 10
348.83781393871959
 20
345.41059555489397
 30
0.0
  0
VERTEX
  5
9DE8
  8
0
 10
348.87262068833661
 20
345.41431722330651
 30
0.0
  0
VERTEX
  5
9DE9
  8
0
 10
348.90739104831073
 20
345.41838162270739
 30
0.0
  0
VERTEX
  5
9DEA
  8
0
 10
348.97680445735568
 20
345.42753657629072
 30
0.0
  0
VERTEX
  5
9DEB
  8
0
 10
349.04601201691872
 20
345.43805458380473
 30
0.0
  0
VERTEX
  5
9DEC
  8
0
 10
349.0805249971956
 20
345.4438223506703
 30
0.0
  0
VERTEX
  5
9DED
  8
0
 10
349.11497016909328
 20
345.44992778051909
 30
0.0
  0
VERTEX
  5
9DEE
  8
0
 10
349.18363526354528
 20
345.46314636300269
 30
0.0
  0
VERTEX
  5
9DEF
  8
0
 10
349.2519637511532
 20
345.47769858601202
 30
0.0
  0
VERTEX
  5
9DF0
  8
0
 10
349.28598823283551
 20
345.48547061433891
 30
0.0
  0
VERTEX
  5
9DF1
  8
0
 10
349.3199123741872
 20
345.49357077596562
 30
0.0
  0
VERTEX
  5
9DF2
  8
0
 10
349.38743835320878
 20
345.51074736090362
 30
0.0
  0
VERTEX
  5
9DF3
  8
0
 10
349.45449957090432
 20
345.52921091696101
 30
0.0
  0
VERTEX
  5
9DF4
  8
0
 10
349.52105475307798
 20
345.54894223149762
 30
0.0
  0
VERTEX
  5
9DF5
  8
0
 10
349.5870636468137
 20
345.56992038309693
 30
0.0
  0
VERTEX
  5
9DF6
  8
0
 10
349.65248709131811
 20
345.59212280213882
 30
0.0
  0
VERTEX
  5
9DF7
  8
0
 10
349.68496719993499
 20
345.60367557063881
 30
0.0
  0
VERTEX
  5
9DF8
  8
0
 10
349.71728646700558
 20
345.6155251048757
 30
0.0
  0
VERTEX
  5
9DF9
  8
0
 10
349.78142321579838
 20
345.6401008782222
 30
0.0
  0
VERTEX
  5
9DFA
  8
0
 10
349.8448589864131
 20
345.66582165417401
 30
0.0
  0
VERTEX
  5
9DFB
  8
0
 10
349.90755584765111
 20
345.69265692535981
 30
0.0
  0
VERTEX
  5
9DFC
  8
0
 10
349.96947649357298
 20
345.72057417782349
 30
0.0
  0
VERTEX
  5
9DFD
  8
0
 10
350.03058444073122
 20
345.74953894070711
 30
0.0
  0
VERTEX
  5
9DFE
  8
0
 10
350.0608225229048
 20
345.76440284732467
 30
0.0
  0
VERTEX
  5
9DFF
  8
0
 10
350.09084421776203
 20
345.77951485266738
 30
0.0
  0
VERTEX
  5
9E00
  8
0
 10
350.15022154772311
 20
345.8104637450507
 30
0.0
  0
VERTEX
  5
9E01
  8
0
 10
350.20868352364369
 20
345.84234574205351
 30
0.0
  0
VERTEX
  5
9E02
  8
0
 10
350.23756138679119
 20
345.85862375536828
 30
0.0
  0
SEQEND
  5
9E03
  8
0
  0
POLYLINE
  5
8ACD
  8
0
 66
     1
 10
0.0
 20
0.0
 30
0.0
  0
VERTEX
  5
9E04
  8
0
 10
295.60573323675499
 20
345.85862422753343
 30
0.0
  0
VERTEX
  5
9E05
  8
0
 10
295.63461110089793
 20
345.84234620348332
 30
0.0
  0
VERTEX
  5
9E06
  8
0
 10
295.69307310857261
 20
345.81046416943678
 30
0.0
  0
VERTEX
  5
9E07
  8
0
 10
295.75245050394233
 20
345.77951522468032
 30
0.0
  0
VERTEX
  5
9E08
  8
0
 10
295.78247224174271
 20
345.7644031893206
 30
0.0
  0
VERTEX
  5
9E09
  8
0
 10
295.81271037235638
 20
345.74953925108701
 30
0.0
  0
VERTEX
  5
9E0A
  8
0
 10
295.87381842873128
 20
345.7205744228155
 30
0.0
  0
VERTEX
  5
9E0B
  8
0
 10
295.93573919315168
 20
345.6926571061025
 30
0.0
  0
VERTEX
  5
9E0C
  8
0
 10
295.99843617326587
 20
345.6658217760438
 30
0.0
  0
VERTEX
  5
9E0D
  8
0
 10
296.06187205393371
 20
345.6401009501418
 30
0.0
  0
VERTEX
  5
9E0E
  8
0
 10
296.12600889452779
 20
345.61552513859158
 30
0.0
  0
VERTEX
  5
9E0F
  8
0
 10
296.15832819766092
 20
345.603675590335
 30
0.0
  0
VERTEX
  5
9E10
  8
0
 10
296.19080833417178
 20
345.59212281147001
 30
0.0
  0
VERTEX
  5
9E11
  8
0
 10
296.25623180511087
 20
345.5699203831652
 30
0.0
  0
VERTEX
  5
9E12
  8
0
 10
296.32224069905442
 20
345.54894223149762
 30
0.0
  0
VERTEX
  5
9E13
  8
0
 10
296.38879588122791
 20
345.52921091696101
 30
0.0
  0
VERTEX
  5
9E14
  8
0
 10
296.45585709892339
 20
345.51074736090379
 30
0.0
  0
VERTEX
  5
9E15
  8
0
 10
296.52338307794531
 20
345.49357077596562
 30
0.0
  0
VERTEX
  5
9E16
  8
0
 10
296.55730721929689
 20
345.48547061433891
 30
0.0
  0
VERTEX
  5
9E17
  8
0
 10
296.59133170097948
 20
345.47769858601231
 30
0.0
  0
VERTEX
  5
9E18
  8
0
 10
296.65966018858722
 20
345.46314636300269
 30
0.0
  0
VERTEX
  5
9E19
  8
0
 10
296.72832528303888
 20
345.44992778051932
 30
0.0
  0
VERTEX
  5
9E1A
  8
0
 10
296.76277045493629
 20
345.4438223506703
 30
0.0
  0
VERTEX
  5
9E1B
  8
0
 10
296.7972834352135
 20
345.4380545838049
 30
0.0
  0
VERTEX
  5
9E1C
  8
0
 10
296.86649099477648
 20
345.42753657629072
 30
0.0
  0
VERTEX
  5
9E1D
  8
0
 10
296.9359044038215
 20
345.41838162270739
 30
0.0
  0
VERTEX
  5
9E1E
  8
0
 10
296.97067476379561
 20
345.41431722330651
 30
0.0
  0
VERTEX
  5
9E1F
  8
0
 10
297.00548151341258
 20
345.41059555489397
 30
0.0
  0
VERTEX
  5
9E20
  8
0
 10
297.07519567916188
 20
345.40418117932438
 30
0.0
  0
VERTEX
  5
9E21
  8
0
 10
297.1450089715741
 20
345.3991414980959
 30
0.0
  0
VERTEX
  5
9E22
  8
0
 10
297.21487737091911
 20
345.39547837828189
 30
0.0
  0
VERTEX
  5
9E23
  8
0
 10
297.28475629555669
 20
345.39319183346032
 30
0.0
  0
VERTEX
  5
9E24
  8
0
 10
297.35460079070032
 20
345.39227997341487
 30
0.0
  0
VERTEX
  5
9E25
  8
0
 10
297.3894960232044
 20
345.39233843039767
 30
0.0
  0
VERTEX
  5
9E26
  8
0
 10
297.42436571693338
 20
345.39273897090192
 30
0.0
  0
VERTEX
  5
9E27
  8
0
 10
297.49400593862362
 20
345.39456304524708
 30
0.0
  0
VERTEX
  5
9E28
  8
0
 10
297.5634765124305
 20
345.39774446266432
 30
0.0
  0
VERTEX
  5
9E29
  8
0
 10
297.63273287615311
 20
345.4022735532904
 30
0.0
  0
VERTEX
  5
9E2A
  8
0
 10
297.70173103819411
 20
345.4081387450691
 30
0.0
  0
VERTEX
  5
9E2B
  8
0
 10
297.77042775375611
 20
345.41532661311078
 30
0.0
  0
VERTEX
  5
9E2C
  8
0
 10
297.80464970911379
 20
345.41941185286288
 30
0.0
  0
VERTEX
  5
9E2D
  8
0
 10
297.83878024019941
 20
345.42382188288877
 30
0.0
  0
VERTEX
  5
9E2E
  8
0
 10
297.90674540905047
 20
345.43360732049803
 30
0.0
  0
VERTEX
  5
9E2F
  8
0
 10
297.97427987139457
 20
345.44466366115819
 30
0.0
  0
VERTEX
  5
9E30
  8
0
 10
298.04134014945572
 20
345.45696957267381
 30
0.0
  0
VERTEX
  5
9E31
  8
0
 10
298.10788288423493
 20
345.47050163755932
 30
0.0
  0
VERTEX
  5
9E32
  8
0
 10
298.1738650385812
 20
345.48523435329849
 30
0.0
  0
VERTEX
  5
9E33
  8
0
 10
298.20663258597529
 20
345.49304241966013
 30
0.0
  0
VERTEX
  5
9E34
  8
0
 10
298.23924409591251
 20
345.50114015041038
 30
0.0
  0
VERTEX
  5
9E35
  8
0
 10
298.30397825495311
 20
345.51818942815692
 30
0.0
  0
VERTEX
  5
9E36
  8
0
 10
298.36802662097853
 20
345.5363506079014
 30
0.0
  0
VERTEX
  5
9E37
  8
0
 10
298.43135565813918
 20
345.55559217139478
 30
0.0
  0
VERTEX
  5
9E38
  8
0
 10
298.49439725058261
 20
345.5760365755815
 30
0.0
  0
VERTEX
  5
9E39
  8
0
 10
298.55739699025929
 20
345.5977769392133
 30
0.0
  0
VERTEX
  5
9E3A
  8
0
 10
298.58886521748042
 20
345.60913437700208
 30
0.0
  0
VERTEX
  5
9E3B
  8
0
 10
298.62030386781089
 20
345.62081706027891
 30
0.0
  0
VERTEX
  5
9E3C
  8
0
 10
298.68306712160989
 20
345.64515859248388
 30
0.0
  0
VERTEX
  5
9E3D
  8
0
 10
298.74563642811091
 20
345.67080109863713
 30
0.0
  0
VERTEX
  5
9E3E
  8
0
 10
298.80796208416092
 20
345.69774211988232
 30
0.0
  0
VERTEX
  5
9E3F
  8
0
 10
298.86999518184263
 20
345.72597726089742
 30
0.0
  0
VERTEX
  5
9E40
  8
0
 10
298.93168777621992
 20
345.755500291256
 30
0.0
  0
VERTEX
  5
9E41
  8
0
 10
298.96239170491521
 20
345.77074234479358
 30
0.0
  0
VERTEX
  5
9E42
  8
0
 10
298.99299304617898
 20
345.78630326323179
 30
0.0
  0
VERTEX
  5
9E43
  8
0
 10
299.05386544835568
 20
345.8183766463593
 30
0.0
  0
VERTEX
  5
9E44
  8
0
 10
299.1142608587088
 20
345.8517094761433
 30
0.0
  0
VERTEX
  5
9E45
  8
0
 10
299.14426626719342
 20
345.86884437229372
 30
0.0
  0
VERTEX
  5
9E46
  8
0
 10
299.17413639810019
 20
345.88628933722578
 30
0.0
  0
VERTEX
  5
9E47
  8
0
 10
299.23344973436042
 20
345.92210199612771
 30
0.0
  0
VERTEX
  5
9E48
  8
0
 10
299.29215901445491
 20
345.95913132473117
 30
0.0
  0
VERTEX
  5
9E49
  8
0
 10
299.32127422881422
 20
345.9780966983156
 30
0.0
  0
VERTEX
  5
9E4A
  8
0
 10
299.35022304035368
 20
345.99735936751142
 30
0.0
  0
VERTEX
  5
9E4B
  8
0
 10
299.4076014367302
 20
346.03676642288991
 30
0.0
  0
VERTEX
  5
9E4C
  8
0
 10
299.4642548085817
 20
346.07733113739039
 30
0.0
  0
VERTEX
  5
9E4D
  8
0
 10
299.52014488908623
 20
346.11903061261972
 30
0.0
  0
VERTEX
  5
9E4E
  8
0
 10
299.57523467792521
 20
346.16184052517713
 30
0.0
  0
VERTEX
  5
9E4F
  8
0
 10
299.62948857019319
 20
346.2057352596704
 30
0.0
  0
VERTEX
  5
9E50
  8
0
 10
299.65629133974522
 20
346.22808111279397
 30
0.0
  0
VERTEX
  5
9E51
  8
0
 10
299.68287247591712
 20
346.2506880550751
 30
0.0
  0
VERTEX
  5
9E52
  8
0
 10
299.73536028415521
 20
346.29667684320327
 30
0.0
  0
VERTEX
  5
9E53
  8
0
 10
299.7869303521361
 20
346.34368220704948
 30
0.0
  0
VERTEX
  5
9E54
  8
0
 10
299.83755148665301
 20
346.3916745223197
 30
0.0
  0
VERTEX
  5
9E55
  8
0
 10
299.88719324650259
 20
346.44062237688428
 30
0.0
  0
VERTEX
  5
9E56
  8
0
 10
299.93582623657579
 20
346.49049277654569
 30
0.0
  0
VERTEX
  5
9E57
  8
0
 10
299.95975558084962
 20
346.51576321332612
 30
0.0
  0
VERTEX
  5
9E58
  8
0
 10
299.98342226059498
 20
346.54125125087478
 30
0.0
  0
VERTEX
  5
9E59
  8
0
 10
300.02995446192432
 20
346.5928619699643
 30
0.0
  0
VERTEX
  5
9E5A
  8
0
 10
300.07539745270191
 20
346.64528787212532
 30
0.0
  0
VERTEX
  5
9E5B
  8
0
 10
300.11972743149551
 20
346.69849080268381
 30
0.0
  0
VERTEX
  5
9E5C
  8
0
 10
300.1629222896085
 20
346.75243166412582
 30
0.0
  0
VERTEX
  5
9E5D
  8
0
 10
300.20496170605747
 20
346.80707057789789
 30
0.0
  0
VERTEX
  5
9E5E
  8
0
 10
300.22554227338952
 20
346.83463915833778
 30
0.0
  0
VERTEX
  5
9E5F
  8
0
 10
300.24582714808389
 20
346.86236694353249
 30
0.0
  0
VERTEX
  5
9E60
  8
0
 10
300.28550144471637
 20
346.91827888402588
 30
0.0
  0
VERTEX
  5
9E61
  8
0
 10
300.32396861252892
 20
346.97476291466739
 30
0.0
  0
VERTEX
  5
9E62
  8
0
 10
300.36121401283481
 20
347.03177404253063
 30
0.0
  0
VERTEX
  5
9E63
  8
0
 10
300.39722450925888
 20
347.08926589617471
 30
0.0
  0
VERTEX
  5
9E64
  8
0
 10
300.43198860956159
 20
347.14719086423031
 30
0.0
  0
VERTEX
  5
9E65
  8
0
 10
300.44890015083803
 20
347.17630058465051
 30
0.0
  0
VERTEX
  5
9E66
  8
0
 10
300.4654965920854
 20
347.20550024276019
 30
0.0
  0
VERTEX
  5
9E67
  8
0
 10
300.49774061718273
 20
347.26414439147408
 30
0.0
  0
VERTEX
  5
9E68
  8
0
 10
300.5287148239413
 20
347.32307289909193
 30
0.0
  0
VERTEX
  5
9E69
  8
0
 10
300.55841541247628
 20
347.38223475834081
 30
0.0
  0
VERTEX
  5
9E6A
  8
0
 10
300.58691458934521
 20
347.44173653134618
 30
0.0
  0
VERTEX
  5
9E6B
  8
0
 10
300.61446905567709
 20
347.50212580243732
 30
0.0
  0
VERTEX
  5
9E6C
  8
0
 10
300.62788819400072
 20
347.53266254714219
 30
0.0
  0
VERTEX
  5
9E6D
  8
0
 10
300.64106129926398
 20
347.56342087623432
 30
0.0
  0
VERTEX
  5
9E6E
  8
0
 10
300.66664829594902
 20
347.62558227063653
 30
0.0
  0
VERTEX
  5
9E6F
  8
0
 10
300.69118919575521
 20
347.68856913549251
 30
0.0
  0
VERTEX
  5
9E70
  8
0
 10
300.70305521258911
 20
347.72035903136691
 30
0.0
  0
VERTEX
  5
9E71
  8
0
 10
300.71464542025802
 20
347.75233946363562
 30
0.0
  0
VERTEX
  5
9E72
  8
0
 10
300.73698073985861
 20
347.81685030990189
 30
0.0
  0
VERTEX
  5
9E73
  8
0
 10
300.7581613311018
 20
347.88205801903422
 30
0.0
  0
VERTEX
  5
9E74
  8
0
 10
300.76830870126861
 20
347.91490941899599
 30
0.0
  0
VERTEX
  5
9E75
  8
0
 10
300.77815581390308
 20
347.94791846324767
 30
0.0
  0
VERTEX
  5
9E76
  8
0
 10
300.79693526828709
 20
348.0143872900768
 30
0.0
  0
VERTEX
  5
9E77
  8
0
 10
300.81447321478799
 20
348.08142012043561
 30
0.0
  0
VERTEX
  5
9E78
  8
0
 10
300.8307454132709
 20
348.14897203296329
 30
0.0
  0
VERTEX
  5
9E79
  8
0
 10
300.8457297084542
 20
348.21699693123981
 30
0.0
  0
VERTEX
  5
9E7A
  8
0
 10
300.85940610338372
 20
348.28544767011653
 30
0.0
  0
VERTEX
  5
9E7B
  8
0
 10
300.86574819918269
 20
348.3198177635785
 30
0.0
  0
VERTEX
  5
9E7C
  8
0
 10
300.87175683823131
 20
348.35427627296752
 30
0.0
  0
VERTEX
  5
9E7D
  8
0
 10
300.88276644878238
 20
348.42343415127232
 30
0.0
  0
VERTEX
  5
9E7E
  8
0
 10
300.89242180491959
 20
348.49287232719809
 30
0.0
  0
VERTEX
  5
9E7F
  8
0
 10
300.90071212920412
 20
348.5625416598408
 30
0.0
  0
VERTEX
  5
9E80
  8
0
 10
300.90762899545371
 20
348.63239307574401
 30
0.0
  0
VERTEX
  5
9E81
  8
0
 10
300.9131663409612
 20
348.70237829477662
 30
0.0
  0
VERTEX
  5
9E82
  8
0
 10
300.9154166781446
 20
348.7374105710399
 30
0.0
  0
VERTEX
  5
9E83
  8
0
 10
300.91732103193362
 20
348.77246336653491
 30
0.0
  0
VERTEX
  5
9E84
  8
0
 10
300.92009074682568
 20
348.84260560902533
 30
0.0
  0
VERTEX
  5
9E85
  8
0
 10
300.92147484680072
 20
348.91275510268781
 30
0.0
  0
VERTEX
  5
9E86
  8
0
 10
300.92164772606611
 20
348.94781695913628
 30
0.0
  0
SEQEND
  5
9E87
  8
0
  0
POLYLINE
  5
8ACF
  8
0
 66
     1
 10
0.0
 20
0.0
 30
0.0
  0
VERTEX
  5
9E88
  8
0
 10
300.92164772606611
 20
438.64093006291989
 30
0.0
  0
VERTEX
  5
9E89
  8
0
 10
300.92147484680072
 20
438.6759919193683
 30
0.0
  0
VERTEX
  5
9E8A
  8
0
 10
300.92009074682568
 20
438.74614141303078
 30
0.0
  0
VERTEX
  5
9E8B
  8
0
 10
300.91732103193362
 20
438.8162836555212
 30
0.0
  0
VERTEX
  5
9E8C
  8
0
 10
300.91541667814431
 20
438.85133645101592
 30
0.0
  0
VERTEX
  5
9E8D
  8
0
 10
300.9131663409612
 20
438.88636872727932
 30
0.0
  0
VERTEX
  5
9E8E
  8
0
 10
300.90762899545371
 20
438.95635394631211
 30
0.0
  0
VERTEX
  5
9E8F
  8
0
 10
300.90071212920412
 20
439.02620536221559
 30
0.0
  0
VERTEX
  5
9E90
  8
0
 10
300.89242180491959
 20
439.0958746948582
 30
0.0
  0
VERTEX
  5
9E91
  8
0
 10
300.88276644878238
 20
439.16531287078362
 30
0.0
  0
VERTEX
  5
9E92
  8
0
 10
300.87175683823131
 20
439.23447074908847
 30
0.0
  0
VERTEX
  5
9E93
  8
0
 10
300.86574819918269
 20
439.2689292584779
 30
0.0
  0
VERTEX
  5
9E94
  8
0
 10
300.85940610338372
 20
439.3032993519397
 30
0.0
  0
VERTEX
  5
9E95
  8
0
 10
300.8457297084542
 20
439.37175009081608
 30
0.0
  0
VERTEX
  5
9E96
  8
0
 10
300.8307454132709
 20
439.43977498909283
 30
0.0
  0
VERTEX
  5
9E97
  8
0
 10
300.81447321478799
 20
439.50732690162067
 30
0.0
  0
VERTEX
  5
9E98
  8
0
 10
300.79693526828709
 20
439.57435973197943
 30
0.0
  0
VERTEX
  5
9E99
  8
0
 10
300.77815581390308
 20
439.64082855880832
 30
0.0
  0
VERTEX
  5
9E9A
  8
0
 10
300.76830870126861
 20
439.67383760306041
 30
0.0
  0
VERTEX
  5
9E9B
  8
0
 10
300.7581613311018
 20
439.70668900302189
 30
0.0
  0
VERTEX
  5
9E9C
  8
0
 10
300.73698073985861
 20
439.77189671215422
 30
0.0
  0
VERTEX
  5
9E9D
  8
0
 10
300.71464542025802
 20
439.83640755842049
 30
0.0
  0
VERTEX
  5
9E9E
  8
0
 10
300.70305521258911
 20
439.86838799068897
 30
0.0
  0
VERTEX
  5
9E9F
  8
0
 10
300.69118919575521
 20
439.90017788656371
 30
0.0
  0
VERTEX
  5
9EA0
  8
0
 10
300.66664829594902
 20
439.96316475141981
 30
0.0
  0
VERTEX
  5
9EA1
  8
0
 10
300.64106129926398
 20
440.02532614582202
 30
0.0
  0
VERTEX
  5
9EA2
  8
0
 10
300.62788819400072
 20
440.05608447491392
 30
0.0
  0
VERTEX
  5
9EA3
  8
0
 10
300.61446905567709
 20
440.08662121961891
 30
0.0
  0
VERTEX
  5
9EA4
  8
0
 10
300.58691458934521
 20
440.14701049070987
 30
0.0
  0
VERTEX
  5
9EA5
  8
0
 10
300.55841541247628
 20
440.20651226371513
 30
0.0
  0
VERTEX
  5
9EA6
  8
0
 10
300.5287148239413
 20
440.26567412296453
 30
0.0
  0
VERTEX
  5
9EA7
  8
0
 10
300.49774061718239
 20
440.32460263058198
 30
0.0
  0
VERTEX
  5
9EA8
  8
0
 10
300.4654965920854
 20
440.38324677929592
 30
0.0
  0
VERTEX
  5
9EA9
  8
0
 10
300.44890015083803
 20
440.41244643740549
 30
0.0
  0
VERTEX
  5
9EAA
  8
0
 10
300.43198860956159
 20
440.4415561578258
 30
0.0
  0
VERTEX
  5
9EAB
  8
0
 10
300.39722450925888
 20
440.49948112588169
 30
0.0
  0
VERTEX
  5
9EAC
  8
0
 10
300.36121401283481
 20
440.55697297952531
 30
0.0
  0
VERTEX
  5
9EAD
  8
0
 10
300.32396861252892
 20
440.61398410738872
 30
0.0
  0
VERTEX
  5
9EAE
  8
0
 10
300.28550144471637
 20
440.67046813803017
 30
0.0
  0
VERTEX
  5
9EAF
  8
0
 10
300.24582714808389
 20
440.72638007852362
 30
0.0
  0
VERTEX
  5
9EB0
  8
0
 10
300.22554227338952
 20
440.75410786371827
 30
0.0
  0
VERTEX
  5
9EB1
  8
0
 10
300.20496170605747
 20
440.78167644415828
 30
0.0
  0
VERTEX
  5
9EB2
  8
0
 10
300.16292228960828
 20
440.8363153579304
 30
0.0
  0
VERTEX
  5
9EB3
  8
0
 10
300.11972743149551
 20
440.89025621937259
 30
0.0
  0
VERTEX
  5
9EB4
  8
0
 10
300.07539745270191
 20
440.94345914993079
 30
0.0
  0
VERTEX
  5
9EB5
  8
0
 10
300.02995446192432
 20
440.99588505209209
 30
0.0
  0
VERTEX
  5
9EB6
  8
0
 10
299.98342226059498
 20
441.04749577118127
 30
0.0
  0
VERTEX
  5
9EB7
  8
0
 10
299.95975558084962
 20
441.07298380872999
 30
0.0
  0
VERTEX
  5
9EB8
  8
0
 10
299.93582623657579
 20
441.09825424551042
 30
0.0
  0
VERTEX
  5
9EB9
  8
0
 10
299.88719324650259
 20
441.14812464517178
 30
0.0
  0
VERTEX
  5
9EBA
  8
0
 10
299.83755148665301
 20
441.19707249973641
 30
0.0
  0
VERTEX
  5
9EBB
  8
0
 10
299.7869303521361
 20
441.24506481500657
 30
0.0
  0
VERTEX
  5
9EBC
  8
0
 10
299.73536028415521
 20
441.29207017885261
 30
0.0
  0
VERTEX
  5
9EBD
  8
0
 10
299.68287247591712
 20
441.33805896698101
 30
0.0
  0
VERTEX
  5
9EBE
  8
0
 10
299.65629133974522
 20
441.36066590926208
 30
0.0
  0
VERTEX
  5
9EBF
  8
0
 10
299.62948857019319
 20
441.38301176238582
 30
0.0
  0
VERTEX
  5
9EC0
  8
0
 10
299.57523467792521
 20
441.42690649687898
 30
0.0
  0
VERTEX
  5
9EC1
  8
0
 10
299.52014488908623
 20
441.4697164094365
 30
0.0
  0
VERTEX
  5
9EC2
  8
0
 10
299.4642548085817
 20
441.51141588466601
 30
0.0
  0
VERTEX
  5
9EC3
  8
0
 10
299.4076014367302
 20
441.55198059916631
 30
0.0
  0
VERTEX
  5
9EC4
  8
0
 10
299.35022304035368
 20
441.59138765454469
 30
0.0
  0
VERTEX
  5
9EC5
  8
0
 10
299.32127422881422
 20
441.61065032374069
 30
0.0
  0
VERTEX
  5
9EC6
  8
0
 10
299.29215901445491
 20
441.62961569732499
 30
0.0
  0
VERTEX
  5
9EC7
  8
0
 10
299.23344973436042
 20
441.66664502592857
 30
0.0
  0
VERTEX
  5
9EC8
  8
0
 10
299.17413639810019
 20
441.70245768483028
 30
0.0
  0
VERTEX
  5
9EC9
  8
0
 10
299.14426626719342
 20
441.7199026497625
 30
0.0
  0
VERTEX
  5
9ECA
  8
0
 10
299.1142608587088
 20
441.7370375459127
 30
0.0
  0
VERTEX
  5
9ECB
  8
0
 10
299.05386544835568
 20
441.7703703756971
 30
0.0
  0
VERTEX
  5
9ECC
  8
0
 10
298.99299304617898
 20
441.80244375882421
 30
0.0
  0
VERTEX
  5
9ECD
  8
0
 10
298.96239170491521
 20
441.81800467726271
 30
0.0
  0
VERTEX
  5
9ECE
  8
0
 10
298.93168777621992
 20
441.83324673080011
 30
0.0
  0
VERTEX
  5
9ECF
  8
0
 10
298.86999518184263
 20
441.86276976115869
 30
0.0
  0
VERTEX
  5
9ED0
  8
0
 10
298.80796208416092
 20
441.8910049021739
 30
0.0
  0
VERTEX
  5
9ED1
  8
0
 10
298.74563642811091
 20
441.91794592341932
 30
0.0
  0
VERTEX
  5
9ED2
  8
0
 10
298.68306712160989
 20
441.94358842957217
 30
0.0
  0
VERTEX
  5
9ED3
  8
0
 10
298.62030386781089
 20
441.96792996177749
 30
0.0
  0
VERTEX
  5
9ED4
  8
0
 10
298.58886521748042
 20
441.97961264505432
 30
0.0
  0
VERTEX
  5
9ED5
  8
0
 10
298.55739699025929
 20
441.99097008284258
 30
0.0
  0
VERTEX
  5
9ED6
  8
0
 10
298.49439725058261
 20
442.01271044647461
 30
0.0
  0
VERTEX
  5
9ED7
  8
0
 10
298.43135565813918
 20
442.03315485066111
 30
0.0
  0
VERTEX
  5
9ED8
  8
0
 10
298.36802662097853
 20
442.05239641415488
 30
0.0
  0
VERTEX
  5
9ED9
  8
0
 10
298.30397825495311
 20
442.0705575938992
 30
0.0
  0
VERTEX
  5
9EDA
  8
0
 10
298.23924409591251
 20
442.08760687164579
 30
0.0
  0
VERTEX
  5
9EDB
  8
0
 10
298.20663258597529
 20
442.09570460239598
 30
0.0
  0
VERTEX
  5
9EDC
  8
0
 10
298.1738650385812
 20
442.10351266875762
 30
0.0
  0
VERTEX
  5
9EDD
  8
0
 10
298.10788288423493
 20
442.11824538449679
 30
0.0
  0
VERTEX
  5
9EDE
  8
0
 10
298.04134014945572
 20
442.1317774493823
 30
0.0
  0
VERTEX
  5
9EDF
  8
0
 10
297.97427987139457
 20
442.14408336089821
 30
0.0
  0
VERTEX
  5
9EE0
  8
0
 10
297.90674540905047
 20
442.15513970155831
 30
0.0
  0
VERTEX
  5
9EE1
  8
0
 10
297.83878024019941
 20
442.16492513916739
 30
0.0
  0
VERTEX
  5
9EE2
  8
0
 10
297.80464970911379
 20
442.1693351691934
 30
0.0
  0
VERTEX
  5
9EE3
  8
0
 10
297.77042775375611
 20
442.17342040894528
 30
0.0
  0
VERTEX
  5
9EE4
  8
0
 10
297.70173103819411
 20
442.18060827698719
 30
0.0
  0
VERTEX
  5
9EE5
  8
0
 10
297.63273287615311
 20
442.18647346876571
 30
0.0
  0
VERTEX
  5
9EE6
  8
0
 10
297.56347651243033
 20
442.19100255939162
 30
0.0
  0
VERTEX
  5
9EE7
  8
0
 10
297.49400593862362
 20
442.19418397680931
 30
0.0
  0
VERTEX
  5
9EE8
  8
0
 10
297.42436571693338
 20
442.19600805115448
 30
0.0
  0
VERTEX
  5
9EE9
  8
0
 10
297.3894960232044
 20
442.19640859165838
 30
0.0
  0
VERTEX
  5
9EEA
  8
0
 10
297.35460079070032
 20
442.19646704864101
 30
0.0
  0
VERTEX
  5
9EEB
  8
0
 10
297.28475629555669
 20
442.19555518859579
 30
0.0
  0
VERTEX
  5
9EEC
  8
0
 10
297.21487737091911
 20
442.1932686437741
 30
0.0
  0
VERTEX
  5
9EED
  8
0
 10
297.1450089715741
 20
442.18960552395998
 30
0.0
  0
VERTEX
  5
9EEE
  8
0
 10
297.07519567916188
 20
442.18456584273201
 30
0.0
  0
VERTEX
  5
9EEF
  8
0
 10
297.00548151341258
 20
442.17815146716208
 30
0.0
  0
VERTEX
  5
9EF0
  8
0
 10
296.97067476379561
 20
442.17442979874937
 30
0.0
  0
VERTEX
  5
9EF1
  8
0
 10
296.9359044038215
 20
442.17036539934873
 30
0.0
  0
VERTEX
  5
9EF2
  8
0
 10
296.86649099477648
 20
442.16121044576551
 30
0.0
  0
VERTEX
  5
9EF3
  8
0
 10
296.7972834352135
 20
442.1506924382511
 30
0.0
  0
VERTEX
  5
9EF4
  8
0
 10
296.76277045493629
 20
442.14492467138598
 30
0.0
  0
VERTEX
  5
9EF5
  8
0
 10
296.72832528303888
 20
442.13881924153708
 30
0.0
  0
VERTEX
  5
9EF6
  8
0
 10
296.65966018858722
 20
442.12560065905342
 30
0.0
  0
VERTEX
  5
9EF7
  8
0
 10
296.59133170097948
 20
442.11104843604392
 30
0.0
  0
VERTEX
  5
9EF8
  8
0
 10
296.55730721929689
 20
442.10327640771732
 30
0.0
  0
VERTEX
  5
9EF9
  8
0
 10
296.5233830779448
 20
442.09517624609049
 30
0.0
  0
VERTEX
  5
9EFA
  8
0
 10
296.45585709892339
 20
442.07799966115232
 30
0.0
  0
VERTEX
  5
9EFB
  8
0
 10
296.38879588122791
 20
442.05953610509511
 30
0.0
  0
VERTEX
  5
9EFC
  8
0
 10
296.32224069905442
 20
442.03980479055832
 30
0.0
  0
VERTEX
  5
9EFD
  8
0
 10
296.25623180511087
 20
442.01882663889103
 30
0.0
  0
VERTEX
  5
9EFE
  8
0
 10
296.19080833417178
 20
441.99662421058622
 30
0.0
  0
VERTEX
  5
9EFF
  8
0
 10
296.15832819766092
 20
441.98507143172128
 30
0.0
  0
VERTEX
  5
9F00
  8
0
 10
296.12600889452779
 20
441.9732218834647
 30
0.0
  0
VERTEX
  5
9F01
  8
0
 10
296.06187205393371
 20
441.9486460719146
 30
0.0
  0
VERTEX
  5
9F02
  8
0
 10
295.99843617326587
 20
441.92292524601231
 30
0.0
  0
VERTEX
  5
9F03
  8
0
 10
295.93573919315168
 20
441.89608991595389
 30
0.0
  0
VERTEX
  5
9F04
  8
0
 10
295.87381842873128
 20
441.86817259924061
 30
0.0
  0
VERTEX
  5
9F05
  8
0
 10
295.81271037235638
 20
441.8392077709691
 30
0.0
  0
VERTEX
  5
9F06
  8
0
 10
295.78247224174271
 20
441.82434383273551
 30
0.0
  0
VERTEX
  5
9F07
  8
0
 10
295.75245050394233
 20
441.80923179737567
 30
0.0
  0
VERTEX
  5
9F08
  8
0
 10
295.69307310857261
 20
441.77828285261933
 30
0.0
  0
VERTEX
  5
9F09
  8
0
 10
295.63461110089793
 20
441.74640081857262
 30
0.0
  0
VERTEX
  5
9F0A
  8
0
 10
295.60573323675499
 20
441.7301227945228
 30
0.0
  0
SEQEND
  5
9F0B
  8
0
  0
ARC
  5
8AD0
  8
0
 10
322.92164772606611
 20
393.79437351102808
 30
0.0
 40
55.172413793103452
 50
119.6764073220503
 51
240.3235926779497
  0
LINE
  5
8AD1
  8
1
 10
322.92164772606611
 20
303.79437351102808
 30
0.0
 11
322.92164772606611
 21
483.79437351102808
 31
0.0
  0
LINE
  5
8AD2
  8
1
 10
232.92164772606611
 20
393.79437351102808
 30
0.0
 11
412.921647726066
 21
393.79437351102808
 31
0.0
  0
LINE
  5
8AD3
  8
1
 10
82.198364048456824
 20
458.79437351102808
 30
0.0
 11
185.1983640484568
 21
458.79437351102808
 31
0.0
  0
LINE
  5
8AD4
  8
0
 10
49.898364048457097
 20
380.79437351102808
 30
0.0
 11
49.698364048456831
 21
380.79437351102808
 31
0.0
  0
LINE
  5
8AD5
  8
0
 10
49.698364048456831
 20
406.79437351102803
 30
0.0
 11
49.898364048457097
 21
406.79437351102803
 31
0.0
  0
ARC
  5
8AD6
  8
0
 10
50.398364048457097
 20
413.29437351102808
 30
0.0
 40
0.5000000000000017
 50
90.0
 51
180.0
  0
ARC
  5
8AD7
  8
0
 10
50.398364048457097
 20
374.29437351102808
 30
0.0
 40
0.5
 50
180.0
 51
270.0
  0
LINE
  5
8AD8
  8
0
 10
53.198364048456817
 20
373.79437351102808
 30
0.0
 11
50.398364048457097
 21
373.79437351102808
 31
0.0
  0
LINE
  5
8AD9
  8
0
 10
50.398364048457097
 20
413.79437351102808
 30
0.0
 11
53.198364048456817
 21
413.79437351102808
 31
0.0
  0
ARC
  5
8ADA
  8
0
 10
84.031697381790295
 20
465.461040177695
 30
0.0
 40
8.3333333333333002
 50
90.0
 51
180.0
  0
ARC
  5
8ADB
  8
0
 10
84.031697381790295
 20
322.12770684436163
 30
0.0
 40
8.3333333333333002
 50
180.0
 51
270.0
  0
LINE
  5
8ADC
  8
0
 10
89.073718275438736
 20
313.79437351102808
 30
0.0
 11
84.031697381790295
 21
313.79437351102808
 31
0.0
  0
LINE
  5
8ADD
  8
0
 10
84.031697381790295
 20
473.79437351102803
 30
0.0
 11
89.073718275438736
 21
473.79437351102803
 31
0.0
  0
ARC
  5
8ADE
  8
0
 10
89.073718275438736
 20
448.79437351102757
 30
0.0
 40
25.000000000000341
 50
75.000000000005542
 51
90.0
  0
ARC
  5
8ADF
  8
0
 10
89.073718275438736
 20
338.79437351102848
 30
0.0
 40
25.000000000000501
 50
270.0
 51
284.99999999999449
  0
LINE
  5
8AE0
  8
0
 10
98.845411661213348
 20
315.53078635217901
 30
0.0
 11
95.544194403001697
 21
314.64622785380158
 31
0.0
  0
LINE
  5
8AE1
  8
0
 10
95.544194403001697
 20
472.94251916825488
 30
0.0
 11
98.845411661213348
 21
472.0579606698771
 31
0.0
  0
ARC
  5
8AE2
  8
0
 10
98.198364048456824
 20
469.64314610415482
 30
0.0
 40
2.49999999999998
 50
0.000000000000007
 51
75.000000000005542
  0
ARC
  5
8AE3
  8
0
 10
98.198364048456824
 20
317.9456009179018
 30
0.0
 40
2.5000000000000071
 50
284.99999999999449
 51
0.000000000000007
  0
LINE
  5
8AE4
  8
0
 10
75.698364048456824
 20
338.83618952058657
 30
0.0
 11
53.198364048456817
 21
373.79437351102808
 31
0.0
  0
LINE
  5
8AE5
  8
0
 10
53.198364048456817
 20
413.79437351102808
 30
0.0
 11
75.698364048456824
 21
448.75255750146971
 31
0.0
  0
LINE
  5
8AE6
  8
0
 10
49.698364048456831
 20
406.79437351102803
 30
0.0
 11
49.698364048456831
 21
380.79437351102808
 31
0.0
  0
LINE
  5
8AE7
  8
0
 10
49.898364048457097
 20
413.29437351102808
 30
0.0
 11
49.898364048457097
 21
374.29437351102808
 31
0.0
  0
LINE
  5
8AE8
  8
0
 10
75.698364048456824
 20
465.461040177695
 30
0.0
 11
75.698364048456824
 21
322.12770684436163
 31
0.0
  0
LINE
  5
8AE9
  8
0
 10
100.6983640484568
 20
469.64314610415482
 30
0.0
 11
100.6983640484568
 21
317.9456009179018
 31
0.0
  0
LINE
  5
8AEA
  8
0
 10
53.198364048456817
 20
413.79437351102808
 30
0.0
 11
53.198364048456817
 21
373.79437351102808
 31
0.0
  0
POLYLINE
  5
8AEB
  8
0
 66
     1
 10
0.0
 20
0.0
 30
0.0
  0
VERTEX
  5
9F0C
  8
0
 10
75.698364048456824
 20
444.28708213296449
 30
0.0
  0
VERTEX
  5
9F0D
  8
0
 10
70.397334429327657
 20
433.42947898886092
 30
0.0
  0
VERTEX
  5
9F0E
  8
0
 10
66.501039388317622
 20
425.0913821919267
 30
0.0
  0
VERTEX
  5
9F0F
  8
0
 10
63.70697173589997
 20
418.63436701189949
 30
0.0
  0
VERTEX
  5
9F10
  8
0
 10
62.606045135251406
 20
415.89284745137832
 30
0.0
  0
VERTEX
  5
9F11
  8
0
 10
61.661377640063158
 20
413.39787229933341
 30
0.0
  0
VERTEX
  5
9F12
  8
0
 10
60.15592867573605
 20
408.98159954860108
 30
0.0
  0
VERTEX
  5
9F13
  8
0
 10
59.062030895427597
 20
405.12514971683549
 30
0.0
  0
VERTEX
  5
9F14
  8
0
 10
58.298397237678273
 20
401.64768836021278
 30
0.0
  0
VERTEX
  5
9F15
  8
0
 10
57.984223892661703
 20
399.73951663542869
 30
0.0
  0
VERTEX
  5
9F16
  8
0
 10
57.910859211714516
 20
399.20640087612321
 30
0.0
  0
VERTEX
  5
9F17
  8
0
 10
57.844541776450569
 20
398.67776400402738
 30
0.0
  0
VERTEX
  5
9F18
  8
0
 10
57.813990788786668
 20
398.41498006609987
 30
0.0
  0
VERTEX
  5
9F19
  8
0
 10
57.78516118171229
 20
398.153143198686
 30
0.0
  0
VERTEX
  5
9F1A
  8
0
 10
57.732619322243863
 20
397.63208683003779
 30
0.0
  0
VERTEX
  5
9F1B
  8
0
 10
57.686829981502342
 20
397.11415311330683
 30
0.0
  0
VERTEX
  5
9F1C
  8
0
 10
57.647718473779612
 20
396.59890882175438
 30
0.0
  0
VERTEX
  5
9F1D
  8
0
 10
57.615221336842751
 20
396.08592804920278
 30
0.0
  0
VERTEX
  5
9F1E
  8
0
 10
57.58928607270218
 20
395.574791014749
 30
0.0
  0
VERTEX
  5
9F1F
  8
0
 10
57.578765681984351
 20
395.31978410651362
 30
0.0
  0
VERTEX
  5
9F20
  8
0
 10
57.569870934519251
 20
395.06508290249411
 30
0.0
  0
VERTEX
  5
9F21
  8
0
 10
57.556944758027377
 20
394.55639272947531
 30
0.0
  0
VERTEX
  5
9F22
  8
0
 10
57.550486836197699
 20
394.04831223524951
 30
0.0
  0
VERTEX
  5
9F23
  8
0
 10
57.549679837943131
 20
393.7943735110249
 30
0.0
  0
VERTEX
  5
9F24
  8
0
 10
57.550486836197699
 20
393.5404347868008
 30
0.0
  0
VERTEX
  5
9F25
  8
0
 10
57.556944758027832
 20
393.03235429257501
 30
0.0
  0
VERTEX
  5
9F26
  8
0
 10
57.569870934520168
 20
392.52366411955569
 30
0.0
  0
VERTEX
  5
9F27
  8
0
 10
57.578765681985722
 20
392.26896291553669
 30
0.0
  0
VERTEX
  5
9F28
  8
0
 10
57.589286072703537
 20
392.01395600730132
 30
0.0
  0
VERTEX
  5
9F29
  8
0
 10
57.61522133684457
 20
391.50281897284742
 30
0.0
  0
VERTEX
  5
9F2A
  8
0
 10
57.647718473781417
 20
390.98983820029582
 30
0.0
  0
VERTEX
  5
9F2B
  8
0
 10
57.686829981504609
 20
390.47459390874309
 30
0.0
  0
VERTEX
  5
9F2C
  8
0
 10
57.732619322246592
 20
389.95666019201201
 30
0.0
  0
VERTEX
  5
9F2D
  8
0
 10
57.785161181715011
 20
389.43560382336381
 30
0.0
  0
VERTEX
  5
9F2E
  8
0
 10
57.813990788789852
 20
389.17376695594987
 30
0.0
  0
VERTEX
  5
9F2F
  8
0
 10
57.844541776454207
 20
388.91098301802242
 30
0.0
  0
VERTEX
  5
9F30
  8
0
 10
57.910859211718162
 20
388.38234614592608
 30
0.0
  0
VERTEX
  5
9F31
  8
0
 10
57.984223892665803
 20
387.84923038662112
 30
0.0
  0
VERTEX
  5
9F32
  8
0
 10
58.298397237683268
 20
385.94105866183611
 30
0.0
  0
VERTEX
  5
9F33
  8
0
 10
59.062030895434873
 20
382.46359730521192
 30
0.0
  0
VERTEX
  5
9F34
  8
0
 10
60.155928675745152
 20
378.60714747344502
 30
0.0
  0
VERTEX
  5
9F35
  8
0
 10
61.661377640073162
 20
374.19087472271133
 30
0.0
  0
VERTEX
  5
9F36
  8
0
 10
62.606045135261859
 20
371.69589957066597
 30
0.0
  0
VERTEX
  5
9F37
  8
0
 10
63.706971735910429
 20
368.95438001014469
 30
0.0
  0
VERTEX
  5
9F38
  8
0
 10
66.501039388327172
 20
362.4973648301185
 30
0.0
  0
VERTEX
  5
9F39
  8
0
 10
70.397334429332204
 20
354.15926803318928
 30
0.0
  0
VERTEX
  5
9F3A
  8
0
 10
75.698364048456824
 20
343.30166488908799
 30
0.0
  0
SEQEND
  5
9F3B
  8
0
  0
LINE
  5
8AEC
  8
1
 10
110.6983640484568
 20
393.79437351102831
 30
0.0
 11
39.698364048456831
 21
393.79437351102808
 31
0.0
  0
LINE
  5
8AFA
  8
1
 10
322.92164772606611
 20
107.05469671333719
 30
0.0
 11
322.92164772606611
 21
252.55469671333719
 31
0.0
  0
LINE
  5
8AFB
  8
2
 10
329.92164772606611
 20
144.05469671333719
 30
0.0
 11
329.92164772606588
 21
117.05469671333719
 31
0.0
  0
LINE
  5
8AFC
  8
2
 10
315.92164772606611
 20
117.05469671333719
 30
0.0
 11
315.92164772606611
 21
144.05469671333719
 31
0.0
  0
LINE
  5
8AFD
  8
0
 10
335.92164772606611
 20
117.2546967133372
 30
0.0
 11
335.92164772606611
 21
117.05469671333719
 31
0.0
  0
LINE
  5
8AFE
  8
0
 10
309.92164772606611
 20
117.05469671333719
 30
0.0
 11
309.92164772606611
 21
117.2546967133372
 31
0.0
  0
ARC
  5
8AFF
  8
0
 10
303.42164772606611
 20
117.7546967133372
 30
0.0
 40
0.5000000000000017
 50
180.0
 51
270.0
  0
ARC
  5
8B00
  8
0
 10
342.42164772606611
 20
117.7546967133372
 30
0.0
 40
0.5
 50
270.0
 51
0.0
  0
LINE
  5
8B01
  8
0
 10
342.92164772606611
 20
120.55469671333719
 30
0.0
 11
342.92164772606611
 21
117.7546967133372
 31
0.0
  0
LINE
  5
8B02
  8
0
 10
302.92164772606611
 20
117.7546967133372
 30
0.0
 11
302.92164772606611
 21
120.55469671333719
 31
0.0
  0
ARC
  5
8B03
  8
0
 10
251.2549810593996
 20
151.38803004667059
 30
0.0
 40
8.3333333333333073
 50
180.0
 51
270.0
  0
ARC
  5
8B04
  8
0
 10
394.5883143927328
 20
151.38803004667059
 30
0.0
 40
8.3333333333332842
 50
270.0
 51
0.0
  0
LINE
  5
8B05
  8
0
 10
402.92164772606611
 20
156.43005094031909
 30
0.0
 11
402.92164772606611
 21
151.38803004667059
 31
0.0
  0
LINE
  5
8B06
  8
0
 10
242.92164772606611
 20
151.38803004667059
 30
0.0
 11
242.92164772606611
 21
156.43005094031909
 31
0.0
  0
ARC
  5
8B07
  8
0
 10
267.92164772606662
 20
156.43005094031909
 30
0.0
 40
25.000000000000291
 50
165.00000000000551
 51
180.0
  0
ARC
  5
8B08
  8
0
 10
377.92164772606571
 20
156.43005094031889
 30
0.0
 40
25.000000000000501
 50
0.0
 51
14.99999999999447
  0
LINE
  5
8B09
  8
0
 10
401.18523488491542
 20
166.20174432609349
 30
0.0
 11
402.06979338329268
 21
162.90052706788211
 31
0.0
  0
LINE
  5
8B0A
  8
0
 10
243.77350206883921
 20
162.90052706788211
 30
0.0
 11
244.65806056721709
 21
166.20174432609349
 31
0.0
  0
ARC
  5
8B0B
  8
0
 10
247.07287513293929
 20
165.55469671333719
 30
0.0
 40
2.500000000000012
 50
90.0
 51
165.00000000000551
  0
ARC
  5
8B0C
  8
0
 10
398.77042031919268
 20
165.55469671333719
 30
0.0
 40
2.5
 50
14.99999999999447
 51
90.0
  0
ARC
  5
8B0D
  8
0
 10
266.67783413003639
 20
138.05469671333691
 30
0.0
 40
5.0000000000003508
 50
77.626712386179122
 51
90.0
  0
ARC
  5
8B0E
  8
0
 10
379.16546132209561
 20
138.05469671333671
 30
0.0
 40
5.0000000000005187
 50
90.0
 51
102.37328761382081
  0
LINE
  5
8B0F
  8
2
 10
307.42164772606628
 20
144.05469671333719
 30
0.0
 11
338.42164772606611
 21
144.05469671333719
 31
0.0
  0
LINE
  5
8B10
  8
2
 10
334.9216477260664
 20
142.05083995157281
 30
0.0
 11
335.92164772606628
 21
142.05065352200111
 31
0.0
  0
LINE
  5
8B11
  8
0
 10
309.92164772606611
 20
117.05469671333719
 30
0.0
 11
335.92164772606611
 21
117.05469671333719
 31
0.0
  0
LINE
  5
8B12
  8
2
 10
307.42164772606611
 20
147.05469671333719
 30
0.0
 11
338.42164772606611
 21
147.05469671333719
 31
0.0
  0
LINE
  5
8B13
  8
0
 10
303.42164772606611
 20
117.2546967133372
 30
0.0
 11
342.42164772606611
 21
117.2546967133372
 31
0.0
  0
LINE
  5
8B14
  8
0
 10
251.2549810593996
 20
143.05469671333719
 30
0.0
 11
394.5883143927328
 21
143.05469671333719
 31
0.0
  0
LINE
  5
8B15
  8
0
 10
247.07287513293929
 20
168.05469671333719
 30
0.0
 11
398.77042031919268
 21
168.05469671333719
 31
0.0
  0
LINE
  5
8B17
  8
0
 10
296.60573323675499
 20
142.93855814280991
 30
0.0
 11
267.7492339329628
 21
142.93855814280991
 31
0.0
  0
POLYLINE
  5
8B18
  8
0
 66
     1
 10
0.0
 20
0.0
 30
0.0
  0
VERTEX
  5
9F3C
  8
0
 10
301.92164772606611
 20
140.2980644290131
 30
0.0
  0
VERTEX
  5
9F3D
  8
0
 10
301.919697874566
 20
140.35675702377071
 30
0.0
  0
VERTEX
  5
9F3E
  8
0
 10
301.90418444973398
 20
140.47640818749949
 30
0.0
  0
VERTEX
  5
9F3F
  8
0
 10
301.8734732214084
 20
140.59837219886219
 30
0.0
  0
VERTEX
  5
9F40
  8
0
 10
301.85257851725891
 20
140.65992738773281
 30
0.0
  0
VERTEX
  5
9F41
  8
0
 10
301.82810583154679
 20
140.7217015501875
 30
0.0
  0
VERTEX
  5
9F42
  8
0
 10
301.76885610431481
 20
140.84541475189681
 30
0.0
  0
VERTEX
  5
9F43
  8
0
 10
301.69672500460302
 20
140.9685243641992
 30
0.0
  0
VERTEX
  5
9F44
  8
0
 10
301.6129548537192
 20
141.090021861558
 30
0.0
  0
VERTEX
  5
9F45
  8
0
 10
301.51834874183783
 20
141.2097056583446
 30
0.0
  0
VERTEX
  5
9F46
  8
0
 10
301.41016299537569
 20
141.33106922081481
 30
0.0
  0
VERTEX
  5
9F47
  8
0
 10
301.35081500153979
 20
141.39234490322599
 30
0.0
  0
VERTEX
  5
9F48
  8
0
 10
301.2880040899243
 20
141.4538621769712
 30
0.0
  0
VERTEX
  5
9F49
  8
0
 10
301.15218467455861
 20
141.57716899531039
 30
0.0
  0
VERTEX
  5
9F4A
  8
0
 10
301.00319257725369
 20
141.70010630300601
 30
0.0
  0
VERTEX
  5
9F4B
  8
0
 10
300.84170093652477
 20
141.82180760473929
 30
0.0
  0
VERTEX
  5
9F4C
  8
0
 10
300.66855347254909
 20
141.9414343984609
 30
0.0
  0
VERTEX
  5
9F4D
  8
0
 10
300.484638047494
 20
142.0582535222855
 30
0.0
  0
VERTEX
  5
9F4E
  8
0
 10
300.3889705096226
 20
142.11538046929641
 30
0.0
  0
VERTEX
  5
9F4F
  8
0
 10
300.29103426234877
 20
142.17152740683699
 30
0.0
  0
VERTEX
  5
9F50
  8
0
 10
300.08902065053741
 20
142.2805256730245
 30
0.0
  0
VERTEX
  5
9F51
  8
0
 10
299.87999187571222
 20
142.3845802690945
 30
0.0
  0
VERTEX
  5
9F52
  8
0
 10
299.77332054403951
 20
142.4345589468615
 30
0.0
  0
VERTEX
  5
9F53
  8
0
 10
299.69379146249298
 20
142.46989935413339
 30
0.0
  0
VERTEX
  5
9F54
  8
0
 10
299.53115929041678
 20
142.5353980067394
 30
0.0
  0
VERTEX
  5
9F55
  8
0
 10
299.36401428905401
 20
142.59434493740909
 30
0.0
  0
VERTEX
  5
9F56
  8
0
 10
299.27884484244578
 20
142.62149358643941
 30
0.0
  0
VERTEX
  5
9F57
  8
0
 10
299.19266170376659
 20
142.64716159286979
 30
0.0
  0
VERTEX
  5
9F58
  8
0
 10
299.0174066003874
 20
142.69425931517259
 30
0.0
  0
VERTEX
  5
9F59
  8
0
 10
298.83855164930168
 20
142.73603761349349
 30
0.0
  0
VERTEX
  5
9F5A
  8
0
 10
298.65707393368672
 20
142.77275458795759
 30
0.0
  0
VERTEX
  5
9F5B
  8
0
 10
298.47434365286199
 20
142.80465874525581
 30
0.0
  0
VERTEX
  5
9F5C
  8
0
 10
298.29081319189572
 20
142.83219436469889
 30
0.0
  0
VERTEX
  5
9F5D
  8
0
 10
298.19888509062412
 20
142.84445383458149
 30
0.0
  0
VERTEX
  5
9F5E
  8
0
 10
298.10692088138012
 20
142.8557725149534
 30
0.0
  0
VERTEX
  5
9F5F
  8
0
 10
297.92309967733399
 20
142.87576789458231
 30
0.0
  0
VERTEX
  5
9F60
  8
0
 10
297.73977775062491
 20
142.89251723760131
 30
0.0
  0
VERTEX
  5
9F61
  8
0
 10
297.55750116029873
 20
142.90630913407529
 30
0.0
  0
VERTEX
  5
9F62
  8
0
 10
297.37731892526841
 20
142.91736925901969
 30
0.0
  0
VERTEX
  5
9F63
  8
0
 10
297.19974694359507
 20
142.92593241063159
 30
0.0
  0
VERTEX
  5
9F64
  8
0
 10
297.11207225368253
 20
142.9293396803952
 30
0.0
  0
VERTEX
  5
9F65
  8
0
 10
297.02520840737589
 20
142.93219090082479
 30
0.0
  0
VERTEX
  5
9F66
  8
0
 10
296.85422249710427
 20
142.9362847409212
 30
0.0
  0
VERTEX
  5
9F67
  8
0
 10
296.68743034371943
 20
142.93830654423081
 30
0.0
  0
VERTEX
  5
9F68
  8
0
 10
296.60573323675499
 20
142.93855814280991
 30
0.0
  0
SEQEND
  5
9F69
  8
0
  0
LINE
  5
8B29
  8
2
 10
338.42164772606611
 20
147.05469671333719
 30
0.0
 11
338.42164772606588
 21
144.05469671333719
 31
0.0
  0
LINE
  5
8B2A
  8
2
 10
335.92164772606611
 20
117.2546967133372
 30
0.0
 11
335.92164772606628
 21
142.05065352200111
 31
0.0
  0
LINE
  5
8B2B
  8
2
 10
334.92164772606611
 20
144.05469671333719
 30
0.0
 11
334.92164772606611
 21
142.05083995157281
 31
0.0
  0
LINE
  5
8B2C
  8
2
 10
310.92164772606588
 20
142.05083995157281
 30
0.0
 11
309.92164772606588
 21
142.05065352200111
 31
0.0
  0
LINE
  5
8B2D
  8
2
 10
307.42164772606611
 20
147.05469671333719
 30
0.0
 11
307.42164772606628
 21
144.05469671333719
 31
0.0
  0
LINE
  5
8B2E
  8
2
 10
309.92164772606611
 20
117.2546967133372
 30
0.0
 11
309.92164772606588
 21
142.05065352200111
 31
0.0
  0
LINE
  5
8B2F
  8
2
 10
310.92164772606611
 20
144.05469671333719
 30
0.0
 11
310.92164772606611
 21
142.05083995157281
 31
0.0
  0
LINE
  5
8B30
  8
0
 10
343.92164772606611
 20
120.55469671333719
 30
0.0
 11
301.92164772606611
 21
120.55469671333719
 31
0.0
  0
LINE
  5
8B31
  8
0
 10
301.92164772606611
 20
140.2980644290131
 30
0.0
 11
301.92164772606611
 21
120.55469671333719
 31
0.0
  0
LINE
  5
8B32
  8
0
 10
307.92164772606588
 20
143.05469671333719
 30
0.0
 11
307.92164772606611
 21
120.55469671333719
 31
0.0
  0
LINE
  5
8B33
  8
0
 10
349.23756221537718
 20
142.93855814280991
 30
0.0
 11
378.09406151916937
 21
142.93855814280991
 31
0.0
  0
POLYLINE
  5
8B34
  8
0
 66
     1
 10
0.0
 20
0.0
 30
0.0
  0
VERTEX
  5
9F6A
  8
0
 10
343.92164772606611
 20
140.2980644290131
 30
0.0
  0
VERTEX
  5
9F6B
  8
0
 10
343.92359757756623
 20
140.35675702377071
 30
0.0
  0
VERTEX
  5
9F6C
  8
0
 10
343.93911100239819
 20
140.47640818749949
 30
0.0
  0
VERTEX
  5
9F6D
  8
0
 10
343.96982223072382
 20
140.59837219886219
 30
0.0
  0
VERTEX
  5
9F6E
  8
0
 10
343.99071693487332
 20
140.65992738773281
 30
0.0
  0
VERTEX
  5
9F6F
  8
0
 10
344.01518962058549
 20
140.7217015501875
 30
0.0
  0
VERTEX
  5
9F70
  8
0
 10
344.07443934781742
 20
140.84541475189681
 30
0.0
  0
VERTEX
  5
9F71
  8
0
 10
344.14657044752931
 20
140.9685243641992
 30
0.0
  0
VERTEX
  5
9F72
  8
0
 10
344.23034059841302
 20
141.090021861558
 30
0.0
  0
VERTEX
  5
9F73
  8
0
 10
344.3249467102944
 20
141.2097056583446
 30
0.0
  0
VERTEX
  5
9F74
  8
0
 10
344.43313245675648
 20
141.33106922081481
 30
0.0
  0
VERTEX
  5
9F75
  8
0
 10
344.49248045059238
 20
141.39234490322599
 30
0.0
  0
VERTEX
  5
9F76
  8
0
 10
344.55529136220798
 20
141.4538621769712
 30
0.0
  0
VERTEX
  5
9F77
  8
0
 10
344.69111077757361
 20
141.57716899531039
 30
0.0
  0
VERTEX
  5
9F78
  8
0
 10
344.8401028748786
 20
141.70010630300601
 30
0.0
  0
VERTEX
  5
9F79
  8
0
 10
345.00159451560739
 20
141.82180760473929
 30
0.0
  0
VERTEX
  5
9F7A
  8
0
 10
345.17474197958308
 20
141.9414343984609
 30
0.0
  0
VERTEX
  5
9F7B
  8
0
 10
345.35865740463828
 20
142.0582535222855
 30
0.0
  0
VERTEX
  5
9F7C
  8
0
 10
345.45432494250957
 20
142.11538046929641
 30
0.0
  0
VERTEX
  5
9F7D
  8
0
 10
345.55226118978339
 20
142.17152740683699
 30
0.0
  0
VERTEX
  5
9F7E
  8
0
 10
345.75427480159487
 20
142.2805256730245
 30
0.0
  0
VERTEX
  5
9F7F
  8
0
 10
345.96330357642
 20
142.3845802690945
 30
0.0
  0
VERTEX
  5
9F80
  8
0
 10
346.06997490809272
 20
142.4345589468615
 30
0.0
  0
VERTEX
  5
9F81
  8
0
 10
346.1495039896393
 20
142.46989935413339
 30
0.0
  0
VERTEX
  5
9F82
  8
0
 10
346.3121361617155
 20
142.5353980067394
 30
0.0
  0
VERTEX
  5
9F83
  8
0
 10
346.47928116307821
 20
142.59434493740909
 30
0.0
  0
VERTEX
  5
9F84
  8
0
 10
346.5644506096865
 20
142.62149358643941
 30
0.0
  0
VERTEX
  5
9F85
  8
0
 10
346.65063374836558
 20
142.64716159286979
 30
0.0
  0
VERTEX
  5
9F86
  8
0
 10
346.82588885174482
 20
142.69425931517259
 30
0.0
  0
VERTEX
  5
9F87
  8
0
 10
347.00474380283049
 20
142.73603761349349
 30
0.0
  0
VERTEX
  5
9F88
  8
0
 10
347.18622151844562
 20
142.77275458795759
 30
0.0
  0
VERTEX
  5
9F89
  8
0
 10
347.36895179927018
 20
142.80465874525581
 30
0.0
  0
VERTEX
  5
9F8A
  8
0
 10
347.5524822602365
 20
142.83219436469889
 30
0.0
  0
VERTEX
  5
9F8B
  8
0
 10
347.64441036150811
 20
142.84445383458149
 30
0.0
  0
VERTEX
  5
9F8C
  8
0
 10
347.7363745707521
 20
142.8557725149534
 30
0.0
  0
VERTEX
  5
9F8D
  8
0
 10
347.92019577479817
 20
142.87576789458231
 30
0.0
  0
VERTEX
  5
9F8E
  8
0
 10
348.10351770150743
 20
142.89251723760131
 30
0.0
  0
VERTEX
  5
9F8F
  8
0
 10
348.2857942918335
 20
142.90630913407529
 30
0.0
  0
VERTEX
  5
9F90
  8
0
 10
348.46597652686393
 20
142.91736925901969
 30
0.0
  0
VERTEX
  5
9F91
  8
0
 10
348.64354850853721
 20
142.92593241063159
 30
0.0
  0
VERTEX
  5
9F92
  8
0
 10
348.7312231984497
 20
142.9293396803952
 30
0.0
  0
VERTEX
  5
9F93
  8
0
 10
348.8180870447564
 20
142.93219090082479
 30
0.0
  0
VERTEX
  5
9F94
  8
0
 10
348.98907295502801
 20
142.9362847409212
 30
0.0
  0
VERTEX
  5
9F95
  8
0
 10
349.15586510841291
 20
142.93830654423081
 30
0.0
  0
VERTEX
  5
9F96
  8
0
 10
349.23756221537718
 20
142.93855814280991
 30
0.0
  0
SEQEND
  5
9F97
  8
0
  0
LINE
  5
8B35
  8
0
 10
343.92164772606611
 20
140.2980644290131
 30
0.0
 11
343.92164772606611
 21
120.55469671333719
 31
0.0
  0
LINE
  5
8B36
  8
2
 10
76.698364048455915
 20
386.79437351102808
 30
0.0
 11
49.698364048455907
 21
386.79437351102843
 31
0.0
  0
LINE
  5
8B37
  8
2
 10
49.698364048455907
 20
400.79437351102808
 30
0.0
 11
76.698364048455915
 21
400.79437351102808
 31
0.0
  0
LINE
  5
8B38
  8
2
 10
76.698364048455915
 20
409.29437351102791
 30
0.0
 11
76.698364048455915
 21
378.29437351102808
 31
0.0
  0
LINE
  5
8B39
  8
2
 10
74.694507286691532
 20
381.79437351102791
 30
0.0
 11
74.694320857119919
 21
380.79437351102791
 31
0.0
  0
LINE
  5
8B3A
  8
2
 10
79.698364048455915
 20
409.29437351102808
 30
0.0
 11
79.698364048455915
 21
378.29437351102808
 31
0.0
  0
LINE
  5
8B3B
  8
2
 10
79.698364048455915
 20
378.29437351102808
 30
0.0
 11
76.698364048455915
 21
378.29437351102843
 31
0.0
  0
LINE
  5
8B3C
  8
2
 10
49.89836404845596
 20
380.79437351102808
 30
0.0
 11
74.694320857119919
 21
380.79437351102791
 31
0.0
  0
LINE
  5
8B3D
  8
2
 10
76.698364048455915
 20
381.79437351102808
 30
0.0
 11
74.694507286691532
 21
381.79437351102808
 31
0.0
  0
LINE
  5
8B3E
  8
2
 10
74.694507286691532
 20
405.79437351102831
 30
0.0
 11
74.694320857119692
 21
406.79437351102831
 31
0.0
  0
LINE
  5
8B3F
  8
2
 10
79.698364048455915
 20
409.29437351102808
 30
0.0
 11
76.698364048455915
 21
409.29437351102791
 31
0.0
  0
LINE
  5
8B40
  8
2
 10
49.89836404845596
 20
406.79437351102808
 30
0.0
 11
74.694320857119692
 21
406.79437351102831
 31
0.0
  0
LINE
  5
8B41
  8
2
 10
76.698364048455915
 20
405.79437351102808
 30
0.0
 11
74.694507286691532
 21
405.79437351102808
 31
0.0
  0
LINE
  5
8B42
  8
0
 10
337.92164772606628
 20
143.05469671333719
 30
0.0
 11
337.92164772606611
 21
120.55469671333719
 31
0.0
  0
LINE
  5
8EC3
  8
0
 10
344.92164772606611
 20
438.64093006291989
 30
0.0
 11
344.92164772606611
 21
348.94781695913628
 31
0.0
  0
LINE
  5
8EC4
  8
0
 10
300.92164772606611
 20
438.64093006291989
 30
0.0
 11
300.92164772606611
 21
348.94781695913628
 31
0.0
  0
LINE
  5
8EC5
  8
0
 10
595.7235512948854
 20
438.64093006291989
 30
0.0
 11
595.7235512948854
 21
348.94781695913628
 31
0.0
  0
LINE
  5
8EC6
  8
0
 10
551.72355129488551
 20
438.64093006291989
 30
0.0
 11
551.72355129488551
 21
348.94781695913628
 31
0.0
  0
LINE
  5
8F07
  8
1
 10
92.198364048456824
 20
448.79437351102803
 30
0.0
 11
92.198364048456824
 21
468.79437351102803
 31
0.0
  0
CIRCLE
  5
9016
  8
0
 10
573.72355129488551
 20
393.79437351102882
 30
0.0
 40
75.848772593125929
  0
ARC
  5
9093
  8
0
 10
573.72355129488551
 20
393.79437351102808
 30
0.0
 40
20.000000000000028
 50
125.09963219539389
 51
54.90036780460683
  0
LINE
  5
90DA
  8
1
 10
760.86815719376648
 20
458.79437351102808
 30
0.0
 11
740.86829768866687
 21
458.7943735110282
 31
0.0
  0
LINE
  5
90DB
  8
1
 10
750.86822744121673
 20
365.79437351102808
 30
0.0
 11
750.86822744121673
 21
468.7568909275119
 31
0.0
  0
LINE
  5
9114
  8
1
 10
583.72355129488551
 20
159.55469671333719
 30
0.0
 11
563.72355129488551
 21
159.55469671333719
 31
0.0
  0
TEXT
  5
9277
  8
0
 62
     3
 10
0.0
 20
0.0
 30
0.0
 40
10.0
  1
TWN160F
  7
STANDARD1
  0
LINE
  5
9324
  8
0
 10
125.0483640484567
 20
447.29437351102803
 30
0.0
 11
163.6983640484568
 21
447.29437351102803
 31
0.0
  0
LINE
  5
9325
  8
0
 10
163.6983640484568
 20
470.29437351102803
 30
0.0
 11
125.0483640484567
 21
470.29437351102803
 31
0.0
  0
ARC
  5
9326
  8
0
 10
125.0483640484567
 20
451.89437351102811
 30
0.0
 40
4.6000000000000218
 50
210.00000000000011
 51
270.0
  0
ARC
  5
9327
  8
0
 10
125.0483640484567
 20
465.69437351102812
 30
0.0
 40
4.6000000000000218
 50
90.0
 51
149.9999999999998
  0
ARC
  5
9328
  8
0
 10
163.6983640484568
 20
458.79437351102808
 30
0.0
 40
11.5
 50
270.0
 51
90.0
  0
LINE
  5
9329
  8
0
 10
102.6583640484568
 20
467.99437351102807
 30
0.0
 11
102.1983640484568
 21
467.53437351102798
 31
0.0
  0
LINE
  5
932A
  8
0
 10
102.1983640484568
 20
450.05437351102802
 30
0.0
 11
102.6583640484568
 21
449.5943735110281
 31
0.0
  0
LINE
  5
932B
  8
0
 10
102.6583640484568
 20
449.5943735110281
 30
0.0
 11
121.06464719104839
 21
449.5943735110281
 31
0.0
  0
LINE
  5
932C
  8
0
 10
121.06464719104839
 20
467.99437351102807
 30
0.0
 11
102.6583640484568
 21
467.99437351102807
 31
0.0
  0
LINE
  5
932D
  8
0
 10
102.1983640484568
 20
465.39518557938078
 30
0.0
 11
100.6983640484568
 21
465.18437432732708
 31
0.0
  0
LINE
  5
932E
  8
0
 10
100.6983640484568
 20
452.40437269472892
 30
0.0
 11
102.1983640484568
 21
452.19356144267527
 31
0.0
  0
LINE
  5
933C
  8
0
 10
121.06464719104839
 20
449.5943735110281
 30
0.0
 11
121.06464719104839
 21
467.99437351102807
 31
0.0
  0
LINE
  5
933D
  8
0
 10
102.6583640484568
 20
449.5943735110281
 30
0.0
 11
102.6583640484568
 21
467.99437351102807
 31
0.0
  0
LINE
  5
933E
  8
0
 10
102.1983640484568
 20
450.05437351102802
 30
0.0
 11
102.1983640484568
 21
467.53437351102798
 31
0.0
  0
LINE
  5
933F
  8
0
 10
163.6983640484568
 20
447.29437351102803
 30
0.0
 11
163.6983640484568
 21
470.29437351102803
 31
0.0
  0
LINE
  5
9340
  8
0
 10
125.0483640484567
 20
447.29437351102803
 30
0.0
 11
125.0483640484567
 21
470.29437351102803
 31
0.0
  0
CIRCLE
  5
9341
  8
0
 10
322.92164772606611
 20
458.79437351102808
 30
0.0
 40
11.5
  0
POLYLINE
  5
9405
  8
0
 66
     1
 10
0.0
 20
0.0
 30
0.0
 70
   128
  0
VERTEX
  5
9F9D
  8
0
 10
580.44713664795404
 20
452.699373511028
 30
0.0
  0
VERTEX
  5
9F9E
  8
0
 10
580.30087358818241
 20
452.53350914338029
 30
0.0
  0
VERTEX
  5
9F9F
  8
0
 10
580.15965430771143
 20
452.36307253737669
 30
0.0
  0
VERTEX
  5
9FA0
  8
0
 10
580.02392335142429
 20
452.18605539046922
 30
0.0
  0
VERTEX
  5
9FA1
  8
0
 10
579.89761532154853
 20
452.00370689882232
 30
0.0
  0
VERTEX
  5
9FA2
  8
0
 10
579.87777036670991
 20
451.97204779675252
 30
0.0
  0
SEQEND
  5
9FA3
  8
0
  0
ARC
  5
9406
  8
0
 10
573.72355129488551
 20
458.79437351102808
 30
0.0
 40
9.0749999999999975
 50
317.80736606766152
 51
222.1926339323403
  0
POLYLINE
  5
9407
  8
0
 66
     1
 10
0.0
 20
0.0
 30
0.0
 70
   128
  0
VERTEX
  5
9FA4
  8
0
 10
567.56877681447213
 20
451.96809585929748
 30
0.0
  0
VERTEX
  5
9FA5
  8
0
 10
567.47025237998707
 20
452.12054590155509
 30
0.0
  0
VERTEX
  5
9FA6
  8
0
 10
567.24514088586443
 20
452.41560452361512
 30
0.0
  0
VERTEX
  5
9FA7
  8
0
 10
566.99996594181675
 20
452.699373511028
 30
0.0
  0
SEQEND
  5
9FA8
  8
0
  0
ARC
  5
9408
  8
0
 10
573.72355129488551
 20
458.79437351102808
 30
0.0
 40
10.00000000000002
 50
308.96298716295343
 51
231.03701283704461
  0
ARC
  5
940C
  8
0
 10
573.72355129488551
 20
458.79437351102808
 30
0.0
 40
6.3900008162991204
 50
296.55951376728427
 51
243.4404862327157
  0
ARC
  5
9412
  8
0
 10
573.72355129488551
 20
458.79437351102808
 30
0.0
 40
6.0000000000000018
 50
298.43689014885388
 51
241.56310985114609
  0
ARC
  5
9417
  8
0
 10
575.43783700917106
 20
462.65151636817092
 30
0.0
 40
1.1428571428571379
 50
0.0
 51
90.0
  0
LINE
  5
9418
  8
0
 10
575.43783700917106
 20
463.79437351102808
 30
0.0
 11
572.00926558059973
 21
463.79437351102808
 31
0.0
  0
ARC
  5
9419
  8
0
 10
572.00926558059973
 20
462.65151636817092
 30
0.0
 40
1.142857142857167
 50
90.0
 51
180.0
  0
LINE
  5
941A
  8
0
 10
570.86640843774228
 20
462.65151636817092
 30
0.0
 11
570.86640843774262
 21
453.06937351102789
 31
0.0
  0
LINE
  5
941B
  8
0
 10
576.58069415202806
 20
453.06937351102789
 30
0.0
 11
576.58069415202806
 21
462.65151636817092
 31
0.0
  0
ARC
  5
94B4
  8
0
 10
573.7235512948854
 20
387.29437351102808
 30
0.0
 40
11.50000000000005
 50
180.0
 51
0.0
  0
LINE
  5
94B5
  8
0
 10
562.22355129488528
 20
425.94437351102789
 30
0.0
 11
562.22355129488528
 21
387.29437351102808
 31
0.0
  0
LINE
  5
94B6
  8
0
 10
585.2235512948854
 20
387.29437351102808
 30
0.0
 11
585.2235512948854
 21
425.94437351102789
 31
0.0
  0
ARC
  5
94B7
  8
0
 10
566.82355129488531
 20
425.94437351102789
 30
0.0
 40
4.6000000000000218
 50
119.9999999999981
 51
180.0
  0
ARC
  5
94B8
  8
0
 10
580.62355129488537
 20
425.94437351102789
 30
0.0
 40
4.6000000000000218
 50
0.0
 51
60.00000000000189
  0
LINE
  5
94B9
  8
0
 10
564.52355129488535
 20
448.33437351102799
 30
0.0
 11
564.52355129488535
 21
429.92809036843647
 31
0.0
  0
LINE
  5
94BA
  8
0
 10
582.92355129488533
 20
429.92809036843647
 30
0.0
 11
582.92355129488533
 21
448.33437351102799
 31
0.0
  0
LINE
  5
94BB
  8
0
 10
582.92355129488533
 20
448.33437351102799
 30
0.0
 11
582.46355129488529
 21
448.79437351102803
 31
0.0
  0
LINE
  5
94BC
  8
0
 10
564.98355129488527
 20
448.79437351102803
 30
0.0
 11
564.52355129488535
 21
448.33437351102799
 31
0.0
  0
LINE
  5
94BD
  8
0
 10
580.32436336323815
 20
448.79437351102803
 30
0.0
 11
579.72355129488528
 21
453.06937351102789
 31
0.0
  0
LINE
  5
94BE
  8
0
 10
567.72355129488528
 20
453.06937351102789
 30
0.0
 11
567.12273922653264
 21
448.79437351102803
 31
0.0
  0
LINE
  5
94BF
  8
0
 10
564.52355129488535
 20
429.92809036843647
 30
0.0
 11
582.92355129488533
 21
429.92809036843647
 31
0.0
  0
LINE
  5
94C0
  8
0
 10
564.52355129488535
 20
448.33437351102799
 30
0.0
 11
582.92355129488533
 21
448.33437351102799
 31
0.0
  0
LINE
  5
94C1
  8
0
 10
564.98355129488527
 20
448.79437351102803
 30
0.0
 11
582.46355129488529
 21
448.79437351102803
 31
0.0
  0
LINE
  5
94C2
  8
0
 10
567.72355129488528
 20
453.06937351102789
 30
0.0
 11
579.72355129488528
 21
453.06937351102789
 31
0.0
  0
LINE
  5
94C9
  8
0
 10
562.22355129488528
 20
387.29437351102808
 30
0.0
 11
585.2235512948854
 21
387.29437351102808
 31
0.0
  0
LINE
  5
94CA
  8
0
 10
562.22355129488528
 20
425.94437351102789
 30
0.0
 11
585.2235512948854
 21
425.94437351102789
 31
0.0
  0
LINE
  5
963F
  8
1
 10
332.92164772606611
 20
159.55469671333719
 30
0.0
 11
312.92164772606611
 21
159.55469671333719
 31
0.0
  0
LINE
  5
9640
  8
0
 10
334.42164772606611
 20
192.4046967133371
 30
0.0
 11
334.42164772606611
 21
231.05469671333719
 31
0.0
  0
LINE
  5
9641
  8
0
 10
311.42164772606611
 20
231.05469671333719
 30
0.0
 11
311.42164772606611
 21
192.4046967133371
 31
0.0
  0
ARC
  5
9642
  8
0
 10
329.82164772606609
 20
192.4046967133371
 30
0.0
 40
4.6000000000000218
 50
299.99999999999989
 51
0.0
  0
ARC
  5
9643
  8
0
 10
316.02164772606608
 20
192.4046967133371
 30
0.0
 40
4.6000000000000218
 50
180.0
 51
240.00000000000011
  0
ARC
  5
9644
  8
0
 10
322.92164772606611
 20
231.05469671333719
 30
0.0
 40
11.5
 50
0.0
 51
180.0
  0
LINE
  5
9645
  8
0
 10
313.72164772606612
 20
170.0146967133372
 30
0.0
 11
314.1816477260661
 21
169.55469671333719
 31
0.0
  0
LINE
  5
9646
  8
0
 10
331.66164772606612
 20
169.55469671333719
 30
0.0
 11
332.12164772606599
 21
170.0146967133372
 31
0.0
  0
LINE
  5
9647
  8
0
 10
332.12164772606599
 20
170.0146967133372
 30
0.0
 11
332.12164772606599
 21
188.42097985592869
 31
0.0
  0
LINE
  5
9648
  8
0
 10
313.72164772606612
 20
188.42097985592869
 30
0.0
 11
313.72164772606612
 21
170.0146967133372
 31
0.0
  0
LINE
  5
9649
  8
0
 10
316.32083565771342
 20
169.55469671333719
 30
0.0
 11
316.53164690976701
 21
168.05469671333719
 31
0.0
  0
LINE
  5
964A
  8
0
 10
329.31164854236528
 20
168.05469671333719
 30
0.0
 11
329.52245979441881
 21
169.55469671333719
 31
0.0
  0
LINE
  5
964B
  8
0
 10
332.12164772606599
 20
188.42097985592869
 30
0.0
 11
313.72164772606612
 21
188.42097985592869
 31
0.0
  0
LINE
  5
964C
  8
0
 10
332.12164772606599
 20
170.0146967133372
 30
0.0
 11
313.72164772606612
 21
170.0146967133372
 31
0.0
  0
LINE
  5
964D
  8
0
 10
331.66164772606612
 20
169.55469671333719
 30
0.0
 11
314.1816477260661
 21
169.55469671333719
 31
0.0
  0
LINE
  5
964E
  8
0
 10
334.42164772606611
 20
231.05469671333719
 30
0.0
 11
311.42164772606611
 21
231.05469671333719
 31
0.0
  0
LINE
  5
964F
  8
0
 10
334.42164772606611
 20
192.4046967133371
 30
0.0
 11
311.42164772606611
 21
192.4046967133371
 31
0.0
  0
ARC
  5
96B3
  8
0
 10
573.72355129488551
 20
159.55469671333719
 30
0.0
 40
11.5
 50
47.657394547792713
 51
132.34260545220729
  0
LINE
  5
96DF
  8
0
 10
739.36822744121673
 20
387.29437351102808
 30
0.0
 11
739.36822744121673
 21
425.94437351102818
 31
0.0
  0
ARC
  5
96E1
  8
0
 10
743.96822744121664
 20
425.94437351102818
 30
0.0
 40
4.6000000000000218
 50
120.0000000000001
 51
180.0
  0
ARC
  5
96E2
  8
0
 10
750.86822744121673
 20
387.29437351102808
 30
0.0
 40
11.5
 50
180.0
 51
222.3426054522065
  0
LINE
  5
96E3
  8
0
 10
741.66822744121669
 20
448.33437351102799
 30
0.0
 11
742.12822744121672
 21
448.79437351102808
 31
0.0
  0
LINE
  5
96E6
  8
0
 10
741.66822744121669
 20
429.92809036843647
 30
0.0
 11
741.66822744121669
 21
448.33437351102799
 31
0.0
  0
LINE
  5
96E9
  8
0
 10
742.3682274412165
 20
429.92809036843647
 30
0.0
 11
741.66822744121669
 21
429.92809036843647
 31
0.0
  0
LINE
  5
96EA
  8
0
 10
742.3682274412165
 20
448.33437351102799
 30
0.0
 11
741.66822744121669
 21
448.33437351102799
 31
0.0
  0
LINE
  5
96EB
  8
0
 10
742.36822744121673
 20
448.7943735110282
 30
0.0
 11
742.12822744121672
 21
448.79437351102808
 31
0.0
  0
LINE
  5
96EC
  8
0
 10
742.36822744121673
 20
387.29437351102808
 30
0.0
 11
739.36822744121673
 21
387.29437351102808
 31
0.0
  0
LINE
  5
96ED
  8
0
 10
742.36822744121673
 20
425.94437351102818
 30
0.0
 11
739.36822744121673
 21
425.94437351102818
 31
0.0
  0
ENDSEC
  0
EOF
