  0
SECTION
  2
HEADER
  9
$ACADVER
  1
AC1009
  9
$INSBASE
 10
0.0
 20
0.0
 30
0.0
  9
$EXTMIN
 10
0.0
 20
-2.960436562073669
 30
0.0
  9
$EXTMAX
 10
694.486818834985
 20
426.60201294621299
 30
0.0
  9
$LIMMIN
 10
0.0
 20
0.0
  9
$LIMMAX
 10
375.0
 20
270.0
  9
$ORTHOMODE
 70
     1
  9
$REGENMODE
 70
     1
  9
$FILLMODE
 70
     1
  9
$QTEXTMODE
 70
     0
  9
$MIRRTEXT
 70
     0
  9
$DRAGMODE
 70
     2
  9
$LTSCALE
 40
10.0
  9
$OSMODE
 70
    55
  9
$ATTMODE
 70
     1
  9
$TEXTSIZE
 40
0.2
  9
$TRACEWID
 40
0.05
  9
$TEXTSTYLE
  7
STANDARD
  9
$CLAYER
  8
0
  9
$CELTYPE
  6
BYLAYER
  9
$CECOLOR
 62
   256
  9
$DIMSCALE
 40
1.0
  9
$DIMASZ
 40
3.0
  9
$DIMEXO
 40
2.0
  9
$DIMDLI
 40
0.38
  9
$DIMRND
 40
0.0
  9
$DIMDLE
 40
0.0
  9
$DIMEXE
 40
2.0
  9
$DIMTP
 40
0.0
  9
$DIMTM
 40
0.0
  9
$DIMTXT
 40
3.2000000000000002
  9
$DIMCEN
 40
0.0
  9
$DIMTSZ
 40
0.0
  9
$DIMTOL
 70
     0
  9
$DIMLIM
 70
     0
  9
$DIMTIH
 70
     0
  9
$DIMTOH
 70
     0
  9
$DIMSE1
 70
     0
  9
$DIMSE2
 70
     0
  9
$DIMTAD
 70
     1
  9
$DIMZIN
 70
     8
  9
$DIMBLK
  1

  9
$DIMASO
 70
     1
  9
$DIMSHO
 70
     0
  9
$DIMPOST
  1

  9
$DIMAPOST
  1

  9
$DIMALT
 70
     0
  9
$DIMALTD
 70
     2
  9
$DIMALTF
 40
25.399999999999999
  9
$DIMLFAC
 40
1.0
  9
$DIMTOFL
 70
     1
  9
$DIMTVP
 40
1.6000000000000001
  9
$DIMTIX
 70
     1
  9
$DIMSOXD
 70
     0
  9
$DIMSAH
 70
     0
  9
$DIMBLK1
  1

  9
$DIMBLK2
  1

  9
$DIMSTYLE
  2
STANDARD
  9
$DIMCLRD
 70
     0
  9
$DIMCLRE
 70
     0
  9
$DIMCLRT
 70
     0
  9
$DIMTFAC
 40
1.0
  9
$DIMGAP
 40
1.5
  9
$LUNITS
 70
     2
  9
$LUPREC
 70
     4
  9
$SKETCHINC
 40
0.1
  9
$FILLETRAD
 40
0.0
  9
$AUNITS
 70
     1
  9
$AUPREC
 70
     4
  9
$MENU
  1
E:\r13\win\SUPPORT\ACAD
  9
$ELEVATION
 40
0.0
  9
$PELEVATION
 40
0.0
  9
$THICKNESS
 40
0.0
  9
$LIMCHECK
 70
     0
  9
$BLIPMODE
 70
     0
  9
$CHAMFERA
 40
0.0
  9
$CHAMFERB
 40
0.0
  9
$SKPOLY
 70
     0
  9
$TDCREATE
 40
2449839.7800462958
  9
$TDUPDATE
 40
2456598.456692141
  9
$TDINDWG
 40
0.9326182523
  9
$TDUSRTIMER
 40
0.9326182523
  9
$USRTIMER
 70
     1
  9
$ANGBASE
 50
0.0
  9
$ANGDIR
 70
     0
  9
$PDMODE
 70
     0
  9
$PDSIZE
 40
0.0
  9
$PLINEWID
 40
0.0
  9
$COORDS
 70
     1
  9
$SPLFRAME
 70
     0
  9
$SPLINETYPE
 70
     6
  9
$SPLINESEGS
 70
     8
  9
$ATTDIA
 70
     0
  9
$ATTREQ
 70
     1
  9
$HANDLING
 70
     1
  9
$HANDSEED
  5
9941
  9
$SURFTAB1
 70
     6
  9
$SURFTAB2
 70
     6
  9
$SURFTYPE
 70
     6
  9
$SURFU
 70
     6
  9
$SURFV
 70
     6
  9
$UCSNAME
  2

  9
$UCSORG
 10
0.0
 20
0.0
 30
0.0
  9
$UCSXDIR
 10
1.0
 20
0.0
 30
0.0
  9
$UCSYDIR
 10
0.0
 20
1.0
 30
0.0
  9
$PUCSNAME
  2

  9
$PUCSORG
 10
0.0
 20
0.0
 30
0.0
  9
$PUCSXDIR
 10
1.0
 20
0.0
 30
0.0
  9
$PUCSYDIR
 10
0.0
 20
1.0
 30
0.0
  9
$USERI1
 70
     0
  9
$USERI2
 70
     1
  9
$USERI3
 70
     1
  9
$USERI4
 70
     0
  9
$USERI5
 70
     0
  9
$USERR1
 40
0.0
  9
$USERR2
 40
0.0
  9
$USERR3
 40
0.0
  9
$USERR4
 40
0.0
  9
$USERR5
 40
0.0
  9
$WORLDVIEW
 70
     1
  9
$SHADEDGE
 70
     3
  9
$SHADEDIF
 70
    70
  9
$TILEMODE
 70
     1
  9
$MAXACTVP
 70
    16
  9
$PLIMCHECK
 70
     0
  9
$PEXTMIN
 10
1.0000000000000000E+020
 20
1.0000000000000000E+020
 30
1.0000000000000000E+020
  9
$PEXTMAX
 10
-1.0000000000000000E+020
 20
-1.0000000000000000E+020
 30
-1.0000000000000000E+020
  9
$PLIMMIN
 10
0.0
 20
0.0
  9
$PLIMMAX
 10
12.0
 20
9.0
  9
$UNITMODE
 70
     0
  9
$VISRETAIN
 70
     0
  9
$PLINEGEN
 70
     0
  9
$PSLTSCALE
 70
     0
  0
ENDSEC
  0
SECTION
  2
TABLES
  0
TABLE
  2
VPORT
 70
     1
  0
VPORT
  2
*ACTIVE
 70
     0
 10
0.0
 20
0.0
 11
1.0
 21
1.0
 12
347.2434110344708
 22
311.81242515589349
 13
0.0
 23
0.0
 14
10.0
 24
10.0
 15
10.0
 25
10.0
 16
0.0
 26
0.0
 36
1.0
 17
0.0
 27
0.0
 37
0.0
 40
635.11756219773793
 41
1.7807262569832401
 42
50.0
 43
0.0
 44
0.0
 50
0.0
 51
0.0
 71
     0
 72
   500
 73
     1
 74
     0
 75
     0
 76
     0
 77
     0
 78
     2
  0
ENDTAB
  0
TABLE
  2
LTYPE
 70
     4
  0
LTYPE
  2
CONTINUOUS
 70
     0
  3
Solid Line
 72
    65
 73
     0
 40
0.0
  0
LTYPE
  2
CENTER
 70
     0
  3
____ _ ____ _ ____ _ ____ _ ____ _ ____ _ ____
 72
    65
 73
     4
 40
2.0
 49
1.25
 49
-0.25
 49
0.25
 49
-0.25
  0
LTYPE
  2
HIDDEN
 70
     0
  3
_ _ _ _ _ _ _ _ _ _ _ _ _ _ _ _ _ _ _ _ _ _ _
 72
    65
 73
     2
 40
0.375
 49
0.25
 49
-0.125
  0
LTYPE
  2
PHANTOM2
 70
     0
  3
___ _ _ ___ _ _ ___ _ _ ___ _ _
 72
    65
 73
     6
 40
1.25
 49
0.625
 49
-0.125
 49
0.125
 49
-0.125
 49
0.125
 49
-0.125
  0
ENDTAB
  0
TABLE
  2
LAYER
 70
     4
  0
LAYER
  2
0
 70
     0
 62
     7
  6
CONTINUOUS
  0
LAYER
  2
1
 70
     0
 62
     1
  6
CENTER
  0
LAYER
  2
2
 70
     0
 62
     2
  6
HIDDEN
  0
LAYER
  2
DEFPOINTS
 70
     0
 62
     7
  6
CONTINUOUS
  0
ENDTAB
  0
TABLE
  2
STYLE
 70
     2
  0
STYLE
  2
STANDARD
 70
     0
 40
0.0
 41
1.0
 50
0.0
 71
     0
 42
0.2
  3
TXT
  4
BIGFONT
  0
STYLE
  2
STANDARD1
 70
     0
 40
0.0
 41
1.0
 50
0.0
 71
     0
 42
3.0
  3
txt
  4

  0
ENDTAB
  0
TABLE
  2
VIEW
 70
     1
  0
VIEW
  2
ALL
 70
     0
 40
270.0
 10
220.99159663865549
 20
135.0
 41
0.0
 11
0.0
 21
0.0
 31
1.0
 12
0.0
 22
0.0
 32
0.0
 42
0.0
 43
0.0
 44
0.0
 50
0.0
 71
     0
  0
ENDTAB
  0
TABLE
  2
UCS
 70
     0
  0
ENDTAB
  0
TABLE
  2
APPID
 70
     8
  0
APPID
  2
ACAD
 70
     0
  0
APPID
  2
ACAD_MLEADERVER
 70
     0
  0
APPID
  2
ACAD_EXEMPT_FROM_CAD_STANDARDS
 70
     0
  0
APPID
  2
ACAD_DSTYLE_DIMJAG
 70
     0
  0
APPID
  2
ACAD_DSTYLE_DIMTALN
 70
     0
  0
APPID
  2
ACAD_DSTYLE_DIMRADIAL_EXTENSION
 70
     0
  0
APPID
  2
ACAD_PSEXT
 70
     0
  0
APPID
  2
ACAD_NAV_VCDISPLAY
 70
     0
  0
ENDTAB
  0
TABLE
  2
DIMSTYLE
 70
     1
  0
DIMSTYLE
  2
STANDARD
 70
     0
  3

  4

  5

  6

  7

 40
1.0
 41
0.18
 42
0.0625
 43
0.38
 44
0.18
 45
0.0
 46
0.0
 47
0.0
 48
0.0
140
0.18
141
0.09
142
0.0
143
25.399999999999999
144
1.0
145
0.0
146
1.0
147
0.09
 71
     0
 72
     0
 73
     1
 74
     1
 75
     0
 76
     0
 77
     0
 78
     0
170
     0
171
     2
172
     0
173
     0
174
     0
175
     0
176
     0
177
     0
178
     0
  0
ENDTAB
  0
ENDSEC
  0
SECTION
  2
BLOCKS
  0
BLOCK
  8
0
  2
$MODEL_SPACE
 70
     0
 10
0.0
 20
0.0
 30
0.0
  3
$MODEL_SPACE
  1

  0
ENDBLK
  5
11B
  8
0
  0
BLOCK
 67
     1
  8
0
  2
$PAPER_SPACE
 70
     0
 10
0.0
 20
0.0
 30
0.0
  3
$PAPER_SPACE
  1

  0
ENDBLK
  5
119
 67
     1
  8
0
  0
ENDSEC
  0
SECTION
  2
ENTITIES
  0
LINE
  5
3C40
  8
1
 10
513.64058952449284
 20
404.78721202906502
 30
0.0
 11
476.0109876901966
 21
404.78721202906502
 31
0.0
  0
CIRCLE
  5
3C48
  8
0
 10
494.82578860734469
 20
356.78721202906502
 30
0.0
 40
62.0
  0
ARC
  5
3C57
  8
0
 10
494.82578860734469
 20
356.78721202906502
 30
0.0
 40
46.188522893215591
 50
101.9889862409366
 51
78.011013759063417
  0
ARC
  5
3C5C
  8
0
 10
494.82578860734469
 20
356.78721202906502
 30
0.0
 40
15.5
 50
315.2086753399218
 51
54.504067349748411
  0
POLYLINE
  5
3C5D
  8
0
 66
     1
 10
0.0
 20
0.0
 30
0.0
  0
VERTEX
  5
92ED
  8
0
 10
473.65595497501249
 20
393.93741777898219
 30
0.0
  0
VERTEX
  5
92EE
  8
0
 10
473.67838047405178
 20
393.95005842204472
 30
0.0
  0
VERTEX
  5
92EF
  8
0
 10
473.72377995136281
 20
393.97481464563458
 30
0.0
  0
VERTEX
  5
92F0
  8
0
 10
473.76989019106111
 20
393.99884403847739
 30
0.0
  0
VERTEX
  5
92F1
  8
0
 10
473.79320386059561
 20
394.0105764341177
 30
0.0
  0
VERTEX
  5
92F2
  8
0
 10
473.81668549820392
 20
394.02211559849428
 30
0.0
  0
VERTEX
  5
92F3
  8
0
 10
473.86413910609838
 20
394.04459965719491
 30
0.0
  0
VERTEX
  5
92F4
  8
0
 10
473.91222331452849
 20
394.06626795869232
 30
0.0
  0
VERTEX
  5
92F5
  8
0
 10
473.96090963333597
 20
394.08709372529859
 30
0.0
  0
VERTEX
  5
92F6
  8
0
 10
474.0101689317143
 20
394.10705170988109
 30
0.0
  0
VERTEX
  5
92F7
  8
0
 10
474.05997159350909
 20
394.12611823498997
 30
0.0
  0
VERTEX
  5
92F8
  8
0
 10
474.08506733754848
 20
394.1353102368692
 30
0.0
  0
VERTEX
  5
92F9
  8
0
 10
474.1102876787478
 20
394.14427121863122
 30
0.0
  0
VERTEX
  5
92FA
  8
0
 10
474.16108709153008
 20
394.16149018641852
 30
0.0
  0
VERTEX
  5
92FB
  8
0
 10
474.21233970577981
 20
394.1777562548358
 30
0.0
  0
VERTEX
  5
92FC
  8
0
 10
474.2640149749534
 20
394.19305195711053
 30
0.0
  0
VERTEX
  5
92FD
  8
0
 10
474.31608148010991
 20
394.20736110814448
 30
0.0
  0
VERTEX
  5
92FE
  8
0
 10
474.36850700630612
 20
394.220668859282
 30
0.0
  0
VERTEX
  5
92FF
  8
0
 10
474.39484415199149
 20
394.22694295085302
 30
0.0
  0
VERTEX
  5
9300
  8
0
 10
474.42125868305379
 20
394.23296176112979
 30
0.0
  0
VERTEX
  5
9301
  8
0
 10
474.47430312683099
 20
394.24422781299961
 30
0.0
  0
VERTEX
  5
9302
  8
0
 10
474.52760658577898
 20
394.25445649918692
 30
0.0
  0
VERTEX
  5
9303
  8
0
 10
474.55434483390729
 20
394.25917895602709
 30
0.0
  0
VERTEX
  5
9304
  8
0
 10
474.58113508675677
 20
394.2636388122072
 30
0.0
  0
VERTEX
  5
9305
  8
0
 10
474.6348545849068
 20
394.27176726301821
 30
0.0
  0
VERTEX
  5
9306
  8
0
 10
474.68873111587072
 20
394.2788358781533
 30
0.0
  0
VERTEX
  5
9307
  8
0
 10
474.71571771488669
 20
394.28197129135913
 30
0.0
  0
VERTEX
  5
9308
  8
0
 10
474.74273198819168
 20
394.28484028861618
 30
0.0
  0
VERTEX
  5
9309
  8
0
 10
474.79683664470622
 20
394.28977846780128
 30
0.0
  0
VERTEX
  5
930A
  8
0
 10
474.85101518371101
 20
394.29364819441128
 30
0.0
  0
VERTEX
  5
930B
  8
0
 10
474.90523327686481
 20
394.29644817834873
 30
0.0
  0
VERTEX
  5
930C
  8
0
 10
474.95945616387547
 20
394.29817857937172
 30
0.0
  0
VERTEX
  5
930D
  8
0
 10
475.01364880091131
 20
394.29884104596988
 30
0.0
  0
VERTEX
  5
930E
  8
0
 10
475.04072278341641
 20
394.29877273261587
 30
0.0
  0
VERTEX
  5
930F
  8
0
 10
475.06777600871908
 20
394.29843874078517
 30
0.0
  0
VERTEX
  5
9310
  8
0
 10
475.1218026205521
 20
394.29697635278018
 30
0.0
  0
VERTEX
  5
9311
  8
0
 10
475.1756936300564
 20
394.29446009624951
 30
0.0
  0
VERTEX
  5
9312
  8
0
 10
475.2294143393093
 20
394.29089769669338
 30
0.0
  0
VERTEX
  5
9313
  8
0
 10
475.28293050722408
 20
394.2862983634592
 30
0.0
  0
VERTEX
  5
9314
  8
0
 10
475.3362084843165
 20
394.28067275061602
 30
0.0
  0
VERTEX
  5
9315
  8
0
 10
475.36274775012947
 20
394.27747881156898
 30
0.0
  0
VERTEX
  5
9316
  8
0
 10
475.38921496043338
 20
394.27403295821631
 30
0.0
  0
VERTEX
  5
9317
  8
0
 10
475.44191637848098
 20
394.26639261897168
 30
0.0
  0
VERTEX
  5
9318
  8
0
 10
475.49427895849021
 20
394.25776695180701
 30
0.0
  0
VERTEX
  5
9319
  8
0
 10
475.54626886355157
 20
394.24817278930612
 30
0.0
  0
VERTEX
  5
931A
  8
0
 10
475.59785236224837
 20
394.23762859055171
 30
0.0
  0
VERTEX
  5
931B
  8
0
 10
475.6489959873399
 20
394.22615443977259
 30
0.0
  0
VERTEX
  5
931C
  8
0
 10
475.67439249924809
 20
394.22007534959511
 30
0.0
  0
VERTEX
  5
931D
  8
0
 10
475.69966669087688
 20
394.21377203106942
 30
0.0
  0
VERTEX
  5
931E
  8
0
 10
475.74983199604901
 20
394.2005046393644
 30
0.0
  0
VERTEX
  5
931F
  8
0
 10
475.79946014615228
 20
394.18637707758211
 30
0.0
  0
VERTEX
  5
9320
  8
0
 10
475.84853027937362
 20
394.17141247937218
 30
0.0
  0
VERTEX
  5
9321
  8
0
 10
475.89740008699681
 20
394.15550782196158
 30
0.0
  0
VERTEX
  5
9322
  8
0
 10
475.9462317670729
 20
394.13859927305492
 30
0.0
  0
VERTEX
  5
9323
  8
0
 10
475.97062099761791
 20
394.1297676311894
 30
0.0
  0
VERTEX
  5
9324
  8
0
 10
475.99498594224542
 20
394.12068413473861
 30
0.0
  0
VERTEX
  5
9325
  8
0
 10
476.04362343968239
 20
394.10176136199817
 30
0.0
  0
VERTEX
  5
9326
  8
0
 10
476.09210543770467
 20
394.08183152038339
 30
0.0
  0
VERTEX
  5
9327
  8
0
 10
476.14039360608638
 20
394.06089673149069
 30
0.0
  0
VERTEX
  5
9328
  8
0
 10
476.18845024047022
 20
394.03896060620002
 30
0.0
  0
VERTEX
  5
9329
  8
0
 10
476.23623839117698
 20
394.01602816551679
 30
0.0
  0
VERTEX
  5
932A
  8
0
 10
476.260020475202
 20
394.0041902592335
 30
0.0
  0
VERTEX
  5
932B
  8
0
 10
476.28372198655961
 20
393.99210574883278
 30
0.0
  0
VERTEX
  5
932C
  8
0
 10
476.33086595089861
 20
393.96720090937572
 30
0.0
  0
VERTEX
  5
932D
  8
0
 10
476.37763631098181
 20
393.94132229982699
 30
0.0
  0
VERTEX
  5
932E
  8
0
 10
476.40087104857338
 20
393.92802083420668
 30
0.0
  0
VERTEX
  5
932F
  8
0
 10
476.42400003466832
 20
393.91447970068828
 30
0.0
  0
VERTEX
  5
9330
  8
0
 10
476.46992449967132
 20
393.88668430275891
 30
0.0
  0
VERTEX
  5
9331
  8
0
 10
476.51537746436492
 20
393.85794875344311
 30
0.0
  0
VERTEX
  5
9332
  8
0
 10
476.53791719616919
 20
393.8432327598199
 30
0.0
  0
VERTEX
  5
9333
  8
0
 10
476.5603272033249
 20
393.82828710385309
 30
0.0
  0
VERTEX
  5
9334
  8
0
 10
476.6047426358079
 20
393.79771474549841
 30
0.0
  0
VERTEX
  5
9335
  8
0
 10
476.6485934463953
 20
393.76624833721382
 30
0.0
  0
VERTEX
  5
9336
  8
0
 10
476.69185019805673
 20
393.73390572232131
 30
0.0
  0
VERTEX
  5
9337
  8
0
 10
476.7344844378099
 20
393.70070583595123
 30
0.0
  0
VERTEX
  5
9338
  8
0
 10
476.77646879509138
 20
393.66666860239849
 30
0.0
  0
VERTEX
  5
9339
  8
0
 10
476.79720903304673
 20
393.64934244970038
 30
0.0
  0
VERTEX
  5
933A
  8
0
 10
476.81777707285619
 20
393.631814822335
 30
0.0
  0
VERTEX
  5
933B
  8
0
 10
476.85838967408188
 20
393.59616126575008
 30
0.0
  0
VERTEX
  5
933C
  8
0
 10
476.89828951868589
 20
393.55972345150292
 30
0.0
  0
VERTEX
  5
933D
  8
0
 10
476.93745257542059
 20
393.52252444939228
 30
0.0
  0
VERTEX
  5
933E
  8
0
 10
476.97585545726309
 20
393.48458865295868
 30
0.0
  0
VERTEX
  5
933F
  8
0
 10
477.01347559176787
 20
393.44594166810191
 30
0.0
  0
VERTEX
  5
9340
  8
0
 10
477.03198532650021
 20
393.42635979346039
 30
0.0
  0
VERTEX
  5
9341
  8
0
 10
477.05029133767152
 20
393.40661023151648
 30
0.0
  0
VERTEX
  5
9342
  8
0
 10
477.08628209231802
 20
393.36662212085042
 30
0.0
  0
VERTEX
  5
9343
  8
0
 10
477.12142839011079
 20
393.32600605656432
 30
0.0
  0
VERTEX
  5
9344
  8
0
 10
477.15571199215327
 20
393.2847915953717
 30
0.0
  0
VERTEX
  5
9345
  8
0
 10
477.18911596719539
 20
393.24300901506388
 30
0.0
  0
VERTEX
  5
9346
  8
0
 10
477.22162476386518
 20
393.20068919053813
 30
0.0
  0
VERTEX
  5
9347
  8
0
 10
477.237538994847
 20
393.17933760270893
 30
0.0
  0
VERTEX
  5
9348
  8
0
 10
477.25322420343031
 20
393.15786355855141
 30
0.0
  0
VERTEX
  5
9349
  8
0
 10
477.28390114668878
 20
393.11456455421552
 30
0.0
  0
VERTEX
  5
934A
  8
0
 10
477.31364337543067
 20
393.07082584650658
 30
0.0
  0
VERTEX
  5
934B
  8
0
 10
477.34243971435052
 20
393.02668225929722
 30
0.0
  0
VERTEX
  5
934C
  8
0
 10
477.37028015119881
 20
392.9821696719344
 30
0.0
  0
VERTEX
  5
934D
  8
0
 10
477.39715594489178
 20
392.93732491309407
 30
0.0
  0
VERTEX
  5
934E
  8
0
 10
477.41022974050128
 20
392.91478971029358
 30
0.0
  0
VERTEX
  5
934F
  8
0
 10
477.42305972187307
 20
392.89218564799108
 30
0.0
  0
VERTEX
  5
9350
  8
0
 10
477.44798556100812
 20
392.84679025886192
 30
0.0
  0
VERTEX
  5
9351
  8
0
 10
477.47192906726667
 20
392.80117771849513
 30
0.0
  0
VERTEX
  5
9352
  8
0
 10
477.49488743440128
 20
392.75538745641632
 30
0.0
  0
VERTEX
  5
9353
  8
0
 10
477.51692166976039
 20
392.70932610273883
 30
0.0
  0
VERTEX
  5
9354
  8
0
 10
477.53822818126417
 20
392.66257301249408
 30
0.0
  0
VERTEX
  5
9355
  8
0
 10
477.5486045351019
 20
392.63893201168679
 30
0.0
  0
VERTEX
  5
9356
  8
0
 10
477.5587906529783
 20
392.61511970708119
 30
0.0
  0
VERTEX
  5
9357
  8
0
 10
477.57857588894598
 20
392.56699660837342
 30
0.0
  0
VERTEX
  5
9358
  8
0
 10
477.59755236696577
 20
392.51823518446679
 30
0.0
  0
VERTEX
  5
9359
  8
0
 10
477.6067279471676
 20
392.49362518090049
 30
0.0
  0
VERTEX
  5
935A
  8
0
 10
477.61569031225798
 20
392.46886778859761
 30
0.0
  0
VERTEX
  5
935B
  8
0
 10
477.63296175585219
 20
392.41892749197552
 30
0.0
  0
VERTEX
  5
935C
  8
0
 10
477.64934057780067
 20
392.3684479098327
 30
0.0
  0
VERTEX
  5
935D
  8
0
 10
477.65718760596042
 20
392.34301649574138
 30
0.0
  0
VERTEX
  5
935E
  8
0
 10
477.66480253512032
 20
392.31746302008958
 30
0.0
  0
VERTEX
  5
935F
  8
0
 10
477.6793252741478
 20
392.26600697415972
 30
0.0
  0
VERTEX
  5
9360
  8
0
 10
477.69288831473591
 20
392.21411394769649
 30
0.0
  0
VERTEX
  5
9361
  8
0
 10
477.7054728949692
 20
392.16181854167752
 30
0.0
  0
VERTEX
  5
9362
  8
0
 10
477.71706185515472
 20
392.10915625986843
 30
0.0
  0
VERTEX
  5
9363
  8
0
 10
477.72763969432208
 20
392.05616341022738
 30
0.0
  0
VERTEX
  5
9364
  8
0
 10
477.73254506808962
 20
392.02955454789679
 30
0.0
  0
VERTEX
  5
9365
  8
0
 10
477.7371926301384
 20
392.00287693935172
 30
0.0
  0
VERTEX
  5
9366
  8
0
 10
477.74570864341121
 20
391.94933426509539
 30
0.0
  0
VERTEX
  5
9367
  8
0
 10
477.75317750740049
 20
391.89557310683142
 30
0.0
  0
VERTEX
  5
9368
  8
0
 10
477.75959080201568
 20
391.84163131284311
 30
0.0
  0
VERTEX
  5
9369
  8
0
 10
477.76494191280102
 20
391.78754668436562
 30
0.0
  0
VERTEX
  5
936A
  8
0
 10
477.76922603881462
 20
391.73335644377693
 30
0.0
  0
VERTEX
  5
936B
  8
0
 10
477.77096715642449
 20
391.70622986388832
 30
0.0
  0
VERTEX
  5
936C
  8
0
 10
477.7724406288657
 20
391.6790868486554
 30
0.0
  0
VERTEX
  5
936D
  8
0
 10
477.77458376689651
 20
391.6247707029616
 30
0.0
  0
VERTEX
  5
936E
  8
0
 10
477.7756548213215
 20
391.57044647337699
 30
0.0
  0
VERTEX
  5
936F
  8
0
 10
477.77578860734468
 20
391.54329335678102
 30
0.0
  0
SEQEND
  5
9370
  8
0
  0
ARC
  5
3C5E
  8
0
 10
494.82578860734469
 20
356.78721202906502
 30
0.0
 40
42.75862068965516
 50
119.6764071726323
 51
240.3235926779422
  0
POLYLINE
  5
3C5F
  8
0
 66
     1
 10
0.0
 20
0.0
 30
0.0
  0
VERTEX
  5
9371
  8
0
 10
477.77578860734468
 20
322.03113070134879
 30
0.0
  0
VERTEX
  5
9372
  8
0
 10
477.7756548213215
 20
322.00397758475282
 30
0.0
  0
VERTEX
  5
9373
  8
0
 10
477.77458376689651
 20
321.9496533551681
 30
0.0
  0
VERTEX
  5
9374
  8
0
 10
477.7724406288657
 20
321.89533720947458
 30
0.0
  0
VERTEX
  5
9375
  8
0
 10
477.77096715642449
 20
321.86819419424148
 30
0.0
  0
VERTEX
  5
9376
  8
0
 10
477.76922603881462
 20
321.84106761435299
 30
0.0
  0
VERTEX
  5
9377
  8
0
 10
477.76494191280102
 20
321.7868773737643
 30
0.0
  0
VERTEX
  5
9378
  8
0
 10
477.75959080201568
 20
321.7327927452867
 30
0.0
  0
VERTEX
  5
9379
  8
0
 10
477.75317750740049
 20
321.67885095129839
 30
0.0
  0
VERTEX
  5
937A
  8
0
 10
477.74570864341121
 20
321.62508979303442
 30
0.0
  0
VERTEX
  5
937B
  8
0
 10
477.7371926301384
 20
321.57154711877808
 30
0.0
  0
VERTEX
  5
937C
  8
0
 10
477.73254506808962
 20
321.54486951023313
 30
0.0
  0
VERTEX
  5
937D
  8
0
 10
477.72763969432208
 20
321.51826064790242
 30
0.0
  0
VERTEX
  5
937E
  8
0
 10
477.71706185515472
 20
321.46526779826138
 30
0.0
  0
VERTEX
  5
937F
  8
0
 10
477.7054728949692
 20
321.41260551645257
 30
0.0
  0
VERTEX
  5
9380
  8
0
 10
477.69288831473591
 20
321.36031011043332
 30
0.0
  0
VERTEX
  5
9381
  8
0
 10
477.6793252741478
 20
321.30841708397031
 30
0.0
  0
VERTEX
  5
9382
  8
0
 10
477.66480253511997
 20
321.25696103804017
 30
0.0
  0
VERTEX
  5
9383
  8
0
 10
477.65718760596042
 20
321.23140756238843
 30
0.0
  0
VERTEX
  5
9384
  8
0
 10
477.64934057780067
 20
321.20597614829728
 30
0.0
  0
VERTEX
  5
9385
  8
0
 10
477.63296175585219
 20
321.15549656615428
 30
0.0
  0
VERTEX
  5
9386
  8
0
 10
477.61569031225798
 20
321.10555626953249
 30
0.0
  0
VERTEX
  5
9387
  8
0
 10
477.6067279471676
 20
321.08079887722931
 30
0.0
  0
VERTEX
  5
9388
  8
0
 10
477.59755236696577
 20
321.05618887366319
 30
0.0
  0
VERTEX
  5
9389
  8
0
 10
477.57857588894598
 20
321.00742744975639
 30
0.0
  0
VERTEX
  5
938A
  8
0
 10
477.5587906529783
 20
320.95930435104867
 30
0.0
  0
VERTEX
  5
938B
  8
0
 10
477.5486045351019
 20
320.93549204644307
 30
0.0
  0
VERTEX
  5
938C
  8
0
 10
477.53822818126417
 20
320.91185104563567
 30
0.0
  0
VERTEX
  5
938D
  8
0
 10
477.51692166976039
 20
320.86509795539098
 30
0.0
  0
VERTEX
  5
938E
  8
0
 10
477.49488743440162
 20
320.81903660171349
 30
0.0
  0
VERTEX
  5
938F
  8
0
 10
477.47192906726667
 20
320.77324633963468
 30
0.0
  0
VERTEX
  5
9390
  8
0
 10
477.44798556100812
 20
320.72763379926789
 30
0.0
  0
VERTEX
  5
9391
  8
0
 10
477.42305972187307
 20
320.68223841013861
 30
0.0
  0
VERTEX
  5
9392
  8
0
 10
477.41022974050128
 20
320.65963434783617
 30
0.0
  0
VERTEX
  5
9393
  8
0
 10
477.39715594489178
 20
320.63709914503568
 30
0.0
  0
VERTEX
  5
9394
  8
0
 10
477.37028015119881
 20
320.59225438619529
 30
0.0
  0
VERTEX
  5
9395
  8
0
 10
477.34243971435052
 20
320.54774179883259
 30
0.0
  0
VERTEX
  5
9396
  8
0
 10
477.31364337543067
 20
320.5035982116234
 30
0.0
  0
VERTEX
  5
9397
  8
0
 10
477.28390114668878
 20
320.4598595039144
 30
0.0
  0
VERTEX
  5
9398
  8
0
 10
477.25322420343031
 20
320.4165604995784
 30
0.0
  0
VERTEX
  5
9399
  8
0
 10
477.237538994847
 20
320.39508645542088
 30
0.0
  0
VERTEX
  5
939A
  8
0
 10
477.22162476386518
 20
320.37373486759168
 30
0.0
  0
VERTEX
  5
939B
  8
0
 10
477.18911596719539
 20
320.3314150430661
 30
0.0
  0
VERTEX
  5
939C
  8
0
 10
477.15571199215327
 20
320.28963246275828
 30
0.0
  0
VERTEX
  5
939D
  8
0
 10
477.12142839011079
 20
320.24841800156548
 30
0.0
  0
VERTEX
  5
939E
  8
0
 10
477.08628209231802
 20
320.2078019372795
 30
0.0
  0
VERTEX
  5
939F
  8
0
 10
477.05029133767152
 20
320.1678138266135
 30
0.0
  0
VERTEX
  5
93A0
  8
0
 10
477.03198532650021
 20
320.14806426466942
 30
0.0
  0
VERTEX
  5
93A1
  8
0
 10
477.01347559176787
 20
320.1284823900279
 30
0.0
  0
VERTEX
  5
93A2
  8
0
 10
476.97585545726309
 20
320.08983540517107
 30
0.0
  0
VERTEX
  5
93A3
  8
0
 10
476.93745257542059
 20
320.05189960873747
 30
0.0
  0
VERTEX
  5
93A4
  8
0
 10
476.89828951868589
 20
320.01470060662689
 30
0.0
  0
VERTEX
  5
93A5
  8
0
 10
476.85838967408188
 20
319.97826279237972
 30
0.0
  0
VERTEX
  5
93A6
  8
0
 10
476.81777707285619
 20
319.94260923579498
 30
0.0
  0
VERTEX
  5
93A7
  8
0
 10
476.79720903304673
 20
319.92508160842942
 30
0.0
  0
VERTEX
  5
93A8
  8
0
 10
476.77646879509138
 20
319.90775545573132
 30
0.0
  0
VERTEX
  5
93A9
  8
0
 10
476.7344844378099
 20
319.87371822217858
 30
0.0
  0
VERTEX
  5
93AA
  8
0
 10
476.69185019805673
 20
319.8405183358085
 30
0.0
  0
VERTEX
  5
93AB
  8
0
 10
476.6485934463953
 20
319.80817572091598
 30
0.0
  0
VERTEX
  5
93AC
  8
0
 10
476.6047426358079
 20
319.77670931263162
 30
0.0
  0
VERTEX
  5
93AD
  8
0
 10
476.5603272033249
 20
319.74613695427672
 30
0.0
  0
VERTEX
  5
93AE
  8
0
 10
476.53791719616919
 20
319.73119129830991
 30
0.0
  0
VERTEX
  5
93AF
  8
0
 10
476.51537746436492
 20
319.7164753046867
 30
0.0
  0
VERTEX
  5
93B0
  8
0
 10
476.46992449967132
 20
319.6877397553709
 30
0.0
  0
VERTEX
  5
93B1
  8
0
 10
476.42400003466832
 20
319.65994435744182
 30
0.0
  0
VERTEX
  5
93B2
  8
0
 10
476.40087104857338
 20
319.64640322392307
 30
0.0
  0
VERTEX
  5
93B3
  8
0
 10
476.3776363109821
 20
319.63310175830281
 30
0.0
  0
VERTEX
  5
93B4
  8
0
 10
476.33086595089861
 20
319.60722314875431
 30
0.0
  0
VERTEX
  5
93B5
  8
0
 10
476.28372198655961
 20
319.58231830929691
 30
0.0
  0
VERTEX
  5
93B6
  8
0
 10
476.260020475202
 20
319.57023379889631
 30
0.0
  0
VERTEX
  5
93B7
  8
0
 10
476.23623839117698
 20
319.55839589261302
 30
0.0
  0
VERTEX
  5
93B8
  8
0
 10
476.18845024047022
 20
319.53546345192979
 30
0.0
  0
VERTEX
  5
93B9
  8
0
 10
476.14039360608638
 20
319.51352732663912
 30
0.0
  0
VERTEX
  5
93BA
  8
0
 10
476.09210543770467
 20
319.4925925377467
 30
0.0
  0
VERTEX
  5
93BB
  8
0
 10
476.04362343968239
 20
319.47266269613158
 30
0.0
  0
VERTEX
  5
93BC
  8
0
 10
475.99498594224542
 20
319.4537399233912
 30
0.0
  0
VERTEX
  5
93BD
  8
0
 10
475.97062099761791
 20
319.44465642694053
 30
0.0
  0
VERTEX
  5
93BE
  8
0
 10
475.9462317670729
 20
319.43582478507489
 30
0.0
  0
VERTEX
  5
93BF
  8
0
 10
475.89740008699681
 20
319.41891623616817
 30
0.0
  0
VERTEX
  5
93C0
  8
0
 10
475.84853027937362
 20
319.40301157875768
 30
0.0
  0
VERTEX
  5
93C1
  8
0
 10
475.79946014615228
 20
319.38804698054781
 30
0.0
  0
VERTEX
  5
93C2
  8
0
 10
475.74983199604901
 20
319.37391941876552
 30
0.0
  0
VERTEX
  5
93C3
  8
0
 10
475.69966669087688
 20
319.36065202706038
 30
0.0
  0
VERTEX
  5
93C4
  8
0
 10
475.67439249924809
 20
319.35434870853481
 30
0.0
  0
VERTEX
  5
93C5
  8
0
 10
475.6489959873399
 20
319.34826961835722
 30
0.0
  0
VERTEX
  5
93C6
  8
0
 10
475.59785236224837
 20
319.3367954675781
 30
0.0
  0
VERTEX
  5
93C7
  8
0
 10
475.54626886355157
 20
319.32625126882368
 30
0.0
  0
VERTEX
  5
93C8
  8
0
 10
475.49427895849021
 20
319.31665710632279
 30
0.0
  0
VERTEX
  5
93C9
  8
0
 10
475.44191637848098
 20
319.30803143915813
 30
0.0
  0
VERTEX
  5
93CA
  8
0
 10
475.38921496043338
 20
319.30039109991361
 30
0.0
  0
VERTEX
  5
93CB
  8
0
 10
475.36274775012947
 20
319.29694524656082
 30
0.0
  0
VERTEX
  5
93CC
  8
0
 10
475.3362084843165
 20
319.29375130751379
 30
0.0
  0
VERTEX
  5
93CD
  8
0
 10
475.28293050722408
 20
319.28812569467061
 30
0.0
  0
VERTEX
  5
93CE
  8
0
 10
475.22941433930959
 20
319.2835263614366
 30
0.0
  0
VERTEX
  5
93CF
  8
0
 10
475.1756936300564
 20
319.2799639618803
 30
0.0
  0
VERTEX
  5
93D0
  8
0
 10
475.1218026205521
 20
319.2774477053498
 30
0.0
  0
VERTEX
  5
93D1
  8
0
 10
475.06777600871908
 20
319.27598531734458
 30
0.0
  0
VERTEX
  5
93D2
  8
0
 10
475.04072278341641
 20
319.27565132551388
 30
0.0
  0
VERTEX
  5
93D3
  8
0
 10
475.01364880091131
 20
319.27558301215993
 30
0.0
  0
VERTEX
  5
93D4
  8
0
 10
474.95945616387547
 20
319.27624547875809
 30
0.0
  0
VERTEX
  5
93D5
  8
0
 10
474.90523327686481
 20
319.27797587978108
 30
0.0
  0
VERTEX
  5
93D6
  8
0
 10
474.85101518371101
 20
319.28077586371847
 30
0.0
  0
VERTEX
  5
93D7
  8
0
 10
474.79683664470622
 20
319.28464559032852
 30
0.0
  0
VERTEX
  5
93D8
  8
0
 10
474.74273198819168
 20
319.28958376951363
 30
0.0
  0
VERTEX
  5
93D9
  8
0
 10
474.71571771488669
 20
319.29245276677068
 30
0.0
  0
VERTEX
  5
93DA
  8
0
 10
474.68873111587072
 20
319.29558817997662
 30
0.0
  0
VERTEX
  5
93DB
  8
0
 10
474.6348545849068
 20
319.3026567951116
 30
0.0
  0
VERTEX
  5
93DC
  8
0
 10
474.58113508675677
 20
319.3107852459226
 30
0.0
  0
VERTEX
  5
93DD
  8
0
 10
474.55434483390729
 20
319.31524510210272
 30
0.0
  0
VERTEX
  5
93DE
  8
0
 10
474.52760658577898
 20
319.31996755894301
 30
0.0
  0
VERTEX
  5
93DF
  8
0
 10
474.47430312683099
 20
319.3301962451302
 30
0.0
  0
VERTEX
  5
93E0
  8
0
 10
474.42125868305402
 20
319.34146229700019
 30
0.0
  0
VERTEX
  5
93E1
  8
0
 10
474.39484415199149
 20
319.34748110727691
 30
0.0
  0
VERTEX
  5
93E2
  8
0
 10
474.36850700630612
 20
319.35375519884781
 30
0.0
  0
VERTEX
  5
93E3
  8
0
 10
474.31608148011009
 20
319.36706294998532
 30
0.0
  0
VERTEX
  5
93E4
  8
0
 10
474.2640149749534
 20
319.38137210101928
 30
0.0
  0
VERTEX
  5
93E5
  8
0
 10
474.21233970577981
 20
319.39666780329401
 30
0.0
  0
VERTEX
  5
93E6
  8
0
 10
474.16108709151263
 20
319.41293387171697
 30
0.0
  0
VERTEX
  5
93E7
  8
0
 10
474.11028767570099
 20
319.4301528405648
 30
0.0
  0
VERTEX
  5
93E8
  8
0
 10
474.08506733126057
 20
319.43911382352911
 30
0.0
  0
VERTEX
  5
93E9
  8
0
 10
474.05997158301989
 20
319.44830582703969
 30
0.0
  0
VERTEX
  5
93EA
  8
0
 10
474.01016891050563
 20
319.46737235660441
 30
0.0
  0
VERTEX
  5
93EB
  8
0
 10
473.96090959925692
 20
319.48733034702298
 30
0.0
  0
VERTEX
  5
93EC
  8
0
 10
473.91222326653502
 20
319.50815612051491
 30
0.0
  0
VERTEX
  5
93ED
  8
0
 10
473.8641390442267
 20
319.52982442953169
 30
0.0
  0
VERTEX
  5
93EE
  8
0
 10
473.81668542353623
 20
319.55230849588918
 30
0.0
  0
VERTEX
  5
93EF
  8
0
 10
473.79320378025147
 20
319.56384766396889
 30
0.0
  0
VERTEX
  5
93F0
  8
0
 10
473.76989010568388
 20
319.57558006312559
 30
0.0
  0
VERTEX
  5
93F1
  8
0
 10
473.72377985831872
 20
319.59960946210492
 30
0.0
  0
VERTEX
  5
93F2
  8
0
 10
473.67838037728501
 20
319.6243656900362
 30
0.0
  0
VERTEX
  5
93F3
  8
0
 10
473.65595487812851
 20
319.63700633435639
 30
0.0
  0
SEQEND
  5
93F4
  8
0
  0
POLYLINE
  5
3C63
  8
0
 66
     1
 10
0.0
 20
0.0
 30
0.0
  0
VERTEX
  5
93F5
  8
0
 10
515.995622239677
 20
319.63700627914761
 30
0.0
  0
VERTEX
  5
93F6
  8
0
 10
515.9731967406376
 20
319.62436563608509
 30
0.0
  0
VERTEX
  5
93F7
  8
0
 10
515.92779726332674
 20
319.59960941249523
 30
0.0
  0
VERTEX
  5
93F8
  8
0
 10
515.88168702362816
 20
319.57558001965242
 30
0.0
  0
VERTEX
  5
93F9
  8
0
 10
515.85837335409383
 20
319.563847624012
 30
0.0
  0
VERTEX
  5
93FA
  8
0
 10
515.83489171648557
 20
319.55230845963558
 30
0.0
  0
VERTEX
  5
93FB
  8
0
 10
515.787438108591
 20
319.5298244009349
 30
0.0
  0
VERTEX
  5
93FC
  8
0
 10
515.73935390016095
 20
319.50815609943749
 30
0.0
  0
VERTEX
  5
93FD
  8
0
 10
515.69066758135341
 20
319.48733033283122
 30
0.0
  0
VERTEX
  5
93FE
  8
0
 10
515.64140828297514
 20
319.46737234824872
 30
0.0
  0
VERTEX
  5
93FF
  8
0
 10
515.59160562118041
 20
319.44830582314
 30
0.0
  0
VERTEX
  5
9400
  8
0
 10
515.56650987714102
 20
319.43911382126078
 30
0.0
  0
VERTEX
  5
9401
  8
0
 10
515.54128953594159
 20
319.4301528394987
 30
0.0
  0
VERTEX
  5
9402
  8
0
 10
515.49049012315925
 20
319.41293387171129
 30
0.0
  0
VERTEX
  5
9403
  8
0
 10
515.43923750890963
 20
319.39666780329401
 30
0.0
  0
VERTEX
  5
9404
  8
0
 10
515.3875622397361
 20
319.38137210101928
 30
0.0
  0
VERTEX
  5
9405
  8
0
 10
515.33549573457935
 20
319.36706294998532
 30
0.0
  0
VERTEX
  5
9406
  8
0
 10
515.28307020838326
 20
319.35375519884781
 30
0.0
  0
VERTEX
  5
9407
  8
0
 10
515.256733062698
 20
319.34748110727691
 30
0.0
  0
VERTEX
  5
9408
  8
0
 10
515.23031853163559
 20
319.34146229700019
 30
0.0
  0
VERTEX
  5
9409
  8
0
 10
515.17727408785845
 20
319.3301962451302
 30
0.0
  0
VERTEX
  5
940A
  8
0
 10
515.12397062891046
 20
319.31996755894301
 30
0.0
  0
VERTEX
  5
940B
  8
0
 10
515.09723238078197
 20
319.31524510210272
 30
0.0
  0
VERTEX
  5
940C
  8
0
 10
515.07044212793267
 20
319.3107852459226
 30
0.0
  0
VERTEX
  5
940D
  8
0
 10
515.01672262978263
 20
319.3026567951116
 30
0.0
  0
VERTEX
  5
940E
  8
0
 10
514.96284609881866
 20
319.29558817997662
 30
0.0
  0
VERTEX
  5
940F
  8
0
 10
514.93585949980275
 20
319.29245276677068
 30
0.0
  0
VERTEX
  5
9410
  8
0
 10
514.90884522649765
 20
319.28958376951363
 30
0.0
  0
VERTEX
  5
9411
  8
0
 10
514.85474056998316
 20
319.28464559032852
 30
0.0
  0
VERTEX
  5
9412
  8
0
 10
514.80056203097843
 20
319.28077586371847
 30
0.0
  0
VERTEX
  5
9413
  8
0
 10
514.74634393782446
 20
319.27797587978108
 30
0.0
  0
VERTEX
  5
9414
  8
0
 10
514.69212105081374
 20
319.27624547875809
 30
0.0
  0
VERTEX
  5
9415
  8
0
 10
514.63792841377813
 20
319.27558301215993
 30
0.0
  0
VERTEX
  5
9416
  8
0
 10
514.61085443127297
 20
319.27565132551388
 30
0.0
  0
VERTEX
  5
9417
  8
0
 10
514.58380120597019
 20
319.27598531734458
 30
0.0
  0
VERTEX
  5
9418
  8
0
 10
514.52977459413717
 20
319.2774477053498
 30
0.0
  0
VERTEX
  5
9419
  8
0
 10
514.47588358463304
 20
319.2799639618803
 30
0.0
  0
VERTEX
  5
941A
  8
0
 10
514.42216287537997
 20
319.2835263614366
 30
0.0
  0
VERTEX
  5
941B
  8
0
 10
514.36864670746525
 20
319.28812569467061
 30
0.0
  0
VERTEX
  5
941C
  8
0
 10
514.31536873037294
 20
319.29375130751379
 30
0.0
  0
VERTEX
  5
941D
  8
0
 10
514.28882946455985
 20
319.29694524656082
 30
0.0
  0
VERTEX
  5
941E
  8
0
 10
514.262362254256
 20
319.30039109991361
 30
0.0
  0
VERTEX
  5
941F
  8
0
 10
514.20966083620851
 20
319.30803143915813
 30
0.0
  0
VERTEX
  5
9420
  8
0
 10
514.15729825619917
 20
319.31665710632279
 30
0.0
  0
VERTEX
  5
9421
  8
0
 10
514.10530835113775
 20
319.32625126882368
 30
0.0
  0
VERTEX
  5
9422
  8
0
 10
514.05372485244084
 20
319.3367954675781
 30
0.0
  0
VERTEX
  5
9423
  8
0
 10
514.00258122734954
 20
319.34826961835722
 30
0.0
  0
VERTEX
  5
9424
  8
0
 10
513.97718471544135
 20
319.35434870853481
 30
0.0
  0
VERTEX
  5
9425
  8
0
 10
513.95191052381244
 20
319.36065202706038
 30
0.0
  0
VERTEX
  5
9426
  8
0
 10
513.90174521864026
 20
319.37391941876552
 30
0.0
  0
VERTEX
  5
9427
  8
0
 10
513.85211706853715
 20
319.38804698054781
 30
0.0
  0
VERTEX
  5
9428
  8
0
 10
513.80304693531593
 20
319.40301157875768
 30
0.0
  0
VERTEX
  5
9429
  8
0
 10
513.75417712769263
 20
319.41891623616817
 30
0.0
  0
VERTEX
  5
942A
  8
0
 10
513.70534544761654
 20
319.43582478507489
 30
0.0
  0
VERTEX
  5
942B
  8
0
 10
513.68095621707153
 20
319.44465642694053
 30
0.0
  0
VERTEX
  5
942C
  8
0
 10
513.65659127244396
 20
319.4537399233912
 30
0.0
  0
VERTEX
  5
942D
  8
0
 10
513.60795377500676
 20
319.47266269613158
 30
0.0
  0
VERTEX
  5
942E
  8
0
 10
513.55947177698465
 20
319.4925925377467
 30
0.0
  0
VERTEX
  5
942F
  8
0
 10
513.51118360860289
 20
319.51352732663912
 30
0.0
  0
VERTEX
  5
9430
  8
0
 10
513.46312697421922
 20
319.53546345192979
 30
0.0
  0
VERTEX
  5
9431
  8
0
 10
513.41533882351246
 20
319.55839589261302
 30
0.0
  0
VERTEX
  5
9432
  8
0
 10
513.39155673948744
 20
319.57023379889631
 30
0.0
  0
VERTEX
  5
9433
  8
0
 10
513.36785522812977
 20
319.58231830929691
 30
0.0
  0
VERTEX
  5
9434
  8
0
 10
513.32071126379083
 20
319.60722314875431
 30
0.0
  0
VERTEX
  5
9435
  8
0
 10
513.2739409037074
 20
319.63310175830281
 30
0.0
  0
VERTEX
  5
9436
  8
0
 10
513.25070616611595
 20
319.64640322392307
 30
0.0
  0
VERTEX
  5
9437
  8
0
 10
513.22757718002117
 20
319.65994435744182
 30
0.0
  0
VERTEX
  5
9438
  8
0
 10
513.181652715018
 20
319.6877397553709
 30
0.0
  0
VERTEX
  5
9439
  8
0
 10
513.13619975032452
 20
319.7164753046867
 30
0.0
  0
VERTEX
  5
943A
  8
0
 10
513.11366001852025
 20
319.73119129830991
 30
0.0
  0
VERTEX
  5
943B
  8
0
 10
513.09125001136454
 20
319.74613695427672
 30
0.0
  0
VERTEX
  5
943C
  8
0
 10
513.04683457888154
 20
319.77670931263162
 30
0.0
  0
VERTEX
  5
943D
  8
0
 10
513.00298376829414
 20
319.80817572091598
 30
0.0
  0
VERTEX
  5
943E
  8
0
 10
512.95972701663266
 20
319.8405183358085
 30
0.0
  0
VERTEX
  5
943F
  8
0
 10
512.9170927768796
 20
319.87371822217858
 30
0.0
  0
VERTEX
  5
9440
  8
0
 10
512.87510841959806
 20
319.90775545573149
 30
0.0
  0
VERTEX
  5
9441
  8
0
 10
512.85436818164249
 20
319.92508160842942
 30
0.0
  0
VERTEX
  5
9442
  8
0
 10
512.83380014183331
 20
319.94260923579498
 30
0.0
  0
VERTEX
  5
9443
  8
0
 10
512.79318754060739
 20
319.97826279237972
 30
0.0
  0
VERTEX
  5
9444
  8
0
 10
512.75328769600333
 20
320.01470060662689
 30
0.0
  0
VERTEX
  5
9445
  8
0
 10
512.71412463926856
 20
320.05189960873747
 30
0.0
  0
VERTEX
  5
9446
  8
0
 10
512.67572175742634
 20
320.08983540517107
 30
0.0
  0
VERTEX
  5
9447
  8
0
 10
512.63810162292145
 20
320.1284823900279
 30
0.0
  0
VERTEX
  5
9448
  8
0
 10
512.61959188818923
 20
320.14806426466942
 30
0.0
  0
VERTEX
  5
9449
  8
0
 10
512.60128587701786
 20
320.16781382661333
 30
0.0
  0
VERTEX
  5
944A
  8
0
 10
512.56529512237137
 20
320.2078019372795
 30
0.0
  0
VERTEX
  5
944B
  8
0
 10
512.53014882457865
 20
320.24841800156548
 30
0.0
  0
VERTEX
  5
944C
  8
0
 10
512.49586522253617
 20
320.28963246275828
 30
0.0
  0
VERTEX
  5
944D
  8
0
 10
512.46246124749405
 20
320.3314150430661
 30
0.0
  0
VERTEX
  5
944E
  8
0
 10
512.42995245082398
 20
320.37373486759168
 30
0.0
  0
VERTEX
  5
944F
  8
0
 10
512.4140382198425
 20
320.39508645542088
 30
0.0
  0
VERTEX
  5
9450
  8
0
 10
512.39835301125913
 20
320.4165604995784
 30
0.0
  0
VERTEX
  5
9451
  8
0
 10
512.36767606800072
 20
320.4598595039144
 30
0.0
  0
VERTEX
  5
9452
  8
0
 10
512.33793383925854
 20
320.5035982116234
 30
0.0
  0
VERTEX
  5
9453
  8
0
 10
512.30913750033892
 20
320.54774179883259
 30
0.0
  0
VERTEX
  5
9454
  8
0
 10
512.28129706349068
 20
320.59225438619529
 30
0.0
  0
VERTEX
  5
9455
  8
0
 10
512.2544212697976
 20
320.63709914503568
 30
0.0
  0
VERTEX
  5
9456
  8
0
 10
512.24134747418816
 20
320.65963434783617
 30
0.0
  0
VERTEX
  5
9457
  8
0
 10
512.22851749281631
 20
320.68223841013861
 30
0.0
  0
VERTEX
  5
9458
  8
0
 10
512.20359165368131
 20
320.72763379926789
 30
0.0
  0
VERTEX
  5
9459
  8
0
 10
512.17964814742265
 20
320.77324633963468
 30
0.0
  0
VERTEX
  5
945A
  8
0
 10
512.15668978028793
 20
320.81903660171349
 30
0.0
  0
VERTEX
  5
945B
  8
0
 10
512.13465554492905
 20
320.86509795539098
 30
0.0
  0
VERTEX
  5
945C
  8
0
 10
512.11334903342515
 20
320.91185104563567
 30
0.0
  0
VERTEX
  5
945D
  8
0
 10
512.10297267958754
 20
320.93549204644307
 30
0.0
  0
VERTEX
  5
945E
  8
0
 10
512.09278656171114
 20
320.95930435104867
 30
0.0
  0
VERTEX
  5
945F
  8
0
 10
512.07300132574346
 20
321.00742744975639
 30
0.0
  0
VERTEX
  5
9460
  8
0
 10
512.05402484772367
 20
321.05618887366302
 30
0.0
  0
VERTEX
  5
9461
  8
0
 10
512.04484926752184
 20
321.08079887722931
 30
0.0
  0
VERTEX
  5
9462
  8
0
 10
512.03588690243134
 20
321.10555626953249
 30
0.0
  0
VERTEX
  5
9463
  8
0
 10
512.0186154588373
 20
321.15549656615428
 30
0.0
  0
VERTEX
  5
9464
  8
0
 10
512.0022366368886
 20
321.20597614829728
 30
0.0
  0
VERTEX
  5
9465
  8
0
 10
511.99438960872902
 20
321.23140756238843
 30
0.0
  0
VERTEX
  5
9466
  8
0
 10
511.98677467956918
 20
321.25696103804017
 30
0.0
  0
VERTEX
  5
9467
  8
0
 10
511.97225194054153
 20
321.30841708397031
 30
0.0
  0
VERTEX
  5
9468
  8
0
 10
511.95868889995359
 20
321.36031011043332
 30
0.0
  0
VERTEX
  5
9469
  8
0
 10
511.94610431972018
 20
321.41260551645257
 30
0.0
  0
VERTEX
  5
946A
  8
0
 10
511.93451535953483
 20
321.46526779826138
 30
0.0
  0
VERTEX
  5
946B
  8
0
 10
511.92393752036742
 20
321.51826064790242
 30
0.0
  0
VERTEX
  5
946C
  8
0
 10
511.91903214659987
 20
321.54486951023313
 30
0.0
  0
VERTEX
  5
946D
  8
0
 10
511.91438458455082
 20
321.57154711877808
 30
0.0
  0
VERTEX
  5
946E
  8
0
 10
511.90586857127818
 20
321.62508979303442
 30
0.0
  0
VERTEX
  5
946F
  8
0
 10
511.89839970728889
 20
321.67885095129839
 30
0.0
  0
VERTEX
  5
9470
  8
0
 10
511.8919864126737
 20
321.7327927452867
 30
0.0
  0
VERTEX
  5
9471
  8
0
 10
511.88663530188842
 20
321.7868773737643
 30
0.0
  0
VERTEX
  5
9472
  8
0
 10
511.88235117587487
 20
321.84106761435299
 30
0.0
  0
VERTEX
  5
9473
  8
0
 10
511.88061005826489
 20
321.86819419424148
 30
0.0
  0
VERTEX
  5
9474
  8
0
 10
511.87913658582369
 20
321.89533720947458
 30
0.0
  0
VERTEX
  5
9475
  8
0
 10
511.87699344779298
 20
321.9496533551681
 30
0.0
  0
VERTEX
  5
9476
  8
0
 10
511.875922393368
 20
322.00397758475282
 30
0.0
  0
VERTEX
  5
9477
  8
0
 10
511.8757886073447
 20
322.03113070134879
 30
0.0
  0
SEQEND
  5
9478
  8
0
  0
POLYLINE
  5
3C65
  8
0
 66
     1
 10
0.0
 20
0.0
 30
0.0
  0
VERTEX
  5
9479
  8
0
 10
511.8757886073447
 20
391.54329335678102
 30
0.0
  0
VERTEX
  5
947A
  8
0
 10
511.875922393368
 20
391.57044647337699
 30
0.0
  0
VERTEX
  5
947B
  8
0
 10
511.87699344779298
 20
391.6247707029616
 30
0.0
  0
VERTEX
  5
947C
  8
0
 10
511.87913658582369
 20
391.6790868486554
 30
0.0
  0
VERTEX
  5
947D
  8
0
 10
511.88061005826489
 20
391.70622986388832
 30
0.0
  0
VERTEX
  5
947E
  8
0
 10
511.88235117587487
 20
391.73335644377693
 30
0.0
  0
VERTEX
  5
947F
  8
0
 10
511.88663530188842
 20
391.78754668436562
 30
0.0
  0
VERTEX
  5
9480
  8
0
 10
511.8919864126737
 20
391.84163131284311
 30
0.0
  0
VERTEX
  5
9481
  8
0
 10
511.89839970728889
 20
391.89557310683142
 30
0.0
  0
VERTEX
  5
9482
  8
0
 10
511.90586857127818
 20
391.94933426509539
 30
0.0
  0
VERTEX
  5
9483
  8
0
 10
511.91438458455082
 20
392.00287693935172
 30
0.0
  0
VERTEX
  5
9484
  8
0
 10
511.91903214659987
 20
392.02955454789679
 30
0.0
  0
VERTEX
  5
9485
  8
0
 10
511.92393752036742
 20
392.05616341022738
 30
0.0
  0
VERTEX
  5
9486
  8
0
 10
511.93451535953483
 20
392.10915625986843
 30
0.0
  0
VERTEX
  5
9487
  8
0
 10
511.94610431972018
 20
392.16181854167752
 30
0.0
  0
VERTEX
  5
9488
  8
0
 10
511.95868889995359
 20
392.21411394769649
 30
0.0
  0
VERTEX
  5
9489
  8
0
 10
511.97225194054153
 20
392.26600697415972
 30
0.0
  0
VERTEX
  5
948A
  8
0
 10
511.98677467956918
 20
392.31746302008958
 30
0.0
  0
VERTEX
  5
948B
  8
0
 10
511.99438960872902
 20
392.34301649574138
 30
0.0
  0
VERTEX
  5
948C
  8
0
 10
512.0022366368886
 20
392.36844790983253
 30
0.0
  0
VERTEX
  5
948D
  8
0
 10
512.0186154588373
 20
392.41892749197552
 30
0.0
  0
VERTEX
  5
948E
  8
0
 10
512.03588690243134
 20
392.46886778859761
 30
0.0
  0
VERTEX
  5
948F
  8
0
 10
512.04484926752184
 20
392.49362518090049
 30
0.0
  0
VERTEX
  5
9490
  8
0
 10
512.05402484772367
 20
392.51823518446679
 30
0.0
  0
VERTEX
  5
9491
  8
0
 10
512.07300132574346
 20
392.56699660837342
 30
0.0
  0
VERTEX
  5
9492
  8
0
 10
512.09278656171114
 20
392.61511970708119
 30
0.0
  0
VERTEX
  5
9493
  8
0
 10
512.10297267958754
 20
392.63893201168679
 30
0.0
  0
VERTEX
  5
9494
  8
0
 10
512.11334903342515
 20
392.66257301249408
 30
0.0
  0
VERTEX
  5
9495
  8
0
 10
512.13465554492905
 20
392.70932610273883
 30
0.0
  0
VERTEX
  5
9496
  8
0
 10
512.15668978028793
 20
392.75538745641632
 30
0.0
  0
VERTEX
  5
9497
  8
0
 10
512.17964814742265
 20
392.80117771849513
 30
0.0
  0
VERTEX
  5
9498
  8
0
 10
512.20359165368131
 20
392.84679025886192
 30
0.0
  0
VERTEX
  5
9499
  8
0
 10
512.22851749281631
 20
392.89218564799108
 30
0.0
  0
VERTEX
  5
949A
  8
0
 10
512.24134747418816
 20
392.91478971029358
 30
0.0
  0
VERTEX
  5
949B
  8
0
 10
512.2544212697976
 20
392.93732491309407
 30
0.0
  0
VERTEX
  5
949C
  8
0
 10
512.28129706349068
 20
392.9821696719344
 30
0.0
  0
VERTEX
  5
949D
  8
0
 10
512.30913750033892
 20
393.02668225929722
 30
0.0
  0
VERTEX
  5
949E
  8
0
 10
512.33793383925865
 20
393.07082584650658
 30
0.0
  0
VERTEX
  5
949F
  8
0
 10
512.36767606800072
 20
393.11456455421552
 30
0.0
  0
VERTEX
  5
94A0
  8
0
 10
512.39835301125913
 20
393.15786355855141
 30
0.0
  0
VERTEX
  5
94A1
  8
0
 10
512.4140382198425
 20
393.17933760270893
 30
0.0
  0
VERTEX
  5
94A2
  8
0
 10
512.42995245082398
 20
393.20068919053813
 30
0.0
  0
VERTEX
  5
94A3
  8
0
 10
512.46246124749405
 20
393.24300901506388
 30
0.0
  0
VERTEX
  5
94A4
  8
0
 10
512.49586522253617
 20
393.2847915953717
 30
0.0
  0
VERTEX
  5
94A5
  8
0
 10
512.53014882457865
 20
393.32600605656432
 30
0.0
  0
VERTEX
  5
94A6
  8
0
 10
512.56529512237137
 20
393.36662212085042
 30
0.0
  0
VERTEX
  5
94A7
  8
0
 10
512.60128587701786
 20
393.40661023151648
 30
0.0
  0
VERTEX
  5
94A8
  8
0
 10
512.61959188818923
 20
393.42635979346039
 30
0.0
  0
VERTEX
  5
94A9
  8
0
 10
512.63810162292145
 20
393.44594166810219
 30
0.0
  0
VERTEX
  5
94AA
  8
0
 10
512.67572175742634
 20
393.48458865295868
 30
0.0
  0
VERTEX
  5
94AB
  8
0
 10
512.71412463926856
 20
393.52252444939228
 30
0.0
  0
VERTEX
  5
94AC
  8
0
 10
512.75328769600333
 20
393.55972345150292
 30
0.0
  0
VERTEX
  5
94AD
  8
0
 10
512.79318754060739
 20
393.59616126575008
 30
0.0
  0
VERTEX
  5
94AE
  8
0
 10
512.83380014183331
 20
393.631814822335
 30
0.0
  0
VERTEX
  5
94AF
  8
0
 10
512.85436818164249
 20
393.64934244970038
 30
0.0
  0
VERTEX
  5
94B0
  8
0
 10
512.87510841959806
 20
393.66666860239849
 30
0.0
  0
VERTEX
  5
94B1
  8
0
 10
512.9170927768796
 20
393.70070583595123
 30
0.0
  0
VERTEX
  5
94B2
  8
0
 10
512.95972701663266
 20
393.73390572232131
 30
0.0
  0
VERTEX
  5
94B3
  8
0
 10
513.00298376829414
 20
393.76624833721382
 30
0.0
  0
VERTEX
  5
94B4
  8
0
 10
513.04683457888154
 20
393.79771474549841
 30
0.0
  0
VERTEX
  5
94B5
  8
0
 10
513.09125001136454
 20
393.82828710385309
 30
0.0
  0
VERTEX
  5
94B6
  8
0
 10
513.11366001852025
 20
393.8432327598199
 30
0.0
  0
VERTEX
  5
94B7
  8
0
 10
513.13619975032452
 20
393.85794875344311
 30
0.0
  0
VERTEX
  5
94B8
  8
0
 10
513.181652715018
 20
393.88668430275891
 30
0.0
  0
VERTEX
  5
94B9
  8
0
 10
513.22757718002117
 20
393.9144797006881
 30
0.0
  0
VERTEX
  5
94BA
  8
0
 10
513.25070616611595
 20
393.92802083420668
 30
0.0
  0
VERTEX
  5
94BB
  8
0
 10
513.2739409037074
 20
393.94132229982699
 30
0.0
  0
VERTEX
  5
94BC
  8
0
 10
513.32071126379083
 20
393.96720090937572
 30
0.0
  0
VERTEX
  5
94BD
  8
0
 10
513.36785522812977
 20
393.99210574883278
 30
0.0
  0
VERTEX
  5
94BE
  8
0
 10
513.39155673948744
 20
394.0041902592335
 30
0.0
  0
VERTEX
  5
94BF
  8
0
 10
513.41533882351246
 20
394.01602816551679
 30
0.0
  0
VERTEX
  5
94C0
  8
0
 10
513.46312697421922
 20
394.03896060620002
 30
0.0
  0
VERTEX
  5
94C1
  8
0
 10
513.51118360860289
 20
394.06089673149069
 30
0.0
  0
VERTEX
  5
94C2
  8
0
 10
513.55947177698465
 20
394.08183152038322
 30
0.0
  0
VERTEX
  5
94C3
  8
0
 10
513.60795377500676
 20
394.10176136199817
 30
0.0
  0
VERTEX
  5
94C4
  8
0
 10
513.65659127244396
 20
394.12068413473861
 30
0.0
  0
VERTEX
  5
94C5
  8
0
 10
513.68095621707153
 20
394.1297676311894
 30
0.0
  0
VERTEX
  5
94C6
  8
0
 10
513.70534544761654
 20
394.13859927305492
 30
0.0
  0
VERTEX
  5
94C7
  8
0
 10
513.75417712769263
 20
394.15550782196158
 30
0.0
  0
VERTEX
  5
94C8
  8
0
 10
513.80304693531593
 20
394.17141247937218
 30
0.0
  0
VERTEX
  5
94C9
  8
0
 10
513.85211706853715
 20
394.18637707758211
 30
0.0
  0
VERTEX
  5
94CA
  8
0
 10
513.90174521864026
 20
394.2005046393644
 30
0.0
  0
VERTEX
  5
94CB
  8
0
 10
513.95191052381244
 20
394.21377203106942
 30
0.0
  0
VERTEX
  5
94CC
  8
0
 10
513.97718471544135
 20
394.22007534959511
 30
0.0
  0
VERTEX
  5
94CD
  8
0
 10
514.00258122734954
 20
394.22615443977259
 30
0.0
  0
VERTEX
  5
94CE
  8
0
 10
514.05372485244084
 20
394.23762859055171
 30
0.0
  0
VERTEX
  5
94CF
  8
0
 10
514.10530835113775
 20
394.24817278930612
 30
0.0
  0
VERTEX
  5
94D0
  8
0
 10
514.15729825619917
 20
394.25776695180701
 30
0.0
  0
VERTEX
  5
94D1
  8
0
 10
514.20966083620851
 20
394.26639261897168
 30
0.0
  0
VERTEX
  5
94D2
  8
0
 10
514.26236225425623
 20
394.27403295821631
 30
0.0
  0
VERTEX
  5
94D3
  8
0
 10
514.28882946455985
 20
394.27747881156898
 30
0.0
  0
VERTEX
  5
94D4
  8
0
 10
514.31536873037294
 20
394.28067275061602
 30
0.0
  0
VERTEX
  5
94D5
  8
0
 10
514.36864670746525
 20
394.2862983634592
 30
0.0
  0
VERTEX
  5
94D6
  8
0
 10
514.42216287537997
 20
394.29089769669338
 30
0.0
  0
VERTEX
  5
94D7
  8
0
 10
514.47588358463304
 20
394.29446009624951
 30
0.0
  0
VERTEX
  5
94D8
  8
0
 10
514.52977459413717
 20
394.29697635278018
 30
0.0
  0
VERTEX
  5
94D9
  8
0
 10
514.58380120597019
 20
394.29843874078517
 30
0.0
  0
VERTEX
  5
94DA
  8
0
 10
514.61085443127297
 20
394.29877273261587
 30
0.0
  0
VERTEX
  5
94DB
  8
0
 10
514.63792841377813
 20
394.29884104596988
 30
0.0
  0
VERTEX
  5
94DC
  8
0
 10
514.69212105081374
 20
394.29817857937172
 30
0.0
  0
VERTEX
  5
94DD
  8
0
 10
514.74634393782446
 20
394.29644817834873
 30
0.0
  0
VERTEX
  5
94DE
  8
0
 10
514.80056203097843
 20
394.29364819441128
 30
0.0
  0
VERTEX
  5
94DF
  8
0
 10
514.85474056998316
 20
394.28977846780128
 30
0.0
  0
VERTEX
  5
94E0
  8
0
 10
514.90884522649765
 20
394.28484028861618
 30
0.0
  0
VERTEX
  5
94E1
  8
0
 10
514.93585949980275
 20
394.28197129135913
 30
0.0
  0
VERTEX
  5
94E2
  8
0
 10
514.96284609881866
 20
394.2788358781533
 30
0.0
  0
VERTEX
  5
94E3
  8
0
 10
515.01672262978263
 20
394.27176726301821
 30
0.0
  0
VERTEX
  5
94E4
  8
0
 10
515.07044212793267
 20
394.2636388122072
 30
0.0
  0
VERTEX
  5
94E5
  8
0
 10
515.09723238078197
 20
394.25917895602709
 30
0.0
  0
VERTEX
  5
94E6
  8
0
 10
515.12397062891046
 20
394.25445649918692
 30
0.0
  0
VERTEX
  5
94E7
  8
0
 10
515.17727408785845
 20
394.24422781299961
 30
0.0
  0
VERTEX
  5
94E8
  8
0
 10
515.23031853163559
 20
394.23296176112962
 30
0.0
  0
VERTEX
  5
94E9
  8
0
 10
515.256733062698
 20
394.22694295085302
 30
0.0
  0
VERTEX
  5
94EA
  8
0
 10
515.28307020838361
 20
394.220668859282
 30
0.0
  0
VERTEX
  5
94EB
  8
0
 10
515.33549573457935
 20
394.20736110814448
 30
0.0
  0
VERTEX
  5
94EC
  8
0
 10
515.3875622397361
 20
394.19305195711053
 30
0.0
  0
VERTEX
  5
94ED
  8
0
 10
515.43923750890963
 20
394.1777562548358
 30
0.0
  0
VERTEX
  5
94EE
  8
0
 10
515.49049012317676
 20
394.16149018641278
 30
0.0
  0
VERTEX
  5
94EF
  8
0
 10
515.54128953898839
 20
394.14427121756529
 30
0.0
  0
VERTEX
  5
94F0
  8
0
 10
515.56650988342881
 20
394.13531023460081
 30
0.0
  0
VERTEX
  5
94F1
  8
0
 10
515.59160563166984
 20
394.12611823109012
 30
0.0
  0
VERTEX
  5
94F2
  8
0
 10
515.64140830418387
 20
394.10705170152539
 30
0.0
  0
VERTEX
  5
94F3
  8
0
 10
515.69066761543263
 20
394.08709371110689
 30
0.0
  0
VERTEX
  5
94F4
  8
0
 10
515.73935394815453
 20
394.06626793761501
 30
0.0
  0
VERTEX
  5
94F5
  8
0
 10
515.78743817046279
 20
394.04459962859812
 30
0.0
  0
VERTEX
  5
94F6
  8
0
 10
515.83489179115315
 20
394.02211556224057
 30
0.0
  0
VERTEX
  5
94F7
  8
0
 10
515.85837343443791
 20
394.01057639416121
 30
0.0
  0
VERTEX
  5
94F8
  8
0
 10
515.8816871090055
 20
393.99884399500422
 30
0.0
  0
VERTEX
  5
94F9
  8
0
 10
515.92779735637077
 20
393.97481459602488
 30
0.0
  0
VERTEX
  5
94FA
  8
0
 10
515.97319683740443
 20
393.95005836809389
 30
0.0
  0
VERTEX
  5
94FB
  8
0
 10
515.99562233656093
 20
393.93741772377342
 30
0.0
  0
SEQEND
  5
94FC
  8
0
  0
ARC
  5
3C66
  8
0
 10
494.82578860734469
 20
356.78721202906502
 30
0.0
 40
42.75862068965516
 50
299.67640717263242
 51
60.323592677942663
  0
LINE
  5
3C6F
  8
1
 10
494.82578860734469
 20
286.97241111191693
 30
0.0
 11
494.82578860734469
 21
426.60201294621299
 31
0.0
  0
LINE
  5
3C70
  8
1
 10
564.64058952449284
 20
356.78721202906502
 30
0.0
 11
425.0109876901966
 21
356.78721202906502
 31
0.0
  0
LINE
  5
3C99
  8
2
 10
488.82578860734509
 20
152.22479657187009
 30
0.0
 11
488.82578860734509
 21
130.22479657187009
 31
0.0
  0
LINE
  5
3C9A
  8
2
 10
500.82578860734492
 20
130.22479657187009
 30
0.0
 11
500.8257886073448
 21
152.22479657187009
 31
0.0
  0
LINE
  5
3C9D
  8
0
 10
483.82578860734492
 20
130.4247965718701
 30
0.0
 11
483.82578860734492
 21
130.22479657187009
 31
0.0
  0
LINE
  5
3C9E
  8
0
 10
505.82578860734492
 20
130.22479657187009
 30
0.0
 11
505.82578860734492
 21
130.4247965718701
 31
0.0
  0
ARC
  5
3C9F
  8
0
 10
509.82578860734492
 20
130.9247965718701
 30
0.0
 40
0.5000000000000006
 50
270.0
 51
0.0
  0
ARC
  5
3CA0
  8
0
 10
479.82578860734492
 20
130.9247965718701
 30
0.0
 40
0.5
 50
180.0
 51
270.0
  0
LINE
  5
3CA1
  8
0
 10
479.32578860734492
 20
133.22479657187009
 30
0.0
 11
479.32578860734492
 21
130.9247965718701
 31
0.0
  0
LINE
  5
3CA2
  8
0
 10
510.32578860734492
 20
130.9247965718701
 30
0.0
 11
510.32578860734492
 21
133.22479657187009
 31
0.0
  0
ARC
  5
3CA3
  8
0
 10
549.49245527401149
 20
159.5581299052036
 30
0.0
 40
7.3333333333333526
 50
270.0
 51
0.0000008537736463
  0
ARC
  5
3CA4
  8
0
 10
440.15912194067818
 20
159.5581299052036
 30
0.0
 40
7.333333333333357
 50
179.99999914622629
 51
270.0
  0
LINE
  5
3CA5
  8
0
 10
432.82578860734492
 20
163.9951082916142
 30
0.0
 11
432.82578860734492
 21
159.5581299052036
 31
0.0
  0
LINE
  5
3CA6
  8
0
 10
556.82578860734498
 20
159.5581299052036
 30
0.0
 11
556.82578860734498
 21
163.9951082916142
 31
0.0
  0
ARC
  5
3CA7
  8
0
 10
534.82578860734429
 20
163.99510829161389
 30
0.0
 40
22.00000000000065
 50
0.0
 51
14.99999999999447
  0
ARC
  5
3CA8
  8
0
 10
454.82578860734537
 20
163.99510829161389
 30
0.0
 40
22.000000000000568
 50
165.00000000000551
 51
180.0
  0
LINE
  5
3CA9
  8
0
 10
434.35383190755761
 20
172.59419847109581
 30
0.0
 11
433.57542042898541
 21
169.6891272838696
 31
0.0
  0
LINE
  5
3CAA
  8
0
 10
556.07615678570426
 20
169.6891272838696
 30
0.0
 11
555.29774530713212
 21
172.59419847109581
 31
0.0
  0
ARC
  5
3CAB
  8
0
 10
553.17270848929616
 20
172.02479657187001
 30
0.0
 40
2.2000000000000242
 50
14.99999999999447
 51
90.0
  0
ARC
  5
3CAC
  8
0
 10
436.47886872539351
 20
172.02479657187001
 30
0.0
 40
2.2000000000000171
 50
90.0
 51
165.00000000000551
  0
ARC
  5
3CBC
  8
0
 10
539.22544530367236
 20
147.82479657187019
 30
0.0
 40
4.3999999999999773
 50
90.0
 51
111.8984528860141
  0
ARC
  5
3CBD
  8
0
 10
450.42613191101731
 20
147.82479657187019
 30
0.0
 40
4.4000000000000687
 50
68.101547113985873
 51
90.0
  0
LINE
  5
3CCA
  8
0
 10
505.82578860734492
 20
130.22479657187009
 30
0.0
 11
483.82578860734492
 21
130.22479657187009
 31
0.0
  0
LINE
  5
3CCB
  8
0
 10
509.82578860734492
 20
130.4247965718701
 30
0.0
 11
479.82578860734492
 21
130.4247965718701
 31
0.0
  0
LINE
  5
3CCD
  8
0
 10
549.49245527401149
 20
152.22479657187009
 30
0.0
 11
440.15912194067818
 21
152.22479657187009
 31
0.0
  0
LINE
  5
3CD2
  8
0
 10
553.17270848929627
 20
174.22479657187009
 30
0.0
 11
436.47886872539351
 21
174.22479657187009
 31
0.0
  0
LINE
  5
3CD8
  8
0
 10
511.07578860734492
 20
133.22479657187009
 30
0.0
 11
478.57578860734492
 21
133.22479657187009
 31
0.0
  0
LINE
  5
3CE6
  8
0
 10
515.19562223965875
 20
151.86269134142441
 30
0.0
 11
537.58440929700009
 21
151.90732040215019
 31
0.0
  0
LINE
  5
3D0C
  8
1
 10
494.82578860734498
 20
187.8778043489859
 30
0.0
 11
494.82578860734498
 21
122.409995654722
 31
0.0
  0
LINE
  5
3D2E
  8
1
 10
662.11435572781841
 20
404.78721202906468
 30
0.0
 11
634.85721700068871
 21
404.78721202906468
 31
0.0
  0
LINE
  5
3D36
  8
0
 10
686.47201791783687
 20
345.78721202906479
 30
0.0
 11
686.6720179178368
 21
345.78721202906479
 31
0.0
  0
LINE
  5
3D37
  8
0
 10
686.6720179178368
 20
367.78721202906479
 30
0.0
 11
686.47201791783687
 21
367.78721202906479
 31
0.0
  0
ARC
  5
3D38
  8
0
 10
685.97201791783675
 20
371.78721202906479
 30
0.0
 40
0.4999999999999999
 50
0.0
 51
90.0
  0
ARC
  5
3D39
  8
0
 10
685.97201791783675
 20
341.78721202906479
 30
0.0
 40
0.5000000000000018
 50
270.0
 51
0.0
  0
LINE
  5
3D3A
  8
0
 10
683.67201791783691
 20
341.28721202906479
 30
0.0
 11
685.97201791783675
 21
341.28721202906479
 31
0.0
  0
LINE
  5
3D3B
  8
0
 10
685.97201791783675
 20
372.28721202906479
 30
0.0
 11
683.67201791783691
 21
372.28721202906479
 31
0.0
  0
ARC
  5
3D3C
  8
0
 10
657.33868458450343
 20
411.45387869573131
 30
0.0
 40
7.3333333333333526
 50
0.0
 51
90.000000853773628
  0
ARC
  5
3D3D
  8
0
 10
657.33868458450343
 20
302.1205453623981
 30
0.0
 40
7.333333333333357
 50
269.99999914622629
 51
0.0
  0
LINE
  5
3D3E
  8
0
 10
652.90170619809282
 20
294.78721202906479
 30
0.0
 11
657.33868458450343
 21
294.78721202906479
 31
0.0
  0
LINE
  5
3D3F
  8
0
 10
657.33868458450343
 20
418.78721202906479
 30
0.0
 11
652.90170619809282
 21
418.78721202906479
 31
0.0
  0
ARC
  5
3D40
  8
0
 10
652.90170619809305
 20
396.78721202906411
 30
0.0
 40
22.00000000000065
 50
90.0
 51
104.9999999999944
  0
ARC
  5
3D41
  8
0
 10
652.90170619809282
 20
316.78721202906371
 30
0.0
 40
21.999999999998959
 50
255.00000000000551
 51
270.0
  0
LINE
  5
3D42
  8
0
 10
644.30261601861127
 20
296.31525532927742
 30
0.0
 11
647.20768720583726
 21
295.53684385070511
 31
0.0
  0
LINE
  5
3D43
  8
0
 10
647.20768720583726
 20
418.03758020742418
 30
0.0
 11
644.30261601861127
 21
417.2591687288521
 31
0.0
  0
ARC
  5
3D44
  8
0
 10
644.87201791783696
 20
415.13413191101608
 30
0.0
 40
2.200000000000025
 50
104.9999999999944
 51
180.0
  0
ARC
  5
3D45
  8
0
 10
644.87201791783696
 20
298.44029214711338
 30
0.0
 40
2.2000000000000242
 50
180.0
 51
255.00000000000551
  0
LINE
  5
3D4C
  8
0
 10
664.67201791783691
 20
313.59917784103038
 30
0.0
 11
683.67201791783691
 21
341.28721202906479
 31
0.0
  0
LINE
  5
3D4D
  8
0
 10
683.67201791783691
 20
372.28721202906479
 30
0.0
 11
664.67201791783691
 21
399.97524621709857
 31
0.0
  0
LINE
  5
3D5C
  8
0
 10
686.6720179178368
 20
367.78721202906479
 30
0.0
 11
686.6720179178368
 21
345.78721202906479
 31
0.0
  0
LINE
  5
3D5D
  8
0
 10
686.47201791783687
 20
371.78721202906479
 30
0.0
 11
686.47201791783687
 21
341.78721202906479
 31
0.0
  0
LINE
  5
3D5F
  8
0
 10
664.67201791783691
 20
411.45387869573131
 30
0.0
 11
664.67201791783691
 21
302.1205453623981
 31
0.0
  0
LINE
  5
3D64
  8
0
 10
642.67201791783691
 20
415.13413191101608
 30
0.0
 11
642.67201791783691
 21
298.44029214711338
 31
0.0
  0
LINE
  5
3D6A
  8
0
 10
683.67201791783691
 20
372.28721202906479
 30
0.0
 11
683.67201791783691
 21
341.28721202906479
 31
0.0
  0
POLYLINE
  5
3D81
  8
0
 66
     1
 10
0.0
 20
0.0
 30
0.0
  0
VERTEX
  5
94FD
  8
0
 10
664.67201791783691
 20
396.5906366005072
 30
0.0
  0
VERTEX
  5
94FE
  8
0
 10
669.47288146935955
 20
387.5044187743942
 30
0.0
  0
VERTEX
  5
94FF
  8
0
 10
672.74074182632944
 20
381.04239375677952
 30
0.0
  0
VERTEX
  5
9500
  8
0
 10
675.08415340577267
 20
376.03820699226151
 30
0.0
  0
VERTEX
  5
9501
  8
0
 10
676.0075111998633
 20
373.91352933285782
 30
0.0
  0
VERTEX
  5
9502
  8
0
 10
676.79981297001984
 20
371.97992359002262
 30
0.0
  0
VERTEX
  5
9503
  8
0
 10
678.06244758525963
 20
368.55731220820218
 30
0.0
  0
VERTEX
  5
9504
  8
0
 10
678.97991023970962
 20
365.5685635885801
 30
0.0
  0
VERTEX
  5
9505
  8
0
 10
679.38396968372263
 20
363.96804829736072
 30
0.0
  0
VERTEX
  5
9506
  8
0
 10
679.4835432979055
 20
363.52589274431818
 30
0.0
  0
VERTEX
  5
9507
  8
0
 10
679.57640836407199
 20
363.08960841308738
 30
0.0
  0
VERTEX
  5
9508
  8
0
 10
679.62037717846476
 20
362.87353103719232
 30
0.0
  0
VERTEX
  5
9509
  8
0
 10
679.66272952446275
 20
362.65875925747503
 30
0.0
  0
VERTEX
  5
950A
  8
0
 10
679.74265791175446
 20
362.23292551934099
 30
0.0
  0
VERTEX
  5
950B
  8
0
 10
679.81633183602071
 20
361.81170225396488
 30
0.0
  0
VERTEX
  5
950C
  8
0
 10
679.88387740331575
 20
361.39469795048092
 30
0.0
  0
VERTEX
  5
950D
  8
0
 10
679.94540907120665
 20
360.98153323701843
 30
0.0
  0
VERTEX
  5
950E
  8
0
 10
680.00103014594379
 20
360.57183966114292
 30
0.0
  0
VERTEX
  5
950F
  8
0
 10
680.02665355495185
 20
360.36818210924878
 30
0.0
  0
VERTEX
  5
9510
  8
0
 10
680.05083322540145
 20
360.16525853700239
 30
0.0
  0
VERTEX
  5
9511
  8
0
 10
680.09490059140637
 20
359.7614398512988
 30
0.0
  0
VERTEX
  5
9512
  8
0
 10
680.13330455460869
 20
359.36004122083148
 30
0.0
  0
VERTEX
  5
9513
  8
0
 10
680.16610775463391
 20
358.96072689487698
 30
0.0
  0
VERTEX
  5
9514
  8
0
 10
680.19336341787084
 20
358.56316679614849
 30
0.0
  0
VERTEX
  5
9515
  8
0
 10
680.21511557489134
 20
358.16703559444562
 30
0.0
  0
VERTEX
  5
9516
  8
0
 10
680.22393912839618
 20
357.96940524056259
 30
0.0
  0
VERTEX
  5
9517
  8
0
 10
680.23139923917336
 20
357.77201180744697
 30
0.0
  0
VERTEX
  5
9518
  8
0
 10
680.24224054848878
 20
357.37777692335601
 30
0.0
  0
VERTEX
  5
9519
  8
0
 10
680.24765687002309
 20
356.98401454032989
 30
0.0
  0
VERTEX
  5
951A
  8
0
 10
680.24833370726844
 20
356.78721202905552
 30
0.0
  0
VERTEX
  5
951B
  8
0
 10
680.24765687002241
 20
356.59040951778081
 30
0.0
  0
VERTEX
  5
951C
  8
0
 10
680.24224054848685
 20
356.1966471347547
 30
0.0
  0
VERTEX
  5
951D
  8
0
 10
680.23139923917051
 20
355.80241225066368
 30
0.0
  0
VERTEX
  5
951E
  8
0
 10
680.22393912839254
 20
355.605018817548
 30
0.0
  0
VERTEX
  5
951F
  8
0
 10
680.21511557488702
 20
355.40738846366492
 30
0.0
  0
VERTEX
  5
9520
  8
0
 10
680.19336341786527
 20
355.01125726196199
 30
0.0
  0
VERTEX
  5
9521
  8
0
 10
680.16610775462732
 20
354.61369716323321
 30
0.0
  0
VERTEX
  5
9522
  8
0
 10
680.13330455460073
 20
354.21438283727861
 30
0.0
  0
VERTEX
  5
9523
  8
0
 10
680.09490059139739
 20
353.81298420681071
 30
0.0
  0
VERTEX
  5
9524
  8
0
 10
680.05083322539122
 20
353.4091655211069
 30
0.0
  0
VERTEX
  5
9525
  8
0
 10
680.02665355494116
 20
353.20624194886062
 30
0.0
  0
VERTEX
  5
9526
  8
0
 10
680.00103014593242
 20
353.00258439696597
 30
0.0
  0
VERTEX
  5
9527
  8
0
 10
679.94540907119415
 20
352.59289082109018
 30
0.0
  0
VERTEX
  5
9528
  8
0
 10
679.88387740330188
 20
352.17972610762729
 30
0.0
  0
VERTEX
  5
9529
  8
0
 10
679.8163318360057
 20
351.76272180414293
 30
0.0
  0
VERTEX
  5
952A
  8
0
 10
679.74265791173843
 20
351.3414985387663
 30
0.0
  0
VERTEX
  5
952B
  8
0
 10
679.66272952444569
 20
350.91566480063159
 30
0.0
  0
VERTEX
  5
952C
  8
0
 10
679.62037717844714
 20
350.70089302091429
 30
0.0
  0
VERTEX
  5
952D
  8
0
 10
679.57640836405346
 20
350.48481564501901
 30
0.0
  0
VERTEX
  5
952E
  8
0
 10
679.48354329788594
 20
350.04853131378729
 30
0.0
  0
VERTEX
  5
952F
  8
0
 10
679.38396968370193
 20
349.6063757607443
 30
0.0
  0
VERTEX
  5
9530
  8
0
 10
678.9799102396853
 20
348.00586046952259
 30
0.0
  0
VERTEX
  5
9531
  8
0
 10
678.06244758522962
 20
345.01711184989603
 30
0.0
  0
VERTEX
  5
9532
  8
0
 10
676.79981296998562
 20
341.5945004680712
 30
0.0
  0
VERTEX
  5
9533
  8
0
 10
676.00751119982795
 20
339.66089472523453
 30
0.0
  0
VERTEX
  5
9534
  8
0
 10
675.08415340573708
 20
337.53621706582987
 30
0.0
  0
VERTEX
  5
9535
  8
0
 10
672.74074182629818
 20
332.5320303013151
 30
0.0
  0
VERTEX
  5
9536
  8
0
 10
669.4728814693442
 20
326.0700052837168
 30
0.0
  0
VERTEX
  5
9537
  8
0
 10
664.67201791783691
 20
316.98378745760908
 30
0.0
  0
SEQEND
  5
9538
  8
0
  0
LINE
  5
3D9F
  8
1
 10
634.85721700068871
 20
356.78721202906479
 30
0.0
 11
694.486818834985
 21
356.78721202906479
 31
0.0
  0
LINE
  5
4675
  8
0
 10
511.0757886073265
 20
149.51331462752529
 30
0.0
 11
511.07578860734492
 21
133.22479657187009
 31
0.0
  0
POLYLINE
  5
4FB2
  8
0
 66
     1
 10
0.0
 20
0.0
 30
0.0
  0
VERTEX
  5
9539
  8
0
 10
511.07578860732582
 20
149.51331462751901
 30
0.0
  0
VERTEX
  5
953A
  8
0
 10
511.07584804394583
 20
149.523013741086
 30
0.0
  0
VERTEX
  5
953B
  8
0
 10
511.07632313549561
 20
149.54249607835999
 30
0.0
  0
VERTEX
  5
953C
  8
0
 10
511.07727215337979
 20
149.56208566337401
 30
0.0
  0
VERTEX
  5
953D
  8
0
 10
511.07792393520231
 20
149.57191882427691
 30
0.0
  0
VERTEX
  5
953E
  8
0
 10
511.07869362581141
 20
149.58177657183609
 30
0.0
  0
VERTEX
  5
953F
  8
0
 10
511.08058581410398
 20
149.60156283493541
 30
0.0
  0
VERTEX
  5
9540
  8
0
 10
511.08294677015658
 20
149.62143887818971
 30
0.0
  0
VERTEX
  5
9541
  8
0
 10
511.09487117578152
 20
149.69164478820849
 30
0.0
  0
VERTEX
  5
9542
  8
0
 10
511.12826659967237
 20
149.8137084805677
 30
0.0
  0
VERTEX
  5
9543
  8
0
 10
511.15088204763748
 20
149.875199160508
 30
0.0
  0
VERTEX
  5
9544
  8
0
 10
511.17726601409697
 20
149.93676821920539
 30
0.0
  0
VERTEX
  5
9545
  8
0
 10
511.24068321691942
 20
150.05945767124359
 30
0.0
  0
VERTEX
  5
9546
  8
0
 10
511.3169790283348
 20
150.1803866086419
 30
0.0
  0
VERTEX
  5
9547
  8
0
 10
511.40534114825289
 20
150.29952325223121
 30
0.0
  0
VERTEX
  5
9548
  8
0
 10
511.50873169301741
 20
150.42075903418501
 30
0.0
  0
VERTEX
  5
9549
  8
0
 10
511.6273023553382
 20
150.5433124900712
 30
0.0
  0
VERTEX
  5
954A
  8
0
 10
511.69213732339807
 20
150.6046886876785
 30
0.0
  0
VERTEX
  5
954B
  8
0
 10
511.76056277950761
 20
150.66592696709961
 30
0.0
  0
VERTEX
  5
954C
  8
0
 10
511.90774844870037
 20
150.78738402464759
 30
0.0
  0
VERTEX
  5
954D
  8
0
 10
511.99963535318858
 20
150.85722649454331
 30
0.0
  0
VERTEX
  5
954E
  8
0
 10
512.02666222596315
 20
150.877003624895
 30
0.0
  0
VERTEX
  5
954F
  8
0
 10
512.05402534526866
 20
150.89669464211701
 30
0.0
  0
VERTEX
  5
9550
  8
0
 10
512.06783144059489
 20
150.9065065003447
 30
0.0
  0
VERTEX
  5
9551
  8
0
 10
512.0817195377108
 20
150.91629508128611
 30
0.0
  0
VERTEX
  5
9552
  8
0
 10
512.10973858785508
 20
150.93579988554231
 30
0.0
  0
VERTEX
  5
9553
  8
0
 10
512.13807606103296
 20
150.9552040159715
 30
0.0
  0
VERTEX
  5
9554
  8
0
 10
512.16672531042775
 20
150.97450245903701
 30
0.0
  0
VERTEX
  5
9555
  8
0
 10
512.19567948472127
 20
150.9936902339191
 30
0.0
  0
VERTEX
  5
9556
  8
0
 10
512.22493153632593
 20
151.0127623997725
 30
0.0
  0
VERTEX
  5
9557
  8
0
 10
512.23966701224435
 20
151.02225359799871
 30
0.0
  0
VERTEX
  5
9558
  8
0
 10
512.25447423022706
 20
151.03171406290849
 30
0.0
  0
VERTEX
  5
9559
  8
0
 10
512.28430015346578
 20
151.05054038391259
 30
0.0
  0
VERTEX
  5
955A
  8
0
 10
512.31440172528914
 20
151.0692365847018
 30
0.0
  0
VERTEX
  5
955B
  8
0
 10
512.34477120800398
 20
151.0877979555313
 30
0.0
  0
VERTEX
  5
955C
  8
0
 10
512.37540071856586
 20
151.10621986195079
 30
0.0
  0
VERTEX
  5
955D
  8
0
 10
512.40628224094201
 20
151.12449775171751
 30
0.0
  0
VERTEX
  5
955E
  8
0
 10
512.42181496841044
 20
151.13358129195089
 30
0.0
  0
VERTEX
  5
955F
  8
0
 10
512.43740763928361
 20
151.14262716166789
 30
0.0
  0
VERTEX
  5
9560
  8
0
 10
512.46876867194942
 20
151.16060372454501
 30
0.0
  0
VERTEX
  5
9561
  8
0
 10
512.50035700644844
 20
151.1784231758005
 30
0.0
  0
VERTEX
  5
9562
  8
0
 10
512.53216421458683
 20
151.19608134893409
 30
0.0
  0
VERTEX
  5
9563
  8
0
 10
512.56418168415018
 20
151.21357412609959
 30
0.0
  0
VERTEX
  5
9564
  8
0
 10
512.59640057859235
 20
151.23089741910849
 30
0.0
  0
VERTEX
  5
9565
  8
0
 10
512.61258273928001
 20
151.2394942416577
 30
0.0
  0
VERTEX
  5
9566
  8
0
 10
512.62881184495689
 20
151.24804717784559
 30
0.0
  0
VERTEX
  5
9567
  8
0
 10
512.66140622384432
 20
151.2650193993166
 30
0.0
  0
VERTEX
  5
9568
  8
0
 10
512.69417426008636
 20
151.28181013655581
 30
0.0
  0
VERTEX
  5
9569
  8
0
 10
512.71062039423759
 20
151.2901362326447
 30
0.0
  0
VERTEX
  5
956A
  8
0
 10
512.72710631415794
 20
151.29841550740269
 30
0.0
  0
VERTEX
  5
956B
  8
0
 10
512.76019257434916
 20
151.31483170314411
 30
0.0
  0
VERTEX
  5
956C
  8
0
 10
512.79342306973103
 20
151.33105499702671
 30
0.0
  0
VERTEX
  5
956D
  8
0
 10
512.8100892495429
 20
151.339093165637
 30
0.0
  0
VERTEX
  5
956E
  8
0
 10
512.82678768394635
 20
151.3470817526397
 30
0.0
  0
VERTEX
  5
956F
  8
0
 10
512.86027616986655
 20
151.36290843216889
 30
0.0
  0
VERTEX
  5
9570
  8
0
 10
512.89387816515273
 20
151.3785316045205
 30
0.0
  0
VERTEX
  5
9571
  8
0
 10
512.9275832087626
 20
151.39394795331049
 30
0.0
  0
VERTEX
  5
9572
  8
0
 10
512.9613807584542
 20
151.40915428472351
 30
0.0
  0
VERTEX
  5
9573
  8
0
 10
512.99526020933115
 20
151.4241475352261
 30
0.0
  0
VERTEX
  5
9574
  8
0
 10
513.01222732933115
 20
151.43156333874009
 30
0.0
  0
VERTEX
  5
9575
  8
0
 10
513.02924919587053
 20
151.43894130316369
 30
0.0
  0
VERTEX
  5
9576
  8
0
 10
513.06356004524014
 20
151.45362662947889
 30
0.0
  0
VERTEX
  5
9577
  8
0
 10
513.09821778822004
 20
151.46821018510411
 30
0.0
  0
VERTEX
  5
9578
  8
0
 10
513.13321108750415
 20
151.4826829335467
 30
0.0
  0
VERTEX
  5
9579
  8
0
 10
513.16852837322165
 20
151.4970359914883
 30
0.0
  0
VERTEX
  5
957A
  8
0
 10
513.20415786978413
 20
151.51126064075501
 30
0.0
  0
VERTEX
  5
957B
  8
0
 10
513.22208596797066
 20
151.5183221357097
 30
0.0
  0
VERTEX
  5
957C
  8
0
 10
513.24008762430685
 20
151.5253483398499
 30
0.0
  0
VERTEX
  5
957D
  8
0
 10
513.27630553669371
 20
151.53929073503079
 30
0.0
  0
VERTEX
  5
957E
  8
0
 10
513.31279939147407
 20
151.5530796709088
 30
0.0
  0
VERTEX
  5
957F
  8
0
 10
513.33114595662471
 20
151.55991409977969
 30
0.0
  0
VERTEX
  5
9580
  8
0
 10
513.38818616533729
 20
151.58053098078651
 30
0.0
  0
VERTEX
  5
9581
  8
0
 10
513.50342801769409
 20
151.61910743838661
 30
0.0
  0
VERTEX
  5
9582
  8
0
 10
513.62004691830396
 20
151.65428507348011
 30
0.0
  0
VERTEX
  5
9583
  8
0
 10
513.67880865644804
 20
151.67065176718509
 30
0.0
  0
VERTEX
  5
9584
  8
0
 10
513.69845213577548
 20
151.6759301034393
 30
0.0
  0
VERTEX
  5
9585
  8
0
 10
513.73782447518863
 20
151.6862272356783
 30
0.0
  0
VERTEX
  5
9586
  8
0
 10
513.77730441657468
 20
151.69618310383939
 30
0.0
  0
VERTEX
  5
9587
  8
0
 10
513.79708240562366
 20
151.7010348325062
 30
0.0
  0
VERTEX
  5
9588
  8
0
 10
513.81688622516845
 20
151.7058037638615
 30
0.0
  0
VERTEX
  5
9589
  8
0
 10
513.85656248554665
 20
151.71509469463379
 30
0.0
  0
VERTEX
  5
958A
  8
0
 10
513.89632408180444
 20
151.72406086480379
 30
0.0
  0
VERTEX
  5
958B
  8
0
 10
513.91623457926732
 20
151.72842381396461
 30
0.0
  0
VERTEX
  5
958C
  8
0
 10
513.93616365307969
 20
151.73270753486031
 30
0.0
  0
VERTEX
  5
958D
  8
0
 10
513.9760738730713
 20
151.74103982531301
 30
0.0
  0
VERTEX
  5
958E
  8
0
 10
514.01604744969495
 20
151.74906271075591
 30
0.0
  0
VERTEX
  5
958F
  8
0
 10
514.05607712421863
 20
151.7567810138232
 30
0.0
  0
VERTEX
  5
9590
  8
0
 10
514.09615566986679
 20
151.76419939902661
 30
0.0
  0
VERTEX
  5
9591
  8
0
 10
514.13627588988732
 20
151.7713223664725
 30
0.0
  0
VERTEX
  5
9592
  8
0
 10
514.15634835552305
 20
151.77477425290081
 30
0.0
  0
VERTEX
  5
9593
  8
0
 10
514.17641438844146
 20
151.7781515438943
 30
0.0
  0
VERTEX
  5
9594
  8
0
 10
514.21651096871688
 20
151.78468298103391
 30
0.0
  0
VERTEX
  5
9595
  8
0
 10
514.25655302313885
 20
151.79092126755759
 30
0.0
  0
VERTEX
  5
9596
  8
0
 10
514.29653194241484
 20
151.79687147951529
 30
0.0
  0
VERTEX
  5
9597
  8
0
 10
514.33643916781284
 20
151.80253849031971
 30
0.0
  0
VERTEX
  5
9598
  8
0
 10
514.37626619034154
 20
151.8079269678008
 30
0.0
  0
VERTEX
  5
9599
  8
0
 10
514.39614697985735
 20
151.81051815830881
 30
0.0
  0
VERTEX
  5
959A
  8
0
 10
514.41600454987736
 20
151.8130413712837
 30
0.0
  0
VERTEX
  5
959B
  8
0
 10
514.45564583424584
 20
151.81788594867589
 30
0.0
  0
VERTEX
  5
959C
  8
0
 10
514.49518167827046
 20
151.82246473356099
 30
0.0
  0
VERTEX
  5
959D
  8
0
 10
514.51490745864896
 20
151.82465565498731
 30
0.0
  0
VERTEX
  5
959E
  8
0
 10
514.55414517763552
 20
151.82882999294091
 30
0.0
  0
VERTEX
  5
959F
  8
0
 10
514.63223649177235
 20
151.83641673795319
 30
0.0
  0
VERTEX
  5
95A0
  8
0
 10
514.70976164359467
 20
151.84300798559909
 30
0.0
  0
VERTEX
  5
95A1
  8
0
 10
514.74829181347218
 20
151.8459370976484
 30
0.0
  0
VERTEX
  5
95A2
  8
0
 10
514.82521752424373
 20
151.85109647735311
 30
0.0
  0
VERTEX
  5
95A3
  8
0
 10
514.97642107435081
 20
151.858537305742
 30
0.0
  0
VERTEX
  5
95A4
  8
0
 10
515.12365148153094
 20
151.86223067240121
 30
0.0
  0
VERTEX
  5
95A5
  8
0
 10
515.19562223965875
 20
151.86269134142441
 30
0.0
  0
SEQEND
  5
95A6
  8
0
  0
LINE
  5
6176
  8
2
 10
507.82578860734492
 20
155.22479657187009
 30
0.0
 11
481.82578860734509
 21
155.22479657187219
 31
0.0
  0
LINE
  5
61BA
  8
0
 10
474.45595497503092
 20
151.862691341426
 30
0.0
 11
452.06716791768969
 21
151.9073204021536
 31
0.0
  0
LINE
  5
61BB
  8
0
 10
478.57578860736299
 20
149.51331462752651
 30
0.0
 11
478.57578860734361
 21
133.22479657187131
 31
0.0
  0
POLYLINE
  5
61BC
  8
0
 66
     1
 10
0.0
 20
0.0
 30
0.0
  0
VERTEX
  5
95A7
  8
0
 10
478.57578860736368
 20
149.51331462752029
 30
0.0
  0
VERTEX
  5
95A8
  8
0
 10
478.57572917074378
 20
149.52301374108731
 30
0.0
  0
VERTEX
  5
95A9
  8
0
 10
478.57525407919388
 20
149.54249607836121
 30
0.0
  0
VERTEX
  5
95AA
  8
0
 10
478.57430506130959
 20
149.56208566337531
 30
0.0
  0
VERTEX
  5
95AB
  8
0
 10
478.5736532794873
 20
149.57191882427821
 30
0.0
  0
VERTEX
  5
95AC
  8
0
 10
478.57288358887808
 20
149.58177657183731
 30
0.0
  0
VERTEX
  5
95AD
  8
0
 10
478.57099140058551
 20
149.60156283493669
 30
0.0
  0
VERTEX
  5
95AE
  8
0
 10
478.56863044453303
 20
149.62143887819099
 30
0.0
  0
VERTEX
  5
95AF
  8
0
 10
478.55670603890798
 20
149.6916447882098
 30
0.0
  0
VERTEX
  5
95B0
  8
0
 10
478.52331061501718
 20
149.81370848056901
 30
0.0
  0
VERTEX
  5
95B1
  8
0
 10
478.50069516705207
 20
149.87519916050931
 30
0.0
  0
VERTEX
  5
95B2
  8
0
 10
478.47431120059252
 20
149.9367682192067
 30
0.0
  0
VERTEX
  5
95B3
  8
0
 10
478.41089399777019
 20
150.0594576712449
 30
0.0
  0
VERTEX
  5
95B4
  8
0
 10
478.33459818635492
 20
150.18038660864309
 30
0.0
  0
VERTEX
  5
95B5
  8
0
 10
478.24623606643678
 20
150.29952325223249
 30
0.0
  0
VERTEX
  5
95B6
  8
0
 10
478.1428455216722
 20
150.42075903418629
 30
0.0
  0
VERTEX
  5
95B7
  8
0
 10
478.02427485935141
 20
150.54331249007251
 30
0.0
  0
VERTEX
  5
95B8
  8
0
 10
477.95943989129159
 20
150.60468868767981
 30
0.0
  0
VERTEX
  5
95B9
  8
0
 10
477.891014435182
 20
150.66592696710089
 30
0.0
  0
VERTEX
  5
95BA
  8
0
 10
477.74382876598929
 20
150.7873840246489
 30
0.0
  0
VERTEX
  5
95BB
  8
0
 10
477.65194186150097
 20
150.85722649454459
 30
0.0
  0
VERTEX
  5
95BC
  8
0
 10
477.62491498872657
 20
150.87700362489639
 30
0.0
  0
VERTEX
  5
95BD
  8
0
 10
477.5975518694209
 20
150.89669464211829
 30
0.0
  0
VERTEX
  5
95BE
  8
0
 10
477.58374577409478
 20
150.90650650034601
 30
0.0
  0
VERTEX
  5
95BF
  8
0
 10
477.56985767697881
 20
150.91629508128739
 30
0.0
  0
VERTEX
  5
95C0
  8
0
 10
477.54183862683459
 20
150.9357998855437
 30
0.0
  0
VERTEX
  5
95C1
  8
0
 10
477.51350115365659
 20
150.95520401597281
 30
0.0
  0
VERTEX
  5
95C2
  8
0
 10
477.48485190426192
 20
150.9745024590384
 30
0.0
  0
VERTEX
  5
95C3
  8
0
 10
477.45589772996829
 20
150.9936902339204
 30
0.0
  0
VERTEX
  5
95C4
  8
0
 10
477.4266456783638
 20
151.01276239977389
 30
0.0
  0
VERTEX
  5
95C5
  8
0
 10
477.4119102024452
 20
151.02225359800011
 30
0.0
  0
VERTEX
  5
95C6
  8
0
 10
477.39710298446249
 20
151.03171406290991
 30
0.0
  0
VERTEX
  5
95C7
  8
0
 10
477.36727706122389
 20
151.05054038391401
 30
0.0
  0
VERTEX
  5
95C8
  8
0
 10
477.33717548940052
 20
151.06923658470319
 30
0.0
  0
VERTEX
  5
95C9
  8
0
 10
477.30680600668558
 20
151.08779795553269
 30
0.0
  0
VERTEX
  5
95CA
  8
0
 10
477.27617649612381
 20
151.10621986195221
 30
0.0
  0
VERTEX
  5
95CB
  8
0
 10
477.24529497374772
 20
151.12449775171891
 30
0.0
  0
VERTEX
  5
95CC
  8
0
 10
477.22976224627911
 20
151.13358129195231
 30
0.0
  0
VERTEX
  5
95CD
  8
0
 10
477.214169575406
 20
151.14262716166931
 30
0.0
  0
VERTEX
  5
95CE
  8
0
 10
477.1828085427403
 20
151.16060372454641
 30
0.0
  0
VERTEX
  5
95CF
  8
0
 10
477.15122020824123
 20
151.1784231758019
 30
0.0
  0
VERTEX
  5
95D0
  8
0
 10
477.11941300010278
 20
151.19608134893551
 30
0.0
  0
VERTEX
  5
95D1
  8
0
 10
477.08739553053942
 20
151.21357412610101
 30
0.0
  0
VERTEX
  5
95D2
  8
0
 10
477.05517663609731
 20
151.23089741910991
 30
0.0
  0
VERTEX
  5
95D3
  8
0
 10
477.03899447540959
 20
151.23949424165909
 30
0.0
  0
VERTEX
  5
95D4
  8
0
 10
477.02276536973272
 20
151.24804717784701
 30
0.0
  0
VERTEX
  5
95D5
  8
0
 10
476.99017099084529
 20
151.26501939931791
 30
0.0
  0
VERTEX
  5
95D6
  8
0
 10
476.95740295460331
 20
151.2818101365572
 30
0.0
  0
VERTEX
  5
95D7
  8
0
 10
476.94095682045207
 20
151.29013623264609
 30
0.0
  0
VERTEX
  5
95D8
  8
0
 10
476.92447090053179
 20
151.29841550740409
 30
0.0
  0
VERTEX
  5
95D9
  8
0
 10
476.89138464034039
 20
151.3148317031455
 30
0.0
  0
VERTEX
  5
95DA
  8
0
 10
476.85815414495858
 20
151.3310549970281
 30
0.0
  0
VERTEX
  5
95DB
  8
0
 10
476.84148796514683
 20
151.33909316563839
 30
0.0
  0
VERTEX
  5
95DC
  8
0
 10
476.82478953074337
 20
151.34708175264109
 30
0.0
  0
VERTEX
  5
95DD
  8
0
 10
476.791301044823
 20
151.36290843217029
 30
0.0
  0
VERTEX
  5
95DE
  8
0
 10
476.757699049537
 20
151.37853160452181
 30
0.0
  0
VERTEX
  5
95DF
  8
0
 10
476.72399400592712
 20
151.39394795331191
 30
0.0
  0
VERTEX
  5
95E0
  8
0
 10
476.69019645623553
 20
151.40915428472499
 30
0.0
  0
VERTEX
  5
95E1
  8
0
 10
476.65631700535852
 20
151.42414753522749
 30
0.0
  0
VERTEX
  5
95E2
  8
0
 10
476.63934988535851
 20
151.4315633387416
 30
0.0
  0
VERTEX
  5
95E3
  8
0
 10
476.62232801881908
 20
151.43894130316511
 30
0.0
  0
VERTEX
  5
95E4
  8
0
 10
476.58801716944959
 20
151.45362662948031
 30
0.0
  0
VERTEX
  5
95E5
  8
0
 10
476.55335942646963
 20
151.46821018510551
 30
0.0
  0
VERTEX
  5
95E6
  8
0
 10
476.51836612718552
 20
151.48268293354809
 30
0.0
  0
VERTEX
  5
95E7
  8
0
 10
476.48304884146808
 20
151.4970359914897
 30
0.0
  0
VERTEX
  5
95E8
  8
0
 10
476.44741934490571
 20
151.5112606407564
 30
0.0
  0
VERTEX
  5
95E9
  8
0
 10
476.42949124671918
 20
151.5183221357112
 30
0.0
  0
VERTEX
  5
95EA
  8
0
 10
476.41148959038281
 20
151.5253483398514
 30
0.0
  0
VERTEX
  5
95EB
  8
0
 10
476.37527167799601
 20
151.5392907350323
 30
0.0
  0
VERTEX
  5
95EC
  8
0
 10
476.33877782321559
 20
151.55307967091031
 30
0.0
  0
VERTEX
  5
95ED
  8
0
 10
476.32043125806513
 20
151.5599140997812
 30
0.0
  0
VERTEX
  5
95EE
  8
0
 10
476.26339104935261
 20
151.58053098078801
 30
0.0
  0
VERTEX
  5
95EF
  8
0
 10
476.14814919699569
 20
151.61910743838811
 30
0.0
  0
VERTEX
  5
95F0
  8
0
 10
476.03153029638582
 20
151.65428507348159
 30
0.0
  0
VERTEX
  5
95F1
  8
0
 10
475.9727685582418
 20
151.6706517671866
 30
0.0
  0
VERTEX
  5
95F2
  8
0
 10
475.95312507891441
 20
151.67593010344081
 30
0.0
  0
VERTEX
  5
95F3
  8
0
 10
475.91375273950121
 20
151.68622723567981
 30
0.0
  0
VERTEX
  5
95F4
  8
0
 10
475.87427279811499
 20
151.69618310384081
 30
0.0
  0
VERTEX
  5
95F5
  8
0
 10
475.85449480906613
 20
151.7010348325077
 30
0.0
  0
VERTEX
  5
95F6
  8
0
 10
475.83469098952122
 20
151.705803763863
 30
0.0
  0
VERTEX
  5
95F7
  8
0
 10
475.79501472914302
 20
151.7150946946353
 30
0.0
  0
VERTEX
  5
95F8
  8
0
 10
475.7552531328854
 20
151.72406086480521
 30
0.0
  0
VERTEX
  5
95F9
  8
0
 10
475.7353426354224
 20
151.72842381396609
 30
0.0
  0
VERTEX
  5
95FA
  8
0
 10
475.71541356161009
 20
151.73270753486179
 30
0.0
  0
VERTEX
  5
95FB
  8
0
 10
475.67550334161842
 20
151.74103982531449
 30
0.0
  0
VERTEX
  5
95FC
  8
0
 10
475.63552976499471
 20
151.74906271075741
 30
0.0
  0
VERTEX
  5
95FD
  8
0
 10
475.59550009047121
 20
151.75678101382471
 30
0.0
  0
VERTEX
  5
95FE
  8
0
 10
475.55542154482299
 20
151.76419939902809
 30
0.0
  0
VERTEX
  5
95FF
  8
0
 10
475.51530132480252
 20
151.77132236647401
 30
0.0
  0
VERTEX
  5
9600
  8
0
 10
475.49522885916662
 20
151.7747742529024
 30
0.0
  0
VERTEX
  5
9601
  8
0
 10
475.47516282624821
 20
151.7781515438958
 30
0.0
  0
VERTEX
  5
9602
  8
0
 10
475.43506624597291
 20
151.78468298103539
 30
0.0
  0
VERTEX
  5
9603
  8
0
 10
475.39502419155099
 20
151.7909212675591
 30
0.0
  0
VERTEX
  5
9604
  8
0
 10
475.35504527227482
 20
151.7968714795168
 30
0.0
  0
VERTEX
  5
9605
  8
0
 10
475.315138046877
 20
151.8025384903213
 30
0.0
  0
VERTEX
  5
9606
  8
0
 10
475.2753110243483
 20
151.80792696780239
 30
0.0
  0
VERTEX
  5
9607
  8
0
 10
475.25543023483237
 20
151.81051815831029
 30
0.0
  0
VERTEX
  5
9608
  8
0
 10
475.23557266481231
 20
151.81304137128521
 30
0.0
  0
VERTEX
  5
9609
  8
0
 10
475.19593138044399
 20
151.81788594867751
 30
0.0
  0
VERTEX
  5
960A
  8
0
 10
475.15639553641932
 20
151.82246473356261
 30
0.0
  0
VERTEX
  5
960B
  8
0
 10
475.1366697560407
 20
151.8246556549889
 30
0.0
  0
VERTEX
  5
960C
  8
0
 10
475.09743203705432
 20
151.82882999294239
 30
0.0
  0
VERTEX
  5
960D
  8
0
 10
475.01934072291749
 20
151.83641673795469
 30
0.0
  0
VERTEX
  5
960E
  8
0
 10
474.94181557109522
 20
151.84300798560059
 30
0.0
  0
VERTEX
  5
960F
  8
0
 10
474.90328540121772
 20
151.84593709764991
 30
0.0
  0
VERTEX
  5
9610
  8
0
 10
474.82635969044611
 20
151.85109647735459
 30
0.0
  0
VERTEX
  5
9611
  8
0
 10
474.67515614033903
 20
151.8585373057436
 30
0.0
  0
VERTEX
  5
9612
  8
0
 10
474.52792573315878
 20
151.8622306724028
 30
0.0
  0
VERTEX
  5
9613
  8
0
 10
474.45595497503092
 20
151.862691341426
 30
0.0
  0
SEQEND
  5
9614
  8
0
  0
LINE
  5
620A
  8
2
 10
505.82578860734492
 20
130.4247965718701
 30
0.0
 11
505.82578860734509
 21
151.22479657187009
 31
0.0
  0
LINE
  5
620B
  8
2
 10
504.82578860734492
 20
152.22479657187009
 30
0.0
 11
504.8257886073448
 21
151.22479657187009
 31
0.0
  0
LINE
  5
620C
  8
2
 10
507.82578860734492
 20
155.22479657187009
 30
0.0
 11
507.82578860734492
 21
152.22479657187009
 31
0.0
  0
LINE
  5
620E
  8
2
 10
504.82578860734492
 20
151.22479657187009
 30
0.0
 11
505.82578860734509
 21
151.22479657187009
 31
0.0
  0
LINE
  5
620F
  8
2
 10
483.8257886073431
 20
130.42479657187101
 30
0.0
 11
483.82578860734452
 21
151.22479657187091
 31
0.0
  0
LINE
  5
6210
  8
2
 10
484.82578860734469
 20
152.2247965718708
 30
0.0
 11
484.82578860734469
 21
151.2247965718708
 31
0.0
  0
LINE
  5
6211
  8
2
 10
481.82578860734509
 20
155.22479657187111
 30
0.0
 11
481.8257886073448
 21
152.22479657187111
 31
0.0
  0
LINE
  5
6212
  8
2
 10
507.82578860734469
 20
152.22479657187111
 30
0.0
 11
481.82578860734498
 21
152.22479657187111
 31
0.0
  0
LINE
  5
6213
  8
2
 10
484.82578860734458
 20
151.2247965718708
 30
0.0
 11
483.82578860734452
 21
151.22479657187091
 31
0.0
  0
LINE
  5
640E
  8
2
 10
664.67201791783691
 20
350.78721202906479
 30
0.0
 11
686.6720179178368
 21
350.78721202906479
 31
0.0
  0
LINE
  5
640F
  8
2
 10
686.6720179178368
 20
362.78721202906479
 30
0.0
 11
664.67201791783691
 21
362.78721202906462
 31
0.0
  0
LINE
  5
6410
  8
2
 10
661.6720179178368
 20
369.78721202906462
 30
0.0
 11
661.67201791783475
 21
343.78721202906479
 31
0.0
  0
LINE
  5
6411
  8
2
 10
686.47201791783687
 20
367.78721202906479
 30
0.0
 11
665.67201791783691
 21
367.78721202906479
 31
0.0
  0
LINE
  5
6412
  8
2
 10
664.67201791783691
 20
366.78721202906479
 30
0.0
 11
665.67201791783691
 21
366.78721202906462
 31
0.0
  0
LINE
  5
6413
  8
2
 10
661.6720179178368
 20
369.78721202906462
 30
0.0
 11
664.67201791783691
 21
369.78721202906462
 31
0.0
  0
LINE
  5
6414
  8
2
 10
664.67201791783691
 20
366.78721202906479
 30
0.0
 11
664.67201791783691
 21
369.78721202906428
 31
0.0
  0
LINE
  5
6415
  8
2
 10
665.67201791783691
 20
366.78721202906479
 30
0.0
 11
665.67201791783691
 21
367.78721202906479
 31
0.0
  0
LINE
  5
6416
  8
2
 10
686.47201791783618
 20
345.78721202906303
 30
0.0
 11
665.67201791783623
 21
345.78721202906428
 31
0.0
  0
LINE
  5
6417
  8
2
 10
664.67201791783623
 20
346.78721202906428
 30
0.0
 11
665.67201791783623
 21
346.78721202906428
 31
0.0
  0
LINE
  5
6418
  8
2
 10
661.672017917836
 20
343.78721202906479
 30
0.0
 11
664.672017917836
 21
343.78721202906451
 31
0.0
  0
LINE
  5
6419
  8
2
 10
664.67201791783623
 20
346.78721202906428
 30
0.0
 11
664.672017917836
 21
343.78721202906479
 31
0.0
  0
LINE
  5
641A
  8
2
 10
665.67201791783623
 20
346.78721202906428
 30
0.0
 11
665.67201791783623
 21
345.78721202906428
 31
0.0
  0
LINE
  5
6462
  8
0
 10
506.07578860734492
 20
152.22479657187009
 30
0.0
 11
506.07578860734492
 21
133.2247965718644
 31
0.0
  0
LINE
  5
6463
  8
0
 10
483.5757886073448
 20
152.224796571871
 30
0.0
 11
483.57578860734321
 21
133.22479657186531
 31
0.0
  0
CIRCLE
  5
8936
  8
0
 10
287.9380688953147
 20
404.78721202906502
 30
0.0
 40
11.0
  0
LINE
  5
8937
  8
1
 10
269.12326797816661
 20
404.78721202906502
 30
0.0
 11
306.75286981246279
 21
404.78721202906502
 31
0.0
  0
CIRCLE
  5
8938
  8
0
 10
287.9380688953147
 20
356.78721202906502
 30
0.0
 40
62.0
  0
ARC
  5
8939
  8
0
 10
287.9380688953147
 20
356.78721202906479
 30
0.0
 40
58.346919881951457
 50
94.043281756093066
 51
85.956718243906977
  0
ARC
  5
893A
  8
0
 10
287.9380688953147
 20
356.78721202906502
 30
0.0
 40
46.188522893215591
 50
103.2319229280051
 51
76.768077071994881
  0
CIRCLE
  5
893B
  8
0
 10
287.9380688953147
 20
356.78721202906502
 30
0.0
 40
15.5
  0
POLYLINE
  5
893C
  8
0
 66
     1
 10
0.0
 20
0.0
 30
0.0
  0
VERTEX
  5
9615
  8
0
 10
309.1079025276469
 20
393.93741777898219
 30
0.0
  0
VERTEX
  5
9616
  8
0
 10
309.08547702860761
 20
393.95005842204472
 30
0.0
  0
VERTEX
  5
9617
  8
0
 10
309.04007755129669
 20
393.97481464563458
 30
0.0
  0
VERTEX
  5
9618
  8
0
 10
308.99396731159823
 20
393.99884403847739
 30
0.0
  0
VERTEX
  5
9619
  8
0
 10
308.97065364206378
 20
394.0105764341177
 30
0.0
  0
VERTEX
  5
961A
  8
0
 10
308.94717200445552
 20
394.02211559849428
 30
0.0
  0
VERTEX
  5
961B
  8
0
 10
308.89971839656101
 20
394.04459965719491
 30
0.0
  0
VERTEX
  5
961C
  8
0
 10
308.8516341881309
 20
394.06626795869232
 30
0.0
  0
VERTEX
  5
961D
  8
0
 10
308.80294786932342
 20
394.08709372529859
 30
0.0
  0
VERTEX
  5
961E
  8
0
 10
308.75368857094509
 20
394.10705170988109
 30
0.0
  0
VERTEX
  5
961F
  8
0
 10
308.7038859091503
 20
394.12611823498997
 30
0.0
  0
VERTEX
  5
9620
  8
0
 10
308.67879016511102
 20
394.1353102368692
 30
0.0
  0
VERTEX
  5
9621
  8
0
 10
308.65356982391148
 20
394.14427121863122
 30
0.0
  0
VERTEX
  5
9622
  8
0
 10
308.60277041112931
 20
394.16149018641852
 30
0.0
  0
VERTEX
  5
9623
  8
0
 10
308.55151779687958
 20
394.1777562548358
 30
0.0
  0
VERTEX
  5
9624
  8
0
 10
308.49984252770599
 20
394.19305195711053
 30
0.0
  0
VERTEX
  5
9625
  8
0
 10
308.44777602254959
 20
394.20736110814448
 30
0.0
  0
VERTEX
  5
9626
  8
0
 10
308.39535049635327
 20
394.220668859282
 30
0.0
  0
VERTEX
  5
9627
  8
0
 10
308.36901335066801
 20
394.22694295085302
 30
0.0
  0
VERTEX
  5
9628
  8
0
 10
308.34259881960571
 20
394.23296176112979
 30
0.0
  0
VERTEX
  5
9629
  8
0
 10
308.2895543758284
 20
394.24422781299961
 30
0.0
  0
VERTEX
  5
962A
  8
0
 10
308.23625091688041
 20
394.25445649918692
 30
0.0
  0
VERTEX
  5
962B
  8
0
 10
308.20951266875198
 20
394.25917895602709
 30
0.0
  0
VERTEX
  5
962C
  8
0
 10
308.18272241590262
 20
394.2636388122072
 30
0.0
  0
VERTEX
  5
962D
  8
0
 10
308.12900291775259
 20
394.27176726301821
 30
0.0
  0
VERTEX
  5
962E
  8
0
 10
308.07512638678872
 20
394.2788358781533
 30
0.0
  0
VERTEX
  5
962F
  8
0
 10
308.0481397877727
 20
394.28197129135913
 30
0.0
  0
VERTEX
  5
9630
  8
0
 10
308.02112551446771
 20
394.28484028861618
 30
0.0
  0
VERTEX
  5
9631
  8
0
 10
307.96702085795317
 20
394.28977846780128
 30
0.0
  0
VERTEX
  5
9632
  8
0
 10
307.91284231894838
 20
394.29364819441128
 30
0.0
  0
VERTEX
  5
9633
  8
0
 10
307.85862422579447
 20
394.29644817834873
 30
0.0
  0
VERTEX
  5
9634
  8
0
 10
307.80440133878392
 20
394.29817857937172
 30
0.0
  0
VERTEX
  5
9635
  8
0
 10
307.75020870174808
 20
394.29884104596988
 30
0.0
  0
VERTEX
  5
9636
  8
0
 10
307.72313471924309
 20
394.29877273261587
 30
0.0
  0
VERTEX
  5
9637
  8
0
 10
307.69608149394031
 20
394.29843874078517
 30
0.0
  0
VERTEX
  5
9638
  8
0
 10
307.64205488210717
 20
394.29697635278018
 30
0.0
  0
VERTEX
  5
9639
  8
0
 10
307.58816387260299
 20
394.29446009624951
 30
0.0
  0
VERTEX
  5
963A
  8
0
 10
307.53444316334998
 20
394.29089769669338
 30
0.0
  0
VERTEX
  5
963B
  8
0
 10
307.48092699543531
 20
394.2862983634592
 30
0.0
  0
VERTEX
  5
963C
  8
0
 10
307.42764901834289
 20
394.28067275061602
 30
0.0
  0
VERTEX
  5
963D
  8
0
 10
307.40110975252992
 20
394.27747881156898
 30
0.0
  0
VERTEX
  5
963E
  8
0
 10
307.3746425422259
 20
394.27403295821631
 30
0.0
  0
VERTEX
  5
963F
  8
0
 10
307.32194112417841
 20
394.26639261897168
 30
0.0
  0
VERTEX
  5
9640
  8
0
 10
307.26957854416918
 20
394.25776695180701
 30
0.0
  0
VERTEX
  5
9641
  8
0
 10
307.21758863910782
 20
394.24817278930612
 30
0.0
  0
VERTEX
  5
9642
  8
0
 10
307.16600514041102
 20
394.23762859055171
 30
0.0
  0
VERTEX
  5
9643
  8
0
 10
307.11486151531949
 20
394.22615443977259
 30
0.0
  0
VERTEX
  5
9644
  8
0
 10
307.08946500341131
 20
394.22007534959511
 30
0.0
  0
VERTEX
  5
9645
  8
0
 10
307.06419081178251
 20
394.21377203106942
 30
0.0
  0
VERTEX
  5
9646
  8
0
 10
307.01402550661032
 20
394.2005046393644
 30
0.0
  0
VERTEX
  5
9647
  8
0
 10
306.96439735650711
 20
394.18637707758211
 30
0.0
  0
VERTEX
  5
9648
  8
0
 10
306.91532722328589
 20
394.17141247937218
 30
0.0
  0
VERTEX
  5
9649
  8
0
 10
306.86645741566258
 20
394.15550782196158
 30
0.0
  0
VERTEX
  5
964A
  8
0
 10
306.81762573558649
 20
394.13859927305492
 30
0.0
  0
VERTEX
  5
964B
  8
0
 10
306.79323650504148
 20
394.1297676311894
 30
0.0
  0
VERTEX
  5
964C
  8
0
 10
306.76887156041403
 20
394.12068413473861
 30
0.0
  0
VERTEX
  5
964D
  8
0
 10
306.720234062977
 20
394.10176136199817
 30
0.0
  0
VERTEX
  5
964E
  8
0
 10
306.67175206495472
 20
394.08183152038339
 30
0.0
  0
VERTEX
  5
964F
  8
0
 10
306.62346389657301
 20
394.06089673149069
 30
0.0
  0
VERTEX
  5
9650
  8
0
 10
306.57540726218917
 20
394.03896060620002
 30
0.0
  0
VERTEX
  5
9651
  8
0
 10
306.52761911148241
 20
394.01602816551679
 30
0.0
  0
VERTEX
  5
9652
  8
0
 10
306.50383702745739
 20
394.0041902592335
 30
0.0
  0
VERTEX
  5
9653
  8
0
 10
306.48013551609978
 20
393.99210574883278
 30
0.0
  0
VERTEX
  5
9654
  8
0
 10
306.43299155176078
 20
393.96720090937572
 30
0.0
  0
VERTEX
  5
9655
  8
0
 10
306.38622119167758
 20
393.94132229982699
 30
0.0
  0
VERTEX
  5
9656
  8
0
 10
306.36298645408601
 20
393.92802083420668
 30
0.0
  0
VERTEX
  5
9657
  8
0
 10
306.33985746799112
 20
393.91447970068828
 30
0.0
  0
VERTEX
  5
9658
  8
0
 10
306.29393300298813
 20
393.88668430275891
 30
0.0
  0
VERTEX
  5
9659
  8
0
 10
306.24848003829447
 20
393.85794875344311
 30
0.0
  0
VERTEX
  5
965A
  8
0
 10
306.2259403064902
 20
393.8432327598199
 30
0.0
  0
VERTEX
  5
965B
  8
0
 10
306.20353029933449
 20
393.82828710385309
 30
0.0
  0
VERTEX
  5
965C
  8
0
 10
306.1591148668515
 20
393.79771474549841
 30
0.0
  0
VERTEX
  5
965D
  8
0
 10
306.1152640562641
 20
393.76624833721382
 30
0.0
  0
VERTEX
  5
965E
  8
0
 10
306.07200730460272
 20
393.73390572232131
 30
0.0
  0
VERTEX
  5
965F
  8
0
 10
306.02937306484961
 20
393.70070583595123
 30
0.0
  0
VERTEX
  5
9660
  8
0
 10
305.98738870756802
 20
393.66666860239849
 30
0.0
  0
VERTEX
  5
9661
  8
0
 10
305.96664846961272
 20
393.64934244970038
 30
0.0
  0
VERTEX
  5
9662
  8
0
 10
305.94608042980332
 20
393.631814822335
 30
0.0
  0
VERTEX
  5
9663
  8
0
 10
305.90546782857751
 20
393.59616126575008
 30
0.0
  0
VERTEX
  5
9664
  8
0
 10
305.86556798397351
 20
393.55972345150292
 30
0.0
  0
VERTEX
  5
9665
  8
0
 10
305.82640492723891
 20
393.52252444939228
 30
0.0
  0
VERTEX
  5
9666
  8
0
 10
305.7880020453963
 20
393.48458865295868
 30
0.0
  0
VERTEX
  5
9667
  8
0
 10
305.75038191089152
 20
393.44594166810191
 30
0.0
  0
VERTEX
  5
9668
  8
0
 10
305.73187217615919
 20
393.42635979346039
 30
0.0
  0
VERTEX
  5
9669
  8
0
 10
305.71356616498792
 20
393.40661023151648
 30
0.0
  0
VERTEX
  5
966A
  8
0
 10
305.67757541034138
 20
393.36662212085042
 30
0.0
  0
VERTEX
  5
966B
  8
0
 10
305.6424291125486
 20
393.32600605656432
 30
0.0
  0
VERTEX
  5
966C
  8
0
 10
305.60814551050612
 20
393.2847915953717
 30
0.0
  0
VERTEX
  5
966D
  8
0
 10
305.574741535464
 20
393.24300901506388
 30
0.0
  0
VERTEX
  5
966E
  8
0
 10
305.54223273879421
 20
393.20068919053813
 30
0.0
  0
VERTEX
  5
966F
  8
0
 10
305.52631850781239
 20
393.17933760270893
 30
0.0
  0
VERTEX
  5
9670
  8
0
 10
305.51063329922908
 20
393.15786355855141
 30
0.0
  0
VERTEX
  5
9671
  8
0
 10
305.47995635597073
 20
393.11456455421552
 30
0.0
  0
VERTEX
  5
9672
  8
0
 10
305.45021412722872
 20
393.07082584650658
 30
0.0
  0
VERTEX
  5
9673
  8
0
 10
305.42141778830887
 20
393.02668225929722
 30
0.0
  0
VERTEX
  5
9674
  8
0
 10
305.39357735146058
 20
392.9821696719344
 30
0.0
  0
VERTEX
  5
9675
  8
0
 10
305.3667015577675
 20
392.93732491309407
 30
0.0
  0
VERTEX
  5
9676
  8
0
 10
305.35362776215811
 20
392.91478971029358
 30
0.0
  0
VERTEX
  5
9677
  8
0
 10
305.34079778078632
 20
392.89218564799108
 30
0.0
  0
VERTEX
  5
9678
  8
0
 10
305.31587194165132
 20
392.84679025886192
 30
0.0
  0
VERTEX
  5
9679
  8
0
 10
305.29192843539272
 20
392.80117771849513
 30
0.0
  0
VERTEX
  5
967A
  8
0
 10
305.26897006825811
 20
392.75538745641632
 30
0.0
  0
VERTEX
  5
967B
  8
0
 10
305.246935832899
 20
392.70932610273883
 30
0.0
  0
VERTEX
  5
967C
  8
0
 10
305.22562932139522
 20
392.66257301249408
 30
0.0
  0
VERTEX
  5
967D
  8
0
 10
305.21525296755749
 20
392.63893201168679
 30
0.0
  0
VERTEX
  5
967E
  8
0
 10
305.20506684968109
 20
392.61511970708119
 30
0.0
  0
VERTEX
  5
967F
  8
0
 10
305.18528161371341
 20
392.56699660837342
 30
0.0
  0
VERTEX
  5
9680
  8
0
 10
305.16630513569362
 20
392.51823518446679
 30
0.0
  0
VERTEX
  5
9681
  8
0
 10
305.15712955549179
 20
392.49362518090049
 30
0.0
  0
VERTEX
  5
9682
  8
0
 10
305.14816719040141
 20
392.46886778859761
 30
0.0
  0
VERTEX
  5
9683
  8
0
 10
305.1308957468072
 20
392.41892749197552
 30
0.0
  0
VERTEX
  5
9684
  8
0
 10
305.11451692485872
 20
392.3684479098327
 30
0.0
  0
VERTEX
  5
9685
  8
0
 10
305.10666989669909
 20
392.34301649574138
 30
0.0
  0
VERTEX
  5
9686
  8
0
 10
305.09905496753908
 20
392.31746302008958
 30
0.0
  0
VERTEX
  5
9687
  8
0
 10
305.08453222851148
 20
392.26600697415972
 30
0.0
  0
VERTEX
  5
9688
  8
0
 10
305.07096918792359
 20
392.21411394769649
 30
0.0
  0
VERTEX
  5
9689
  8
0
 10
305.05838460769019
 20
392.16181854167752
 30
0.0
  0
VERTEX
  5
968A
  8
0
 10
305.04679564750472
 20
392.10915625986843
 30
0.0
  0
VERTEX
  5
968B
  8
0
 10
305.03621780833743
 20
392.05616341022738
 30
0.0
  0
VERTEX
  5
968C
  8
0
 10
305.03131243456983
 20
392.02955454789679
 30
0.0
  0
VERTEX
  5
968D
  8
0
 10
305.026664872521
 20
392.00287693935172
 30
0.0
  0
VERTEX
  5
968E
  8
0
 10
305.01814885924819
 20
391.94933426509539
 30
0.0
  0
VERTEX
  5
968F
  8
0
 10
305.0106799952589
 20
391.89557310683142
 30
0.0
  0
VERTEX
  5
9690
  8
0
 10
305.00426670064371
 20
391.84163131284311
 30
0.0
  0
VERTEX
  5
9691
  8
0
 10
304.99891558985843
 20
391.78754668436562
 30
0.0
  0
VERTEX
  5
9692
  8
0
 10
304.99463146384483
 20
391.73335644377693
 30
0.0
  0
VERTEX
  5
9693
  8
0
 10
304.99289034623479
 20
391.70622986388832
 30
0.0
  0
VERTEX
  5
9694
  8
0
 10
304.9914168737937
 20
391.6790868486554
 30
0.0
  0
VERTEX
  5
9695
  8
0
 10
304.98927373576288
 20
391.6247707029616
 30
0.0
  0
VERTEX
  5
9696
  8
0
 10
304.98820268133801
 20
391.57044647337699
 30
0.0
  0
VERTEX
  5
9697
  8
0
 10
304.9880688953146
 20
391.54329335678102
 30
0.0
  0
SEQEND
  5
9698
  8
0
  0
ARC
  5
893D
  8
0
 10
287.9380688953147
 20
356.78721202906502
 30
0.0
 40
42.75862068965516
 50
299.67640732205791
 51
60.323592827367683
  0
POLYLINE
  5
893E
  8
0
 66
     1
 10
0.0
 20
0.0
 30
0.0
  0
VERTEX
  5
9699
  8
0
 10
304.9880688953146
 20
322.03113070134879
 30
0.0
  0
VERTEX
  5
969A
  8
0
 10
304.98820268133801
 20
322.00397758475282
 30
0.0
  0
VERTEX
  5
969B
  8
0
 10
304.98927373576288
 20
321.9496533551681
 30
0.0
  0
VERTEX
  5
969C
  8
0
 10
304.9914168737937
 20
321.89533720947458
 30
0.0
  0
VERTEX
  5
969D
  8
0
 10
304.99289034623479
 20
321.86819419424148
 30
0.0
  0
VERTEX
  5
969E
  8
0
 10
304.99463146384483
 20
321.84106761435299
 30
0.0
  0
VERTEX
  5
969F
  8
0
 10
304.99891558985843
 20
321.7868773737643
 30
0.0
  0
VERTEX
  5
96A0
  8
0
 10
305.00426670064371
 20
321.7327927452867
 30
0.0
  0
VERTEX
  5
96A1
  8
0
 10
305.0106799952589
 20
321.67885095129839
 30
0.0
  0
VERTEX
  5
96A2
  8
0
 10
305.01814885924819
 20
321.62508979303442
 30
0.0
  0
VERTEX
  5
96A3
  8
0
 10
305.026664872521
 20
321.57154711877808
 30
0.0
  0
VERTEX
  5
96A4
  8
0
 10
305.03131243456983
 20
321.54486951023313
 30
0.0
  0
VERTEX
  5
96A5
  8
0
 10
305.03621780833743
 20
321.51826064790242
 30
0.0
  0
VERTEX
  5
96A6
  8
0
 10
305.04679564750472
 20
321.46526779826138
 30
0.0
  0
VERTEX
  5
96A7
  8
0
 10
305.05838460769019
 20
321.41260551645257
 30
0.0
  0
VERTEX
  5
96A8
  8
0
 10
305.07096918792359
 20
321.36031011043332
 30
0.0
  0
VERTEX
  5
96A9
  8
0
 10
305.08453222851148
 20
321.30841708397031
 30
0.0
  0
VERTEX
  5
96AA
  8
0
 10
305.09905496753942
 20
321.25696103804017
 30
0.0
  0
VERTEX
  5
96AB
  8
0
 10
305.10666989669909
 20
321.23140756238843
 30
0.0
  0
VERTEX
  5
96AC
  8
0
 10
305.11451692485872
 20
321.20597614829728
 30
0.0
  0
VERTEX
  5
96AD
  8
0
 10
305.1308957468072
 20
321.15549656615428
 30
0.0
  0
VERTEX
  5
96AE
  8
0
 10
305.14816719040141
 20
321.10555626953249
 30
0.0
  0
VERTEX
  5
96AF
  8
0
 10
305.15712955549179
 20
321.08079887722931
 30
0.0
  0
VERTEX
  5
96B0
  8
0
 10
305.16630513569362
 20
321.05618887366319
 30
0.0
  0
VERTEX
  5
96B1
  8
0
 10
305.18528161371341
 20
321.00742744975639
 30
0.0
  0
VERTEX
  5
96B2
  8
0
 10
305.20506684968109
 20
320.95930435104867
 30
0.0
  0
VERTEX
  5
96B3
  8
0
 10
305.21525296755749
 20
320.93549204644307
 30
0.0
  0
VERTEX
  5
96B4
  8
0
 10
305.22562932139522
 20
320.91185104563567
 30
0.0
  0
VERTEX
  5
96B5
  8
0
 10
305.246935832899
 20
320.86509795539098
 30
0.0
  0
VERTEX
  5
96B6
  8
0
 10
305.26897006825789
 20
320.81903660171349
 30
0.0
  0
VERTEX
  5
96B7
  8
0
 10
305.29192843539272
 20
320.77324633963468
 30
0.0
  0
VERTEX
  5
96B8
  8
0
 10
305.31587194165132
 20
320.72763379926789
 30
0.0
  0
VERTEX
  5
96B9
  8
0
 10
305.34079778078632
 20
320.68223841013861
 30
0.0
  0
VERTEX
  5
96BA
  8
0
 10
305.35362776215811
 20
320.65963434783617
 30
0.0
  0
VERTEX
  5
96BB
  8
0
 10
305.3667015577675
 20
320.63709914503568
 30
0.0
  0
VERTEX
  5
96BC
  8
0
 10
305.39357735146058
 20
320.59225438619529
 30
0.0
  0
VERTEX
  5
96BD
  8
0
 10
305.42141778830887
 20
320.54774179883259
 30
0.0
  0
VERTEX
  5
96BE
  8
0
 10
305.45021412722872
 20
320.5035982116234
 30
0.0
  0
VERTEX
  5
96BF
  8
0
 10
305.47995635597073
 20
320.4598595039144
 30
0.0
  0
VERTEX
  5
96C0
  8
0
 10
305.51063329922908
 20
320.4165604995784
 30
0.0
  0
VERTEX
  5
96C1
  8
0
 10
305.52631850781239
 20
320.39508645542088
 30
0.0
  0
VERTEX
  5
96C2
  8
0
 10
305.54223273879421
 20
320.37373486759168
 30
0.0
  0
VERTEX
  5
96C3
  8
0
 10
305.574741535464
 20
320.3314150430661
 30
0.0
  0
VERTEX
  5
96C4
  8
0
 10
305.60814551050612
 20
320.28963246275828
 30
0.0
  0
VERTEX
  5
96C5
  8
0
 10
305.6424291125486
 20
320.24841800156548
 30
0.0
  0
VERTEX
  5
96C6
  8
0
 10
305.67757541034138
 20
320.2078019372795
 30
0.0
  0
VERTEX
  5
96C7
  8
0
 10
305.71356616498792
 20
320.1678138266135
 30
0.0
  0
VERTEX
  5
96C8
  8
0
 10
305.73187217615919
 20
320.14806426466942
 30
0.0
  0
VERTEX
  5
96C9
  8
0
 10
305.75038191089152
 20
320.1284823900279
 30
0.0
  0
VERTEX
  5
96CA
  8
0
 10
305.7880020453963
 20
320.08983540517107
 30
0.0
  0
VERTEX
  5
96CB
  8
0
 10
305.82640492723891
 20
320.05189960873747
 30
0.0
  0
VERTEX
  5
96CC
  8
0
 10
305.86556798397351
 20
320.01470060662689
 30
0.0
  0
VERTEX
  5
96CD
  8
0
 10
305.90546782857751
 20
319.97826279237972
 30
0.0
  0
VERTEX
  5
96CE
  8
0
 10
305.94608042980332
 20
319.94260923579498
 30
0.0
  0
VERTEX
  5
96CF
  8
0
 10
305.96664846961272
 20
319.92508160842942
 30
0.0
  0
VERTEX
  5
96D0
  8
0
 10
305.98738870756802
 20
319.90775545573132
 30
0.0
  0
VERTEX
  5
96D1
  8
0
 10
306.02937306484961
 20
319.87371822217858
 30
0.0
  0
VERTEX
  5
96D2
  8
0
 10
306.07200730460272
 20
319.8405183358085
 30
0.0
  0
VERTEX
  5
96D3
  8
0
 10
306.1152640562641
 20
319.80817572091598
 30
0.0
  0
VERTEX
  5
96D4
  8
0
 10
306.1591148668515
 20
319.77670931263162
 30
0.0
  0
VERTEX
  5
96D5
  8
0
 10
306.20353029933449
 20
319.74613695427672
 30
0.0
  0
VERTEX
  5
96D6
  8
0
 10
306.2259403064902
 20
319.73119129830991
 30
0.0
  0
VERTEX
  5
96D7
  8
0
 10
306.24848003829447
 20
319.7164753046867
 30
0.0
  0
VERTEX
  5
96D8
  8
0
 10
306.29393300298813
 20
319.6877397553709
 30
0.0
  0
VERTEX
  5
96D9
  8
0
 10
306.33985746799112
 20
319.65994435744182
 30
0.0
  0
VERTEX
  5
96DA
  8
0
 10
306.36298645408601
 20
319.64640322392307
 30
0.0
  0
VERTEX
  5
96DB
  8
0
 10
306.38622119167741
 20
319.63310175830281
 30
0.0
  0
VERTEX
  5
96DC
  8
0
 10
306.43299155176078
 20
319.60722314875431
 30
0.0
  0
VERTEX
  5
96DD
  8
0
 10
306.48013551609978
 20
319.58231830929691
 30
0.0
  0
VERTEX
  5
96DE
  8
0
 10
306.50383702745739
 20
319.57023379889631
 30
0.0
  0
VERTEX
  5
96DF
  8
0
 10
306.52761911148241
 20
319.55839589261302
 30
0.0
  0
VERTEX
  5
96E0
  8
0
 10
306.57540726218917
 20
319.53546345192979
 30
0.0
  0
VERTEX
  5
96E1
  8
0
 10
306.62346389657301
 20
319.51352732663912
 30
0.0
  0
VERTEX
  5
96E2
  8
0
 10
306.67175206495472
 20
319.4925925377467
 30
0.0
  0
VERTEX
  5
96E3
  8
0
 10
306.720234062977
 20
319.47266269613158
 30
0.0
  0
VERTEX
  5
96E4
  8
0
 10
306.76887156041403
 20
319.4537399233912
 30
0.0
  0
VERTEX
  5
96E5
  8
0
 10
306.79323650504148
 20
319.44465642694053
 30
0.0
  0
VERTEX
  5
96E6
  8
0
 10
306.81762573558649
 20
319.43582478507489
 30
0.0
  0
VERTEX
  5
96E7
  8
0
 10
306.86645741566258
 20
319.41891623616817
 30
0.0
  0
VERTEX
  5
96E8
  8
0
 10
306.91532722328589
 20
319.40301157875768
 30
0.0
  0
VERTEX
  5
96E9
  8
0
 10
306.96439735650711
 20
319.38804698054781
 30
0.0
  0
VERTEX
  5
96EA
  8
0
 10
307.01402550661032
 20
319.37391941876552
 30
0.0
  0
VERTEX
  5
96EB
  8
0
 10
307.06419081178251
 20
319.36065202706038
 30
0.0
  0
VERTEX
  5
96EC
  8
0
 10
307.08946500341131
 20
319.35434870853481
 30
0.0
  0
VERTEX
  5
96ED
  8
0
 10
307.11486151531949
 20
319.34826961835722
 30
0.0
  0
VERTEX
  5
96EE
  8
0
 10
307.16600514041102
 20
319.3367954675781
 30
0.0
  0
VERTEX
  5
96EF
  8
0
 10
307.21758863910782
 20
319.32625126882368
 30
0.0
  0
VERTEX
  5
96F0
  8
0
 10
307.26957854416918
 20
319.31665710632279
 30
0.0
  0
VERTEX
  5
96F1
  8
0
 10
307.32194112417841
 20
319.30803143915813
 30
0.0
  0
VERTEX
  5
96F2
  8
0
 10
307.3746425422259
 20
319.30039109991361
 30
0.0
  0
VERTEX
  5
96F3
  8
0
 10
307.40110975252992
 20
319.29694524656082
 30
0.0
  0
VERTEX
  5
96F4
  8
0
 10
307.42764901834289
 20
319.29375130751379
 30
0.0
  0
VERTEX
  5
96F5
  8
0
 10
307.48092699543531
 20
319.28812569467061
 30
0.0
  0
VERTEX
  5
96F6
  8
0
 10
307.53444316334981
 20
319.2835263614366
 30
0.0
  0
VERTEX
  5
96F7
  8
0
 10
307.58816387260299
 20
319.2799639618803
 30
0.0
  0
VERTEX
  5
96F8
  8
0
 10
307.64205488210717
 20
319.2774477053498
 30
0.0
  0
VERTEX
  5
96F9
  8
0
 10
307.69608149394031
 20
319.27598531734458
 30
0.0
  0
VERTEX
  5
96FA
  8
0
 10
307.72313471924309
 20
319.27565132551388
 30
0.0
  0
VERTEX
  5
96FB
  8
0
 10
307.75020870174808
 20
319.27558301215993
 30
0.0
  0
VERTEX
  5
96FC
  8
0
 10
307.80440133878392
 20
319.27624547875809
 30
0.0
  0
VERTEX
  5
96FD
  8
0
 10
307.85862422579447
 20
319.27797587978108
 30
0.0
  0
VERTEX
  5
96FE
  8
0
 10
307.91284231894838
 20
319.28077586371847
 30
0.0
  0
VERTEX
  5
96FF
  8
0
 10
307.96702085795317
 20
319.28464559032852
 30
0.0
  0
VERTEX
  5
9700
  8
0
 10
308.02112551446771
 20
319.28958376951363
 30
0.0
  0
VERTEX
  5
9701
  8
0
 10
308.0481397877727
 20
319.29245276677068
 30
0.0
  0
VERTEX
  5
9702
  8
0
 10
308.07512638678872
 20
319.29558817997662
 30
0.0
  0
VERTEX
  5
9703
  8
0
 10
308.12900291775259
 20
319.3026567951116
 30
0.0
  0
VERTEX
  5
9704
  8
0
 10
308.18272241590262
 20
319.3107852459226
 30
0.0
  0
VERTEX
  5
9705
  8
0
 10
308.20951266875198
 20
319.31524510210272
 30
0.0
  0
VERTEX
  5
9706
  8
0
 10
308.23625091688041
 20
319.31996755894301
 30
0.0
  0
VERTEX
  5
9707
  8
0
 10
308.2895543758284
 20
319.3301962451302
 30
0.0
  0
VERTEX
  5
9708
  8
0
 10
308.34259881960543
 20
319.34146229700019
 30
0.0
  0
VERTEX
  5
9709
  8
0
 10
308.36901335066801
 20
319.34748110727691
 30
0.0
  0
VERTEX
  5
970A
  8
0
 10
308.39535049635327
 20
319.35375519884781
 30
0.0
  0
VERTEX
  5
970B
  8
0
 10
308.44777602254931
 20
319.36706294998532
 30
0.0
  0
VERTEX
  5
970C
  8
0
 10
308.49984252770599
 20
319.38137210101928
 30
0.0
  0
VERTEX
  5
970D
  8
0
 10
308.55151779687958
 20
319.39666780329401
 30
0.0
  0
VERTEX
  5
970E
  8
0
 10
308.60277041114682
 20
319.41293387171697
 30
0.0
  0
VERTEX
  5
970F
  8
0
 10
308.65356982695829
 20
319.4301528405648
 30
0.0
  0
VERTEX
  5
9710
  8
0
 10
308.67879017139882
 20
319.43911382352911
 30
0.0
  0
VERTEX
  5
9711
  8
0
 10
308.7038859196395
 20
319.44830582703969
 30
0.0
  0
VERTEX
  5
9712
  8
0
 10
308.75368859215382
 20
319.46737235660441
 30
0.0
  0
VERTEX
  5
9713
  8
0
 10
308.80294790340258
 20
319.48733034702298
 30
0.0
  0
VERTEX
  5
9714
  8
0
 10
308.85163423612448
 20
319.50815612051491
 30
0.0
  0
VERTEX
  5
9715
  8
0
 10
308.89971845843269
 20
319.52982442953169
 30
0.0
  0
VERTEX
  5
9716
  8
0
 10
308.94717207912322
 20
319.55230849588918
 30
0.0
  0
VERTEX
  5
9717
  8
0
 10
308.97065372240792
 20
319.56384766396889
 30
0.0
  0
VERTEX
  5
9718
  8
0
 10
308.99396739697539
 20
319.57558006312559
 30
0.0
  0
VERTEX
  5
9719
  8
0
 10
309.04007764434073
 20
319.59960946210492
 30
0.0
  0
VERTEX
  5
971A
  8
0
 10
309.08547712537438
 20
319.6243656900362
 30
0.0
  0
VERTEX
  5
971B
  8
0
 10
309.10790262453088
 20
319.63700633435639
 30
0.0
  0
SEQEND
  5
971C
  8
0
  0
POLYLINE
  5
8940
  8
0
 66
     1
 10
0.0
 20
0.0
 30
0.0
  0
VERTEX
  5
971D
  8
0
 10
266.7682352629825
 20
319.63700627914761
 30
0.0
  0
VERTEX
  5
971E
  8
0
 10
266.79066076202179
 20
319.62436563608509
 30
0.0
  0
VERTEX
  5
971F
  8
0
 10
266.83606023933271
 20
319.59960941249523
 30
0.0
  0
VERTEX
  5
9720
  8
0
 10
266.88217047903117
 20
319.57558001965242
 30
0.0
  0
VERTEX
  5
9721
  8
0
 10
266.90548414856562
 20
319.563847624012
 30
0.0
  0
VERTEX
  5
9722
  8
0
 10
266.92896578617388
 20
319.55230845963558
 30
0.0
  0
VERTEX
  5
9723
  8
0
 10
266.9764193940685
 20
319.5298244009349
 30
0.0
  0
VERTEX
  5
9724
  8
0
 10
267.0245036024985
 20
319.50815609943749
 30
0.0
  0
VERTEX
  5
9725
  8
0
 10
267.07318992130598
 20
319.48733033283122
 30
0.0
  0
VERTEX
  5
9726
  8
0
 10
267.12244921968431
 20
319.46737234824872
 30
0.0
  0
VERTEX
  5
9727
  8
0
 10
267.1722518814791
 20
319.44830582314
 30
0.0
  0
VERTEX
  5
9728
  8
0
 10
267.19734762551838
 20
319.43911382126078
 30
0.0
  0
VERTEX
  5
9729
  8
0
 10
267.22256796671792
 20
319.4301528394987
 30
0.0
  0
VERTEX
  5
972A
  8
0
 10
267.27336737950009
 20
319.41293387171129
 30
0.0
  0
VERTEX
  5
972B
  8
0
 10
267.32461999374982
 20
319.39666780329401
 30
0.0
  0
VERTEX
  5
972C
  8
0
 10
267.37629526292341
 20
319.38137210101928
 30
0.0
  0
VERTEX
  5
972D
  8
0
 10
267.42836176808009
 20
319.36706294998532
 30
0.0
  0
VERTEX
  5
972E
  8
0
 10
267.48078729427613
 20
319.35375519884781
 30
0.0
  0
VERTEX
  5
972F
  8
0
 10
267.50712443996139
 20
319.34748110727691
 30
0.0
  0
VERTEX
  5
9730
  8
0
 10
267.53353897102369
 20
319.34146229700019
 30
0.0
  0
VERTEX
  5
9731
  8
0
 10
267.586583414801
 20
319.3301962451302
 30
0.0
  0
VERTEX
  5
9732
  8
0
 10
267.63988687374899
 20
319.31996755894301
 30
0.0
  0
VERTEX
  5
9733
  8
0
 10
267.66662512187742
 20
319.31524510210272
 30
0.0
  0
VERTEX
  5
9734
  8
0
 10
267.69341537472678
 20
319.3107852459226
 30
0.0
  0
VERTEX
  5
9735
  8
0
 10
267.74713487287681
 20
319.3026567951116
 30
0.0
  0
VERTEX
  5
9736
  8
0
 10
267.80101140384068
 20
319.29558817997662
 30
0.0
  0
VERTEX
  5
9737
  8
0
 10
267.8279980028567
 20
319.29245276677068
 30
0.0
  0
VERTEX
  5
9738
  8
0
 10
267.85501227616169
 20
319.28958376951363
 30
0.0
  0
VERTEX
  5
9739
  8
0
 10
267.90911693267623
 20
319.28464559032852
 30
0.0
  0
VERTEX
  5
973A
  8
0
 10
267.96329547168102
 20
319.28077586371847
 30
0.0
  0
VERTEX
  5
973B
  8
0
 10
268.01751356483493
 20
319.27797587978108
 30
0.0
  0
VERTEX
  5
973C
  8
0
 10
268.07173645184571
 20
319.27624547875809
 30
0.0
  0
VERTEX
  5
973D
  8
0
 10
268.12592908888132
 20
319.27558301215993
 30
0.0
  0
VERTEX
  5
973E
  8
0
 10
268.15300307138642
 20
319.27565132551388
 30
0.0
  0
VERTEX
  5
973F
  8
0
 10
268.18005629668909
 20
319.27598531734458
 30
0.0
  0
VERTEX
  5
9740
  8
0
 10
268.23408290852223
 20
319.2774477053498
 30
0.0
  0
VERTEX
  5
9741
  8
0
 10
268.28797391802641
 20
319.2799639618803
 30
0.0
  0
VERTEX
  5
9742
  8
0
 10
268.34169462727942
 20
319.2835263614366
 30
0.0
  0
VERTEX
  5
9743
  8
0
 10
268.39521079519409
 20
319.28812569467061
 30
0.0
  0
VERTEX
  5
9744
  8
0
 10
268.44848877228651
 20
319.29375130751379
 30
0.0
  0
VERTEX
  5
9745
  8
0
 10
268.47502803809948
 20
319.29694524656082
 30
0.0
  0
VERTEX
  5
9746
  8
0
 10
268.50149524840339
 20
319.30039109991361
 30
0.0
  0
VERTEX
  5
9747
  8
0
 10
268.55419666645088
 20
319.30803143915813
 30
0.0
  0
VERTEX
  5
9748
  8
0
 10
268.60655924646011
 20
319.31665710632279
 30
0.0
  0
VERTEX
  5
9749
  8
0
 10
268.65854915152158
 20
319.32625126882368
 30
0.0
  0
VERTEX
  5
974A
  8
0
 10
268.71013265021861
 20
319.3367954675781
 30
0.0
  0
VERTEX
  5
974B
  8
0
 10
268.76127627530991
 20
319.34826961835722
 30
0.0
  0
VERTEX
  5
974C
  8
0
 10
268.78667278721809
 20
319.35434870853481
 30
0.0
  0
VERTEX
  5
974D
  8
0
 10
268.81194697884689
 20
319.36065202706038
 30
0.0
  0
VERTEX
  5
974E
  8
0
 10
268.86211228401908
 20
319.37391941876552
 30
0.0
  0
VERTEX
  5
974F
  8
0
 10
268.91174043412229
 20
319.38804698054781
 30
0.0
  0
VERTEX
  5
9750
  8
0
 10
268.96081056734351
 20
319.40301157875768
 30
0.0
  0
VERTEX
  5
9751
  8
0
 10
269.00968037496682
 20
319.41891623616817
 30
0.0
  0
VERTEX
  5
9752
  8
0
 10
269.05851205504291
 20
319.43582478507489
 30
0.0
  0
VERTEX
  5
9753
  8
0
 10
269.08290128558792
 20
319.44465642694053
 30
0.0
  0
VERTEX
  5
9754
  8
0
 10
269.10726623021537
 20
319.4537399233912
 30
0.0
  0
VERTEX
  5
9755
  8
0
 10
269.15590372765269
 20
319.47266269613158
 30
0.0
  0
VERTEX
  5
9756
  8
0
 10
269.20438572567468
 20
319.4925925377467
 30
0.0
  0
VERTEX
  5
9757
  8
0
 10
269.25267389405639
 20
319.51352732663912
 30
0.0
  0
VERTEX
  5
9758
  8
0
 10
269.30073052844023
 20
319.53546345192979
 30
0.0
  0
VERTEX
  5
9759
  8
0
 10
269.34851867914699
 20
319.55839589261302
 30
0.0
  0
VERTEX
  5
975A
  8
0
 10
269.37230076317201
 20
319.57023379889631
 30
0.0
  0
VERTEX
  5
975B
  8
0
 10
269.39600227452962
 20
319.58231830929691
 30
0.0
  0
VERTEX
  5
975C
  8
0
 10
269.44314623886862
 20
319.60722314875431
 30
0.0
  0
VERTEX
  5
975D
  8
0
 10
269.48991659895211
 20
319.63310175830281
 30
0.0
  0
VERTEX
  5
975E
  8
0
 10
269.51315133654339
 20
319.64640322392307
 30
0.0
  0
VERTEX
  5
975F
  8
0
 10
269.53628032263828
 20
319.65994435744182
 30
0.0
  0
VERTEX
  5
9760
  8
0
 10
269.58220478764127
 20
319.6877397553709
 30
0.0
  0
VERTEX
  5
9761
  8
0
 10
269.62765775233493
 20
319.7164753046867
 30
0.0
  0
VERTEX
  5
9762
  8
0
 10
269.6501974841392
 20
319.73119129830991
 30
0.0
  0
VERTEX
  5
9763
  8
0
 10
269.67260749129491
 20
319.74613695427672
 30
0.0
  0
VERTEX
  5
9764
  8
0
 10
269.7170229237779
 20
319.77670931263162
 30
0.0
  0
VERTEX
  5
9765
  8
0
 10
269.7608737343653
 20
319.80817572091598
 30
0.0
  0
VERTEX
  5
9766
  8
0
 10
269.80413048602668
 20
319.8405183358085
 30
0.0
  0
VERTEX
  5
9767
  8
0
 10
269.84676472577979
 20
319.87371822217858
 30
0.0
  0
VERTEX
  5
9768
  8
0
 10
269.88874908306138
 20
319.90775545573149
 30
0.0
  0
VERTEX
  5
9769
  8
0
 10
269.90948932101691
 20
319.92508160842942
 30
0.0
  0
VERTEX
  5
976A
  8
0
 10
269.93005736082608
 20
319.94260923579498
 30
0.0
  0
VERTEX
  5
976B
  8
0
 10
269.970669962052
 20
319.97826279237972
 30
0.0
  0
VERTEX
  5
976C
  8
0
 10
270.01056980665612
 20
320.01470060662689
 30
0.0
  0
VERTEX
  5
976D
  8
0
 10
270.04973286339077
 20
320.05189960873747
 30
0.0
  0
VERTEX
  5
976E
  8
0
 10
270.0881357452331
 20
320.08983540517107
 30
0.0
  0
VERTEX
  5
976F
  8
0
 10
270.12575587973788
 20
320.1284823900279
 30
0.0
  0
VERTEX
  5
9770
  8
0
 10
270.14426561447021
 20
320.14806426466942
 30
0.0
  0
VERTEX
  5
9771
  8
0
 10
270.16257162564148
 20
320.16781382661333
 30
0.0
  0
VERTEX
  5
9772
  8
0
 10
270.19856238028802
 20
320.2078019372795
 30
0.0
  0
VERTEX
  5
9773
  8
0
 10
270.2337086780808
 20
320.24841800156548
 30
0.0
  0
VERTEX
  5
9774
  8
0
 10
270.26799228012328
 20
320.28963246275828
 30
0.0
  0
VERTEX
  5
9775
  8
0
 10
270.3013962551654
 20
320.3314150430661
 30
0.0
  0
VERTEX
  5
9776
  8
0
 10
270.33390505183547
 20
320.37373486759168
 30
0.0
  0
VERTEX
  5
9777
  8
0
 10
270.34981928281701
 20
320.39508645542088
 30
0.0
  0
VERTEX
  5
9778
  8
0
 10
270.36550449140032
 20
320.4165604995784
 30
0.0
  0
VERTEX
  5
9779
  8
0
 10
270.39618143465867
 20
320.4598595039144
 30
0.0
  0
VERTEX
  5
977A
  8
0
 10
270.42592366340091
 20
320.5035982116234
 30
0.0
  0
VERTEX
  5
977B
  8
0
 10
270.45472000232053
 20
320.54774179883259
 30
0.0
  0
VERTEX
  5
977C
  8
0
 10
270.48256043916882
 20
320.59225438619529
 30
0.0
  0
VERTEX
  5
977D
  8
0
 10
270.50943623286179
 20
320.63709914503568
 30
0.0
  0
VERTEX
  5
977E
  8
0
 10
270.52251002847129
 20
320.65963434783617
 30
0.0
  0
VERTEX
  5
977F
  8
0
 10
270.53534000984308
 20
320.68223841013861
 30
0.0
  0
VERTEX
  5
9780
  8
0
 10
270.56026584897808
 20
320.72763379926789
 30
0.0
  0
VERTEX
  5
9781
  8
0
 10
270.58420935523668
 20
320.77324633963468
 30
0.0
  0
VERTEX
  5
9782
  8
0
 10
270.60716772237151
 20
320.81903660171349
 30
0.0
  0
VERTEX
  5
9783
  8
0
 10
270.6292019577304
 20
320.86509795539098
 30
0.0
  0
VERTEX
  5
9784
  8
0
 10
270.65050846923418
 20
320.91185104563567
 30
0.0
  0
VERTEX
  5
9785
  8
0
 10
270.66088482307191
 20
320.93549204644307
 30
0.0
  0
VERTEX
  5
9786
  8
0
 10
270.67107094094831
 20
320.95930435104867
 30
0.0
  0
VERTEX
  5
9787
  8
0
 10
270.69085617691599
 20
321.00742744975639
 30
0.0
  0
VERTEX
  5
9788
  8
0
 10
270.70983265493578
 20
321.05618887366302
 30
0.0
  0
VERTEX
  5
9789
  8
0
 10
270.71900823513761
 20
321.08079887722931
 30
0.0
  0
VERTEX
  5
978A
  8
0
 10
270.72797060022799
 20
321.10555626953249
 30
0.0
  0
VERTEX
  5
978B
  8
0
 10
270.74524204382209
 20
321.15549656615428
 30
0.0
  0
VERTEX
  5
978C
  8
0
 10
270.76162086577068
 20
321.20597614829728
 30
0.0
  0
VERTEX
  5
978D
  8
0
 10
270.76946789393043
 20
321.23140756238843
 30
0.0
  0
VERTEX
  5
978E
  8
0
 10
270.77708282309021
 20
321.25696103804017
 30
0.0
  0
VERTEX
  5
978F
  8
0
 10
270.79160556211792
 20
321.30841708397031
 30
0.0
  0
VERTEX
  5
9790
  8
0
 10
270.80516860270581
 20
321.36031011043332
 30
0.0
  0
VERTEX
  5
9791
  8
0
 10
270.81775318293921
 20
321.41260551645257
 30
0.0
  0
VERTEX
  5
9792
  8
0
 10
270.82934214312468
 20
321.46526779826138
 30
0.0
  0
VERTEX
  5
9793
  8
0
 10
270.83991998229197
 20
321.51826064790242
 30
0.0
  0
VERTEX
  5
9794
  8
0
 10
270.84482535605957
 20
321.54486951023313
 30
0.0
  0
VERTEX
  5
9795
  8
0
 10
270.84947291810869
 20
321.57154711877808
 30
0.0
  0
VERTEX
  5
9796
  8
0
 10
270.85798893138121
 20
321.62508979303442
 30
0.0
  0
VERTEX
  5
9797
  8
0
 10
270.8654577953705
 20
321.67885095129839
 30
0.0
  0
VERTEX
  5
9798
  8
0
 10
270.87187108998569
 20
321.7327927452867
 30
0.0
  0
VERTEX
  5
9799
  8
0
 10
270.87722220077097
 20
321.7868773737643
 30
0.0
  0
VERTEX
  5
979A
  8
0
 10
270.88150632678457
 20
321.84106761435299
 30
0.0
  0
VERTEX
  5
979B
  8
0
 10
270.88324744439461
 20
321.86819419424148
 30
0.0
  0
VERTEX
  5
979C
  8
0
 10
270.8847209168357
 20
321.89533720947458
 30
0.0
  0
VERTEX
  5
979D
  8
0
 10
270.88686405486652
 20
321.9496533551681
 30
0.0
  0
VERTEX
  5
979E
  8
0
 10
270.88793510929139
 20
322.00397758475282
 30
0.0
  0
VERTEX
  5
979F
  8
0
 10
270.8880688953148
 20
322.03113070134879
 30
0.0
  0
SEQEND
  5
97A0
  8
0
  0
POLYLINE
  5
8942
  8
0
 66
     1
 10
0.0
 20
0.0
 30
0.0
  0
VERTEX
  5
97A1
  8
0
 10
270.8880688953148
 20
391.54329335678102
 30
0.0
  0
VERTEX
  5
97A2
  8
0
 10
270.88793510929139
 20
391.57044647337699
 30
0.0
  0
VERTEX
  5
97A3
  8
0
 10
270.88686405486652
 20
391.6247707029616
 30
0.0
  0
VERTEX
  5
97A4
  8
0
 10
270.8847209168357
 20
391.6790868486554
 30
0.0
  0
VERTEX
  5
97A5
  8
0
 10
270.88324744439461
 20
391.70622986388832
 30
0.0
  0
VERTEX
  5
97A6
  8
0
 10
270.88150632678457
 20
391.73335644377693
 30
0.0
  0
VERTEX
  5
97A7
  8
0
 10
270.87722220077097
 20
391.78754668436562
 30
0.0
  0
VERTEX
  5
97A8
  8
0
 10
270.87187108998569
 20
391.84163131284311
 30
0.0
  0
VERTEX
  5
97A9
  8
0
 10
270.8654577953705
 20
391.89557310683142
 30
0.0
  0
VERTEX
  5
97AA
  8
0
 10
270.85798893138121
 20
391.94933426509539
 30
0.0
  0
VERTEX
  5
97AB
  8
0
 10
270.84947291810869
 20
392.00287693935172
 30
0.0
  0
VERTEX
  5
97AC
  8
0
 10
270.84482535605957
 20
392.02955454789679
 30
0.0
  0
VERTEX
  5
97AD
  8
0
 10
270.83991998229197
 20
392.05616341022738
 30
0.0
  0
VERTEX
  5
97AE
  8
0
 10
270.82934214312468
 20
392.10915625986843
 30
0.0
  0
VERTEX
  5
97AF
  8
0
 10
270.81775318293921
 20
392.16181854167752
 30
0.0
  0
VERTEX
  5
97B0
  8
0
 10
270.80516860270581
 20
392.21411394769649
 30
0.0
  0
VERTEX
  5
97B1
  8
0
 10
270.79160556211792
 20
392.26600697415972
 30
0.0
  0
VERTEX
  5
97B2
  8
0
 10
270.77708282309021
 20
392.31746302008958
 30
0.0
  0
VERTEX
  5
97B3
  8
0
 10
270.76946789393043
 20
392.34301649574138
 30
0.0
  0
VERTEX
  5
97B4
  8
0
 10
270.76162086577068
 20
392.36844790983253
 30
0.0
  0
VERTEX
  5
97B5
  8
0
 10
270.74524204382209
 20
392.41892749197552
 30
0.0
  0
VERTEX
  5
97B6
  8
0
 10
270.72797060022799
 20
392.46886778859761
 30
0.0
  0
VERTEX
  5
97B7
  8
0
 10
270.71900823513761
 20
392.49362518090049
 30
0.0
  0
VERTEX
  5
97B8
  8
0
 10
270.70983265493578
 20
392.51823518446679
 30
0.0
  0
VERTEX
  5
97B9
  8
0
 10
270.69085617691599
 20
392.56699660837342
 30
0.0
  0
VERTEX
  5
97BA
  8
0
 10
270.67107094094831
 20
392.61511970708119
 30
0.0
  0
VERTEX
  5
97BB
  8
0
 10
270.66088482307191
 20
392.63893201168679
 30
0.0
  0
VERTEX
  5
97BC
  8
0
 10
270.65050846923418
 20
392.66257301249408
 30
0.0
  0
VERTEX
  5
97BD
  8
0
 10
270.6292019577304
 20
392.70932610273883
 30
0.0
  0
VERTEX
  5
97BE
  8
0
 10
270.60716772237151
 20
392.75538745641632
 30
0.0
  0
VERTEX
  5
97BF
  8
0
 10
270.58420935523668
 20
392.80117771849513
 30
0.0
  0
VERTEX
  5
97C0
  8
0
 10
270.56026584897808
 20
392.84679025886192
 30
0.0
  0
VERTEX
  5
97C1
  8
0
 10
270.53534000984308
 20
392.89218564799108
 30
0.0
  0
VERTEX
  5
97C2
  8
0
 10
270.52251002847129
 20
392.91478971029358
 30
0.0
  0
VERTEX
  5
97C3
  8
0
 10
270.50943623286179
 20
392.93732491309407
 30
0.0
  0
VERTEX
  5
97C4
  8
0
 10
270.48256043916882
 20
392.9821696719344
 30
0.0
  0
VERTEX
  5
97C5
  8
0
 10
270.45472000232053
 20
393.02668225929722
 30
0.0
  0
VERTEX
  5
97C6
  8
0
 10
270.42592366340068
 20
393.07082584650658
 30
0.0
  0
VERTEX
  5
97C7
  8
0
 10
270.39618143465867
 20
393.11456455421552
 30
0.0
  0
VERTEX
  5
97C8
  8
0
 10
270.36550449140032
 20
393.15786355855141
 30
0.0
  0
VERTEX
  5
97C9
  8
0
 10
270.34981928281701
 20
393.17933760270893
 30
0.0
  0
VERTEX
  5
97CA
  8
0
 10
270.33390505183547
 20
393.20068919053813
 30
0.0
  0
VERTEX
  5
97CB
  8
0
 10
270.3013962551654
 20
393.24300901506388
 30
0.0
  0
VERTEX
  5
97CC
  8
0
 10
270.26799228012328
 20
393.2847915953717
 30
0.0
  0
VERTEX
  5
97CD
  8
0
 10
270.2337086780808
 20
393.32600605656432
 30
0.0
  0
VERTEX
  5
97CE
  8
0
 10
270.19856238028802
 20
393.36662212085042
 30
0.0
  0
VERTEX
  5
97CF
  8
0
 10
270.16257162564148
 20
393.40661023151648
 30
0.0
  0
VERTEX
  5
97D0
  8
0
 10
270.14426561447021
 20
393.42635979346039
 30
0.0
  0
VERTEX
  5
97D1
  8
0
 10
270.12575587973788
 20
393.44594166810219
 30
0.0
  0
VERTEX
  5
97D2
  8
0
 10
270.0881357452331
 20
393.48458865295868
 30
0.0
  0
VERTEX
  5
97D3
  8
0
 10
270.04973286339077
 20
393.52252444939228
 30
0.0
  0
VERTEX
  5
97D4
  8
0
 10
270.01056980665612
 20
393.55972345150292
 30
0.0
  0
VERTEX
  5
97D5
  8
0
 10
269.970669962052
 20
393.59616126575008
 30
0.0
  0
VERTEX
  5
97D6
  8
0
 10
269.93005736082608
 20
393.631814822335
 30
0.0
  0
VERTEX
  5
97D7
  8
0
 10
269.90948932101691
 20
393.64934244970038
 30
0.0
  0
VERTEX
  5
97D8
  8
0
 10
269.88874908306138
 20
393.66666860239849
 30
0.0
  0
VERTEX
  5
97D9
  8
0
 10
269.84676472577979
 20
393.70070583595123
 30
0.0
  0
VERTEX
  5
97DA
  8
0
 10
269.80413048602668
 20
393.73390572232131
 30
0.0
  0
VERTEX
  5
97DB
  8
0
 10
269.7608737343653
 20
393.76624833721382
 30
0.0
  0
VERTEX
  5
97DC
  8
0
 10
269.7170229237779
 20
393.79771474549841
 30
0.0
  0
VERTEX
  5
97DD
  8
0
 10
269.67260749129491
 20
393.82828710385309
 30
0.0
  0
VERTEX
  5
97DE
  8
0
 10
269.6501974841392
 20
393.8432327598199
 30
0.0
  0
VERTEX
  5
97DF
  8
0
 10
269.62765775233493
 20
393.85794875344311
 30
0.0
  0
VERTEX
  5
97E0
  8
0
 10
269.58220478764127
 20
393.88668430275891
 30
0.0
  0
VERTEX
  5
97E1
  8
0
 10
269.53628032263828
 20
393.9144797006881
 30
0.0
  0
VERTEX
  5
97E2
  8
0
 10
269.51315133654339
 20
393.92802083420668
 30
0.0
  0
VERTEX
  5
97E3
  8
0
 10
269.48991659895211
 20
393.94132229982699
 30
0.0
  0
VERTEX
  5
97E4
  8
0
 10
269.44314623886862
 20
393.96720090937572
 30
0.0
  0
VERTEX
  5
97E5
  8
0
 10
269.39600227452962
 20
393.99210574883278
 30
0.0
  0
VERTEX
  5
97E6
  8
0
 10
269.37230076317201
 20
394.0041902592335
 30
0.0
  0
VERTEX
  5
97E7
  8
0
 10
269.34851867914699
 20
394.01602816551679
 30
0.0
  0
VERTEX
  5
97E8
  8
0
 10
269.30073052844023
 20
394.03896060620002
 30
0.0
  0
VERTEX
  5
97E9
  8
0
 10
269.25267389405639
 20
394.06089673149069
 30
0.0
  0
VERTEX
  5
97EA
  8
0
 10
269.20438572567468
 20
394.08183152038322
 30
0.0
  0
VERTEX
  5
97EB
  8
0
 10
269.15590372765269
 20
394.10176136199817
 30
0.0
  0
VERTEX
  5
97EC
  8
0
 10
269.10726623021537
 20
394.12068413473861
 30
0.0
  0
VERTEX
  5
97ED
  8
0
 10
269.08290128558792
 20
394.1297676311894
 30
0.0
  0
VERTEX
  5
97EE
  8
0
 10
269.05851205504291
 20
394.13859927305492
 30
0.0
  0
VERTEX
  5
97EF
  8
0
 10
269.00968037496682
 20
394.15550782196158
 30
0.0
  0
VERTEX
  5
97F0
  8
0
 10
268.96081056734351
 20
394.17141247937218
 30
0.0
  0
VERTEX
  5
97F1
  8
0
 10
268.91174043412229
 20
394.18637707758211
 30
0.0
  0
VERTEX
  5
97F2
  8
0
 10
268.86211228401908
 20
394.2005046393644
 30
0.0
  0
VERTEX
  5
97F3
  8
0
 10
268.81194697884689
 20
394.21377203106942
 30
0.0
  0
VERTEX
  5
97F4
  8
0
 10
268.78667278721809
 20
394.22007534959511
 30
0.0
  0
VERTEX
  5
97F5
  8
0
 10
268.76127627530991
 20
394.22615443977259
 30
0.0
  0
VERTEX
  5
97F6
  8
0
 10
268.71013265021861
 20
394.23762859055171
 30
0.0
  0
VERTEX
  5
97F7
  8
0
 10
268.65854915152158
 20
394.24817278930612
 30
0.0
  0
VERTEX
  5
97F8
  8
0
 10
268.60655924646011
 20
394.25776695180701
 30
0.0
  0
VERTEX
  5
97F9
  8
0
 10
268.55419666645088
 20
394.26639261897168
 30
0.0
  0
VERTEX
  5
97FA
  8
0
 10
268.50149524840322
 20
394.27403295821631
 30
0.0
  0
VERTEX
  5
97FB
  8
0
 10
268.47502803809948
 20
394.27747881156898
 30
0.0
  0
VERTEX
  5
97FC
  8
0
 10
268.44848877228651
 20
394.28067275061602
 30
0.0
  0
VERTEX
  5
97FD
  8
0
 10
268.39521079519409
 20
394.2862983634592
 30
0.0
  0
VERTEX
  5
97FE
  8
0
 10
268.34169462727942
 20
394.29089769669338
 30
0.0
  0
VERTEX
  5
97FF
  8
0
 10
268.28797391802641
 20
394.29446009624951
 30
0.0
  0
VERTEX
  5
9800
  8
0
 10
268.23408290852223
 20
394.29697635278018
 30
0.0
  0
VERTEX
  5
9801
  8
0
 10
268.18005629668909
 20
394.29843874078517
 30
0.0
  0
VERTEX
  5
9802
  8
0
 10
268.15300307138642
 20
394.29877273261587
 30
0.0
  0
VERTEX
  5
9803
  8
0
 10
268.12592908888132
 20
394.29884104596988
 30
0.0
  0
VERTEX
  5
9804
  8
0
 10
268.07173645184571
 20
394.29817857937172
 30
0.0
  0
VERTEX
  5
9805
  8
0
 10
268.01751356483493
 20
394.29644817834873
 30
0.0
  0
VERTEX
  5
9806
  8
0
 10
267.96329547168102
 20
394.29364819441128
 30
0.0
  0
VERTEX
  5
9807
  8
0
 10
267.90911693267623
 20
394.28977846780128
 30
0.0
  0
VERTEX
  5
9808
  8
0
 10
267.85501227616169
 20
394.28484028861618
 30
0.0
  0
VERTEX
  5
9809
  8
0
 10
267.8279980028567
 20
394.28197129135913
 30
0.0
  0
VERTEX
  5
980A
  8
0
 10
267.80101140384068
 20
394.2788358781533
 30
0.0
  0
VERTEX
  5
980B
  8
0
 10
267.74713487287681
 20
394.27176726301821
 30
0.0
  0
VERTEX
  5
980C
  8
0
 10
267.69341537472678
 20
394.2636388122072
 30
0.0
  0
VERTEX
  5
980D
  8
0
 10
267.66662512187742
 20
394.25917895602709
 30
0.0
  0
VERTEX
  5
980E
  8
0
 10
267.63988687374899
 20
394.25445649918692
 30
0.0
  0
VERTEX
  5
980F
  8
0
 10
267.586583414801
 20
394.24422781299961
 30
0.0
  0
VERTEX
  5
9810
  8
0
 10
267.53353897102369
 20
394.23296176112962
 30
0.0
  0
VERTEX
  5
9811
  8
0
 10
267.50712443996139
 20
394.22694295085302
 30
0.0
  0
VERTEX
  5
9812
  8
0
 10
267.48078729427579
 20
394.220668859282
 30
0.0
  0
VERTEX
  5
9813
  8
0
 10
267.42836176808009
 20
394.20736110814448
 30
0.0
  0
VERTEX
  5
9814
  8
0
 10
267.37629526292341
 20
394.19305195711053
 30
0.0
  0
VERTEX
  5
9815
  8
0
 10
267.32461999374982
 20
394.1777562548358
 30
0.0
  0
VERTEX
  5
9816
  8
0
 10
267.27336737948258
 20
394.16149018641278
 30
0.0
  0
VERTEX
  5
9817
  8
0
 10
267.222567963671
 20
394.14427121756529
 30
0.0
  0
VERTEX
  5
9818
  8
0
 10
267.19734761923058
 20
394.13531023460081
 30
0.0
  0
VERTEX
  5
9819
  8
0
 10
267.17225187098961
 20
394.12611823109012
 30
0.0
  0
VERTEX
  5
981A
  8
0
 10
267.12244919847558
 20
394.10705170152539
 30
0.0
  0
VERTEX
  5
981B
  8
0
 10
267.07318988722682
 20
394.08709371110689
 30
0.0
  0
VERTEX
  5
981C
  8
0
 10
267.02450355450492
 20
394.06626793761501
 30
0.0
  0
VERTEX
  5
981D
  8
0
 10
266.97641933219671
 20
394.04459962859812
 30
0.0
  0
VERTEX
  5
981E
  8
0
 10
266.92896571150618
 20
394.02211556224057
 30
0.0
  0
VERTEX
  5
981F
  8
0
 10
266.90548406822148
 20
394.01057639416121
 30
0.0
  0
VERTEX
  5
9820
  8
0
 10
266.88217039365401
 20
393.99884399500422
 30
0.0
  0
VERTEX
  5
9821
  8
0
 10
266.83606014628867
 20
393.97481459602488
 30
0.0
  0
VERTEX
  5
9822
  8
0
 10
266.79066066525502
 20
393.95005836809389
 30
0.0
  0
VERTEX
  5
9823
  8
0
 10
266.76823516609852
 20
393.93741772377342
 30
0.0
  0
SEQEND
  5
9824
  8
0
  0
ARC
  5
8943
  8
0
 10
287.9380688953147
 20
356.78721202906502
 30
0.0
 40
42.75862068965516
 50
119.6764073220576
 51
240.32359282736761
  0
LINE
  5
8944
  8
1
 10
287.9380688953147
 20
286.97241111191693
 30
0.0
 11
287.9380688953147
 21
426.60201294621299
 31
0.0
  0
LINE
  5
8945
  8
1
 10
218.12326797816661
 20
356.78721202906502
 30
0.0
 11
357.75286981246279
 21
356.78721202906502
 31
0.0
  0
LINE
  5
8947
  8
2
 10
293.93806889531442
 20
152.22479657187009
 30
0.0
 11
293.93806889531442
 21
130.22479657187009
 31
0.0
  0
LINE
  5
8948
  8
2
 10
281.93806889531447
 20
130.22479657187009
 30
0.0
 11
281.93806889531459
 21
152.22479657187009
 31
0.0
  0
LINE
  5
8949
  8
0
 10
298.93806889531447
 20
130.4247965718701
 30
0.0
 11
298.93806889531447
 21
130.22479657187009
 31
0.0
  0
LINE
  5
894A
  8
0
 10
276.93806889531447
 20
130.22479657187009
 30
0.0
 11
276.93806889531447
 21
130.4247965718701
 31
0.0
  0
ARC
  5
894B
  8
0
 10
272.93806889531447
 20
130.9247965718701
 30
0.0
 40
0.5000000000000006
 50
180.0
 51
270.0
  0
ARC
  5
894C
  8
0
 10
302.93806889531447
 20
130.9247965718701
 30
0.0
 40
0.5
 50
270.0
 51
0.0
  0
LINE
  5
894D
  8
0
 10
303.43806889531447
 20
133.22479657187009
 30
0.0
 11
303.43806889531447
 21
130.9247965718701
 31
0.0
  0
LINE
  5
894E
  8
0
 10
272.43806889531447
 20
130.9247965718701
 30
0.0
 11
272.43806889531447
 21
133.22479657187009
 31
0.0
  0
ARC
  5
894F
  8
0
 10
233.2714022286479
 20
159.5581299052036
 30
0.0
 40
7.3333333333333526
 50
179.99999914622629
 51
270.0
  0
ARC
  5
8950
  8
0
 10
342.60473556198122
 20
159.5581299052036
 30
0.0
 40
7.333333333333357
 50
270.0
 51
0.0000008537736463
  0
LINE
  5
8951
  8
0
 10
349.93806889531447
 20
163.9951082916142
 30
0.0
 11
349.93806889531447
 21
159.5581299052036
 31
0.0
  0
LINE
  5
8952
  8
0
 10
225.9380688953145
 20
159.5581299052036
 30
0.0
 11
225.9380688953145
 21
163.9951082916142
 31
0.0
  0
ARC
  5
8953
  8
0
 10
247.93806889531521
 20
163.99510829161389
 30
0.0
 40
22.00000000000065
 50
165.00000000000551
 51
180.0
  0
ARC
  5
8954
  8
0
 10
327.93806889531402
 20
163.99510829161389
 30
0.0
 40
22.000000000000568
 50
0.0
 51
14.99999999999447
  0
LINE
  5
8955
  8
0
 10
348.41002559510179
 20
172.59419847109581
 30
0.0
 11
349.18843707367409
 21
169.6891272838696
 31
0.0
  0
LINE
  5
8956
  8
0
 10
226.68770071695511
 20
169.6891272838696
 30
0.0
 11
227.4661121955273
 21
172.59419847109581
 31
0.0
  0
ARC
  5
8957
  8
0
 10
229.59114901336329
 20
172.02479657187001
 30
0.0
 40
2.2000000000000242
 50
90.0
 51
165.00000000000551
  0
ARC
  5
8958
  8
0
 10
346.28498877726588
 20
172.02479657187001
 30
0.0
 40
2.2000000000000171
 50
14.99999999999447
 51
90.0
  0
ARC
  5
8959
  8
0
 10
243.53841219898709
 20
147.82479657187019
 30
0.0
 40
4.3999999999999773
 50
68.101547113985873
 51
90.0
  0
ARC
  5
895A
  8
0
 10
332.33772559164208
 20
147.82479657187019
 30
0.0
 40
4.4000000000000687
 50
90.0
 51
111.8984528860141
  0
LINE
  5
895B
  8
0
 10
276.93806889531447
 20
130.22479657187009
 30
0.0
 11
298.93806889531447
 21
130.22479657187009
 31
0.0
  0
LINE
  5
895C
  8
2
 10
274.93806889531459
 20
155.22479657187009
 30
0.0
 11
300.9380688953143
 21
155.22479657187219
 31
0.0
  0
LINE
  5
895D
  8
0
 10
272.93806889531447
 20
130.4247965718701
 30
0.0
 11
302.93806889531447
 21
130.4247965718701
 31
0.0
  0
LINE
  5
895E
  8
0
 10
233.2714022286479
 20
152.22479657187009
 30
0.0
 11
342.60473556198122
 21
152.22479657187009
 31
0.0
  0
LINE
  5
895F
  8
0
 10
229.59114901336309
 20
174.22479657187009
 30
0.0
 11
346.28498877726588
 21
174.22479657187009
 31
0.0
  0
LINE
  5
8960
  8
0
 10
271.68806889531447
 20
133.22479657187009
 30
0.0
 11
304.18806889531447
 21
133.22479657187009
 31
0.0
  0
LINE
  5
8961
  8
0
 10
267.56823526300059
 20
151.86269134142441
 30
0.0
 11
245.17944820565941
 21
151.90732040215019
 31
0.0
  0
LINE
  5
8962
  8
1
 10
287.93806889531442
 20
248.53959748901821
 30
0.0
 11
287.93806889531442
 21
122.409995654722
 31
0.0
  0
LINE
  5
8963
  8
1
 10
76.200876305660003
 20
404.78721202906468
 30
0.0
 11
169.95801503278969
 21
404.78721202906468
 31
0.0
  0
LINE
  5
8964
  8
0
 10
51.843214115641551
 20
345.78721202906479
 30
0.0
 11
51.643214115641513
 21
345.78721202906479
 31
0.0
  0
LINE
  5
8965
  8
0
 10
51.643214115641513
 20
367.78721202906479
 30
0.0
 11
51.843214115641551
 21
367.78721202906479
 31
0.0
  0
ARC
  5
8966
  8
0
 10
52.343214115641558
 20
371.78721202906479
 30
0.0
 40
0.4999999999999999
 50
90.0
 51
180.0
  0
ARC
  5
8967
  8
0
 10
52.343214115641558
 20
341.78721202906479
 30
0.0
 40
0.5000000000000018
 50
180.0
 51
270.0
  0
LINE
  5
8968
  8
0
 10
54.643214115641513
 20
341.28721202906479
 30
0.0
 11
52.343214115641558
 21
341.28721202906479
 31
0.0
  0
LINE
  5
8969
  8
0
 10
52.343214115641558
 20
372.28721202906479
 30
0.0
 11
54.643214115641513
 21
372.28721202906479
 31
0.0
  0
ARC
  5
896A
  8
0
 10
80.976547448974998
 20
411.45387869573131
 30
0.0
 40
7.3333333333333526
 50
89.999999146226358
 51
180.0
  0
ARC
  5
896B
  8
0
 10
80.976547448974998
 20
302.1205453623981
 30
0.0
 40
7.333333333333357
 50
180.0
 51
270.0000008537736
  0
LINE
  5
896C
  8
0
 10
85.413525835385585
 20
294.78721202906479
 30
0.0
 11
80.976547448974998
 21
294.78721202906479
 31
0.0
  0
LINE
  5
896D
  8
0
 10
80.976547448974998
 20
418.78721202906479
 30
0.0
 11
85.413525835385585
 21
418.78721202906479
 31
0.0
  0
ARC
  5
896E
  8
0
 10
85.413525835385386
 20
396.78721202906411
 30
0.0
 40
22.00000000000065
 50
75.000000000005556
 51
90.0
  0
ARC
  5
896F
  8
0
 10
85.413525835385585
 20
316.78721202906371
 30
0.0
 40
21.999999999998959
 50
270.0
 51
284.99999999999449
  0
LINE
  5
8970
  8
0
 10
94.012616014867035
 20
296.31525532927742
 30
0.0
 11
91.107544827641064
 21
295.53684385070511
 31
0.0
  0
LINE
  5
8971
  8
0
 10
91.107544827641064
 20
418.03758020742418
 30
0.0
 11
94.012616014867035
 21
417.2591687288521
 31
0.0
  0
ARC
  5
8972
  8
0
 10
93.443214115641467
 20
415.13413191101608
 30
0.0
 40
2.200000000000025
 50
0.0
 51
75.000000000005556
  0
ARC
  5
8973
  8
0
 10
93.443214115641467
 20
298.44029214711338
 30
0.0
 40
2.2000000000000242
 50
284.99999999999449
 51
0.0
  0
LINE
  5
8974
  8
0
 10
73.643214115641513
 20
313.59917784103038
 30
0.0
 11
54.643214115641513
 21
341.28721202906479
 31
0.0
  0
LINE
  5
8975
  8
0
 10
54.643214115641513
 20
372.28721202906479
 30
0.0
 11
73.643214115641513
 21
399.97524621709857
 31
0.0
  0
LINE
  5
8976
  8
0
 10
51.643214115641513
 20
367.78721202906479
 30
0.0
 11
51.643214115641513
 21
345.78721202906479
 31
0.0
  0
LINE
  5
8977
  8
0
 10
51.843214115641551
 20
371.78721202906479
 30
0.0
 11
51.843214115641551
 21
341.78721202906479
 31
0.0
  0
LINE
  5
8978
  8
0
 10
73.643214115641513
 20
411.45387869573131
 30
0.0
 11
73.643214115641513
 21
302.1205453623981
 31
0.0
  0
LINE
  5
8979
  8
0
 10
95.643214115641513
 20
415.13413191101608
 30
0.0
 11
95.643214115641513
 21
298.44029214711338
 31
0.0
  0
LINE
  5
897A
  8
0
 10
54.643214115641513
 20
372.28721202906479
 30
0.0
 11
54.643214115641513
 21
341.28721202906479
 31
0.0
  0
POLYLINE
  5
897B
  8
0
 66
     1
 10
0.0
 20
0.0
 30
0.0
  0
VERTEX
  5
9825
  8
0
 10
73.643214115641513
 20
396.5906366005072
 30
0.0
  0
VERTEX
  5
9826
  8
0
 10
68.84235056411876
 20
387.5044187743942
 30
0.0
  0
VERTEX
  5
9827
  8
0
 10
65.574490207148983
 20
381.04239375677952
 30
0.0
  0
VERTEX
  5
9828
  8
0
 10
63.231078627705763
 20
376.03820699226151
 30
0.0
  0
VERTEX
  5
9829
  8
0
 10
62.307720833615122
 20
373.91352933285782
 30
0.0
  0
VERTEX
  5
982A
  8
0
 10
61.515419063458467
 20
371.97992359002262
 30
0.0
  0
VERTEX
  5
982B
  8
0
 10
60.25278444821879
 20
368.55731220820218
 30
0.0
  0
VERTEX
  5
982C
  8
0
 10
59.335321793768799
 20
365.5685635885801
 30
0.0
  0
VERTEX
  5
982D
  8
0
 10
58.931262349755791
 20
363.96804829736072
 30
0.0
  0
VERTEX
  5
982E
  8
0
 10
58.831688735572918
 20
363.52589274431818
 30
0.0
  0
VERTEX
  5
982F
  8
0
 10
58.738823669406429
 20
363.08960841308738
 30
0.0
  0
VERTEX
  5
9830
  8
0
 10
58.694854855013538
 20
362.87353103719232
 30
0.0
  0
VERTEX
  5
9831
  8
0
 10
58.652502509015669
 20
362.65875925747503
 30
0.0
  0
VERTEX
  5
9832
  8
0
 10
58.572574121723839
 20
362.23292551934099
 30
0.0
  0
VERTEX
  5
9833
  8
0
 10
58.498900197457708
 20
361.81170225396488
 30
0.0
  0
VERTEX
  5
9834
  8
0
 10
58.431354630162559
 20
361.39469795048092
 30
0.0
  0
VERTEX
  5
9835
  8
0
 10
58.369822962271662
 20
360.98153323701843
 30
0.0
  0
VERTEX
  5
9836
  8
0
 10
58.314201887534637
 20
360.57183966114292
 30
0.0
  0
VERTEX
  5
9837
  8
0
 10
58.28857847852646
 20
360.36818210924878
 30
0.0
  0
VERTEX
  5
9838
  8
0
 10
58.264398808076969
 20
360.16525853700239
 30
0.0
  0
VERTEX
  5
9839
  8
0
 10
58.220331442071931
 20
359.7614398512988
 30
0.0
  0
VERTEX
  5
983A
  8
0
 10
58.181927478869738
 20
359.36004122083148
 30
0.0
  0
VERTEX
  5
983B
  8
0
 10
58.149124278844511
 20
358.96072689487698
 30
0.0
  0
VERTEX
  5
983C
  8
0
 10
58.121868615607582
 20
358.56316679614849
 30
0.0
  0
VERTEX
  5
983D
  8
0
 10
58.100116458587081
 20
358.16703559444562
 30
0.0
  0
VERTEX
  5
983E
  8
0
 10
58.091292905082128
 20
357.96940524056259
 30
0.0
  0
VERTEX
  5
983F
  8
0
 10
58.083832794304953
 20
357.77201180744697
 30
0.0
  0
VERTEX
  5
9840
  8
0
 10
58.072991484989643
 20
357.37777692335601
 30
0.0
  0
VERTEX
  5
9841
  8
0
 10
58.067575163455331
 20
356.98401454032989
 30
0.0
  0
VERTEX
  5
9842
  8
0
 10
58.066898326209859
 20
356.78721202905552
 30
0.0
  0
VERTEX
  5
9843
  8
0
 10
58.067575163456013
 20
356.59040951778081
 30
0.0
  0
VERTEX
  5
9844
  8
0
 10
58.072991484991462
 20
356.1966471347547
 30
0.0
  0
VERTEX
  5
9845
  8
0
 10
58.083832794307909
 20
355.80241225066368
 30
0.0
  0
VERTEX
  5
9846
  8
0
 10
58.091292905085758
 20
355.605018817548
 30
0.0
  0
VERTEX
  5
9847
  8
0
 10
58.100116458591401
 20
355.40738846366492
 30
0.0
  0
VERTEX
  5
9848
  8
0
 10
58.121868615613039
 20
355.01125726196199
 30
0.0
  0
VERTEX
  5
9849
  8
0
 10
58.149124278851097
 20
354.61369716323321
 30
0.0
  0
VERTEX
  5
984A
  8
0
 10
58.181927478877697
 20
354.21438283727861
 30
0.0
  0
VERTEX
  5
984B
  8
0
 10
58.220331442081033
 20
353.81298420681071
 30
0.0
  0
VERTEX
  5
984C
  8
0
 10
58.264398808087201
 20
353.4091655211069
 30
0.0
  0
VERTEX
  5
984D
  8
0
 10
58.288578478537147
 20
353.20624194886062
 30
0.0
  0
VERTEX
  5
984E
  8
0
 10
58.314201887545998
 20
353.00258439696597
 30
0.0
  0
VERTEX
  5
984F
  8
0
 10
58.369822962284161
 20
352.59289082109018
 30
0.0
  0
VERTEX
  5
9850
  8
0
 10
58.431354630176429
 20
352.17972610762729
 30
0.0
  0
VERTEX
  5
9851
  8
0
 10
58.498900197472722
 20
351.76272180414293
 30
0.0
  0
VERTEX
  5
9852
  8
0
 10
58.57257412173999
 20
351.3414985387663
 30
0.0
  0
VERTEX
  5
9853
  8
0
 10
58.652502509032722
 20
350.91566480063159
 30
0.0
  0
VERTEX
  5
9854
  8
0
 10
58.694854855031281
 20
350.70089302091429
 30
0.0
  0
VERTEX
  5
9855
  8
0
 10
58.738823669424853
 20
350.48481564501901
 30
0.0
  0
VERTEX
  5
9856
  8
0
 10
58.831688735592479
 20
350.04853131378729
 30
0.0
  0
VERTEX
  5
9857
  8
0
 10
58.931262349776489
 20
349.6063757607443
 30
0.0
  0
VERTEX
  5
9858
  8
0
 10
59.335321793793121
 20
348.00586046952259
 30
0.0
  0
VERTEX
  5
9859
  8
0
 10
60.252784448248811
 20
345.01711184989603
 30
0.0
  0
VERTEX
  5
985A
  8
0
 10
61.515419063492793
 20
341.5945004680712
 30
0.0
  0
VERTEX
  5
985B
  8
0
 10
62.307720833650357
 20
339.66089472523453
 30
0.0
  0
VERTEX
  5
985C
  8
0
 10
63.231078627741219
 20
337.53621706582987
 30
0.0
  0
VERTEX
  5
985D
  8
0
 10
65.574490207180133
 20
332.5320303013151
 30
0.0
  0
VERTEX
  5
985E
  8
0
 10
68.842350564134222
 20
326.0700052837168
 30
0.0
  0
VERTEX
  5
985F
  8
0
 10
73.643214115641513
 20
316.98378745760908
 30
0.0
  0
SEQEND
  5
9860
  8
0
  0
LINE
  5
897C
  8
1
 10
103.4580150327897
 20
356.78721202906479
 30
0.0
 11
43.828413198493308
 21
356.78721202906479
 31
0.0
  0
LINE
  5
897D
  8
0
 10
271.68806889533289
 20
149.51331462752529
 30
0.0
 11
271.68806889531447
 21
133.22479657187009
 31
0.0
  0
LINE
  5
897E
  8
0
 10
276.68806889531459
 20
152.22479657187009
 30
0.0
 11
276.68806889531447
 21
133.2247965718644
 31
0.0
  0
POLYLINE
  5
897F
  8
0
 66
     1
 10
0.0
 20
0.0
 30
0.0
  0
VERTEX
  5
9861
  8
0
 10
271.68806889533357
 20
149.51331462751901
 30
0.0
  0
VERTEX
  5
9862
  8
0
 10
271.68800945871362
 20
149.523013741086
 30
0.0
  0
VERTEX
  5
9863
  8
0
 10
271.68753436716378
 20
149.54249607835999
 30
0.0
  0
VERTEX
  5
9864
  8
0
 10
271.68658534927948
 20
149.56208566337401
 30
0.0
  0
VERTEX
  5
9865
  8
0
 10
271.6859335674572
 20
149.57191882427691
 30
0.0
  0
VERTEX
  5
9866
  8
0
 10
271.68516387684798
 20
149.58177657183609
 30
0.0
  0
VERTEX
  5
9867
  8
0
 10
271.68327168855541
 20
149.60156283493541
 30
0.0
  0
VERTEX
  5
9868
  8
0
 10
271.68091073250292
 20
149.62143887818971
 30
0.0
  0
VERTEX
  5
9869
  8
0
 10
271.66898632687793
 20
149.69164478820849
 30
0.0
  0
VERTEX
  5
986A
  8
0
 10
271.63559090298702
 20
149.8137084805677
 30
0.0
  0
VERTEX
  5
986B
  8
0
 10
271.61297545502191
 20
149.875199160508
 30
0.0
  0
VERTEX
  5
986C
  8
0
 10
271.58659148856242
 20
149.93676821920539
 30
0.0
  0
VERTEX
  5
986D
  8
0
 10
271.52317428574003
 20
150.05945767124359
 30
0.0
  0
VERTEX
  5
986E
  8
0
 10
271.44687847432459
 20
150.1803866086419
 30
0.0
  0
VERTEX
  5
986F
  8
0
 10
271.3585163544065
 20
150.29952325223121
 30
0.0
  0
VERTEX
  5
9870
  8
0
 10
271.25512580964198
 20
150.42075903418501
 30
0.0
  0
VERTEX
  5
9871
  8
0
 10
271.13655514732108
 20
150.5433124900712
 30
0.0
  0
VERTEX
  5
9872
  8
0
 10
271.07172017926132
 20
150.6046886876785
 30
0.0
  0
VERTEX
  5
9873
  8
0
 10
271.00329472315178
 20
150.66592696709961
 30
0.0
  0
VERTEX
  5
9874
  8
0
 10
270.85610905395902
 20
150.78738402464759
 30
0.0
  0
VERTEX
  5
9875
  8
0
 10
270.76422214947081
 20
150.85722649454331
 30
0.0
  0
VERTEX
  5
9876
  8
0
 10
270.7371952766963
 20
150.877003624895
 30
0.0
  0
VERTEX
  5
9877
  8
0
 10
270.70983215739068
 20
150.89669464211701
 30
0.0
  0
VERTEX
  5
9878
  8
0
 10
270.6960260620645
 20
150.9065065003447
 30
0.0
  0
VERTEX
  5
9879
  8
0
 10
270.68213796494848
 20
150.91629508128611
 30
0.0
  0
VERTEX
  5
987A
  8
0
 10
270.65411891480443
 20
150.93579988554231
 30
0.0
  0
VERTEX
  5
987B
  8
0
 10
270.62578144162637
 20
150.9552040159715
 30
0.0
  0
VERTEX
  5
987C
  8
0
 10
270.5971321922317
 20
150.97450245903701
 30
0.0
  0
VERTEX
  5
987D
  8
0
 10
270.56817801793812
 20
150.9936902339191
 30
0.0
  0
VERTEX
  5
987E
  8
0
 10
270.53892596633352
 20
151.0127623997725
 30
0.0
  0
VERTEX
  5
987F
  8
0
 10
270.52419049041498
 20
151.02225359799871
 30
0.0
  0
VERTEX
  5
9880
  8
0
 10
270.50938327243227
 20
151.03171406290849
 30
0.0
  0
VERTEX
  5
9881
  8
0
 10
270.47955734919373
 20
151.05054038391259
 30
0.0
  0
VERTEX
  5
9882
  8
0
 10
270.44945577737019
 20
151.0692365847018
 30
0.0
  0
VERTEX
  5
9883
  8
0
 10
270.4190862946553
 20
151.0877979555313
 30
0.0
  0
VERTEX
  5
9884
  8
0
 10
270.38845678409359
 20
151.10621986195079
 30
0.0
  0
VERTEX
  5
9885
  8
0
 10
270.3575752617175
 20
151.12449775171751
 30
0.0
  0
VERTEX
  5
9886
  8
0
 10
270.34204253424889
 20
151.13358129195089
 30
0.0
  0
VERTEX
  5
9887
  8
0
 10
270.3264498633759
 20
151.14262716166789
 30
0.0
  0
VERTEX
  5
9888
  8
0
 10
270.29508883070997
 20
151.16060372454501
 30
0.0
  0
VERTEX
  5
9889
  8
0
 10
270.26350049621101
 20
151.1784231758005
 30
0.0
  0
VERTEX
  5
988A
  8
0
 10
270.23169328807262
 20
151.19608134893409
 30
0.0
  0
VERTEX
  5
988B
  8
0
 10
270.19967581850909
 20
151.21357412609959
 30
0.0
  0
VERTEX
  5
988C
  8
0
 10
270.16745692406698
 20
151.23089741910849
 30
0.0
  0
VERTEX
  5
988D
  8
0
 10
270.15127476337949
 20
151.2394942416577
 30
0.0
  0
VERTEX
  5
988E
  8
0
 10
270.13504565770239
 20
151.24804717784559
 30
0.0
  0
VERTEX
  5
988F
  8
0
 10
270.10245127881512
 20
151.2650193993166
 30
0.0
  0
VERTEX
  5
9890
  8
0
 10
270.06968324257309
 20
151.28181013655581
 30
0.0
  0
VERTEX
  5
9891
  8
0
 10
270.0532371084218
 20
151.2901362326447
 30
0.0
  0
VERTEX
  5
9892
  8
0
 10
270.03675118850151
 20
151.29841550740269
 30
0.0
  0
VERTEX
  5
9893
  8
0
 10
270.00366492831017
 20
151.31483170314411
 30
0.0
  0
VERTEX
  5
9894
  8
0
 10
269.97043443292841
 20
151.33105499702671
 30
0.0
  0
VERTEX
  5
9895
  8
0
 10
269.95376825311661
 20
151.339093165637
 30
0.0
  0
VERTEX
  5
9896
  8
0
 10
269.9370698187131
 20
151.3470817526397
 30
0.0
  0
VERTEX
  5
9897
  8
0
 10
269.90358133279278
 20
151.36290843216889
 30
0.0
  0
VERTEX
  5
9898
  8
0
 10
269.86997933750672
 20
151.3785316045205
 30
0.0
  0
VERTEX
  5
9899
  8
0
 10
269.83627429389679
 20
151.39394795331049
 30
0.0
  0
VERTEX
  5
989A
  8
0
 10
269.80247674420531
 20
151.40915428472351
 30
0.0
  0
VERTEX
  5
989B
  8
0
 10
269.76859729332818
 20
151.4241475352261
 30
0.0
  0
VERTEX
  5
989C
  8
0
 10
269.75163017332829
 20
151.43156333874009
 30
0.0
  0
VERTEX
  5
989D
  8
0
 10
269.73460830678891
 20
151.43894130316369
 30
0.0
  0
VERTEX
  5
989E
  8
0
 10
269.70029745741931
 20
151.45362662947889
 30
0.0
  0
VERTEX
  5
989F
  8
0
 10
269.66563971443941
 20
151.46821018510411
 30
0.0
  0
VERTEX
  5
98A0
  8
0
 10
269.63064641515518
 20
151.4826829335467
 30
0.0
  0
VERTEX
  5
98A1
  8
0
 10
269.5953291294378
 20
151.4970359914883
 30
0.0
  0
VERTEX
  5
98A2
  8
0
 10
269.55969963287532
 20
151.51126064075501
 30
0.0
  0
VERTEX
  5
98A3
  8
0
 10
269.54177153468879
 20
151.5183221357097
 30
0.0
  0
VERTEX
  5
98A4
  8
0
 10
269.52376987835248
 20
151.5253483398499
 30
0.0
  0
VERTEX
  5
98A5
  8
0
 10
269.48755196596568
 20
151.53929073503079
 30
0.0
  0
VERTEX
  5
98A6
  8
0
 10
269.45105811118532
 20
151.5530796709088
 30
0.0
  0
VERTEX
  5
98A7
  8
0
 10
269.43271154603468
 20
151.55991409977969
 30
0.0
  0
VERTEX
  5
98A8
  8
0
 10
269.37567133732222
 20
151.58053098078651
 30
0.0
  0
VERTEX
  5
98A9
  8
0
 10
269.26042948496541
 20
151.61910743838661
 30
0.0
  0
VERTEX
  5
98AA
  8
0
 10
269.14381058435549
 20
151.65428507348011
 30
0.0
  0
VERTEX
  5
98AB
  8
0
 10
269.08504884621141
 20
151.67065176718509
 30
0.0
  0
VERTEX
  5
98AC
  8
0
 10
269.06540536688402
 20
151.6759301034393
 30
0.0
  0
VERTEX
  5
98AD
  8
0
 10
269.02603302747082
 20
151.6862272356783
 30
0.0
  0
VERTEX
  5
98AE
  8
0
 10
268.98655308608471
 20
151.69618310383939
 30
0.0
  0
VERTEX
  5
98AF
  8
0
 10
268.96677509703579
 20
151.7010348325062
 30
0.0
  0
VERTEX
  5
98B0
  8
0
 10
268.94697127749089
 20
151.7058037638615
 30
0.0
  0
VERTEX
  5
98B1
  8
0
 10
268.90729501711269
 20
151.71509469463379
 30
0.0
  0
VERTEX
  5
98B2
  8
0
 10
268.86753342085501
 20
151.72406086480379
 30
0.0
  0
VERTEX
  5
98B3
  8
0
 10
268.84762292339212
 20
151.72842381396461
 30
0.0
  0
VERTEX
  5
98B4
  8
0
 10
268.82769384957982
 20
151.73270753486031
 30
0.0
  0
VERTEX
  5
98B5
  8
0
 10
268.78778362958798
 20
151.74103982531301
 30
0.0
  0
VERTEX
  5
98B6
  8
0
 10
268.74781005296438
 20
151.74906271075591
 30
0.0
  0
VERTEX
  5
98B7
  8
0
 10
268.70778037844082
 20
151.7567810138232
 30
0.0
  0
VERTEX
  5
98B8
  8
0
 10
268.66770183279272
 20
151.76419939902661
 30
0.0
  0
VERTEX
  5
98B9
  8
0
 10
268.62758161277219
 20
151.7713223664725
 30
0.0
  0
VERTEX
  5
98BA
  8
0
 10
268.60750914713628
 20
151.77477425290081
 30
0.0
  0
VERTEX
  5
98BB
  8
0
 10
268.58744311421788
 20
151.7781515438943
 30
0.0
  0
VERTEX
  5
98BC
  8
0
 10
268.54734653394257
 20
151.78468298103391
 30
0.0
  0
VERTEX
  5
98BD
  8
0
 10
268.5073044795206
 20
151.79092126755759
 30
0.0
  0
VERTEX
  5
98BE
  8
0
 10
268.46732556024449
 20
151.79687147951529
 30
0.0
  0
VERTEX
  5
98BF
  8
0
 10
268.42741833484661
 20
151.80253849031971
 30
0.0
  0
VERTEX
  5
98C0
  8
0
 10
268.38759131231791
 20
151.8079269678008
 30
0.0
  0
VERTEX
  5
98C1
  8
0
 10
268.3677105228021
 20
151.81051815830881
 30
0.0
  0
VERTEX
  5
98C2
  8
0
 10
268.34785295278198
 20
151.8130413712837
 30
0.0
  0
VERTEX
  5
98C3
  8
0
 10
268.30821166841361
 20
151.81788594867589
 30
0.0
  0
VERTEX
  5
98C4
  8
0
 10
268.26867582438899
 20
151.82246473356099
 30
0.0
  0
VERTEX
  5
98C5
  8
0
 10
268.24895004401043
 20
151.82465565498731
 30
0.0
  0
VERTEX
  5
98C6
  8
0
 10
268.20971232502387
 20
151.82882999294091
 30
0.0
  0
VERTEX
  5
98C7
  8
0
 10
268.1316210108871
 20
151.83641673795319
 30
0.0
  0
VERTEX
  5
98C8
  8
0
 10
268.05409585906477
 20
151.84300798559909
 30
0.0
  0
VERTEX
  5
98C9
  8
0
 10
268.01556568918733
 20
151.8459370976484
 30
0.0
  0
VERTEX
  5
98CA
  8
0
 10
267.93863997841572
 20
151.85109647735311
 30
0.0
  0
VERTEX
  5
98CB
  8
0
 10
267.78743642830858
 20
151.858537305742
 30
0.0
  0
VERTEX
  5
98CC
  8
0
 10
267.64020602112851
 20
151.86223067240121
 30
0.0
  0
VERTEX
  5
98CD
  8
0
 10
267.56823526300059
 20
151.86269134142441
 30
0.0
  0
SEQEND
  5
98CE
  8
0
  0
LINE
  5
8980
  8
0
 10
308.30790252762853
 20
151.862691341426
 30
0.0
 11
330.6966895849697
 21
151.9073204021536
 31
0.0
  0
LINE
  5
8981
  8
0
 10
304.1880688952964
 20
149.51331462752651
 30
0.0
 11
304.18806889531578
 21
133.22479657187131
 31
0.0
  0
POLYLINE
  5
8982
  8
0
 66
     1
 10
0.0
 20
0.0
 30
0.0
  0
VERTEX
  5
98CF
  8
0
 10
304.18806889529571
 20
149.51331462752029
 30
0.0
  0
VERTEX
  5
98D0
  8
0
 10
304.18812833191572
 20
149.52301374108731
 30
0.0
  0
VERTEX
  5
98D1
  8
0
 10
304.18860342346539
 20
149.54249607836121
 30
0.0
  0
VERTEX
  5
98D2
  8
0
 10
304.1895524413498
 20
149.56208566337531
 30
0.0
  0
VERTEX
  5
98D3
  8
0
 10
304.1902042231722
 20
149.57191882427821
 30
0.0
  0
VERTEX
  5
98D4
  8
0
 10
304.19097391378131
 20
149.58177657183731
 30
0.0
  0
VERTEX
  5
98D5
  8
0
 10
304.19286610207388
 20
149.60156283493669
 30
0.0
  0
VERTEX
  5
98D6
  8
0
 10
304.19522705812642
 20
149.62143887819099
 30
0.0
  0
VERTEX
  5
98D7
  8
0
 10
304.20715146375142
 20
149.6916447882098
 30
0.0
  0
VERTEX
  5
98D8
  8
0
 10
304.24054688764232
 20
149.81370848056901
 30
0.0
  0
VERTEX
  5
98D9
  8
0
 10
304.26316233560738
 20
149.87519916050931
 30
0.0
  0
VERTEX
  5
98DA
  8
0
 10
304.28954630206692
 20
149.9367682192067
 30
0.0
  0
VERTEX
  5
98DB
  8
0
 10
304.3529635048892
 20
150.0594576712449
 30
0.0
  0
VERTEX
  5
98DC
  8
0
 10
304.42925931630452
 20
150.18038660864309
 30
0.0
  0
VERTEX
  5
98DD
  8
0
 10
304.51762143622261
 20
150.29952325223249
 30
0.0
  0
VERTEX
  5
98DE
  8
0
 10
304.62101198098719
 20
150.42075903418629
 30
0.0
  0
VERTEX
  5
98DF
  8
0
 10
304.73958264330798
 20
150.54331249007251
 30
0.0
  0
VERTEX
  5
98E0
  8
0
 10
304.80441761136791
 20
150.60468868767981
 30
0.0
  0
VERTEX
  5
98E1
  8
0
 10
304.87284306747728
 20
150.66592696710089
 30
0.0
  0
VERTEX
  5
98E2
  8
0
 10
305.02002873667021
 20
150.7873840246489
 30
0.0
  0
VERTEX
  5
98E3
  8
0
 10
305.11191564115842
 20
150.85722649454459
 30
0.0
  0
VERTEX
  5
98E4
  8
0
 10
305.13894251393288
 20
150.87700362489639
 30
0.0
  0
VERTEX
  5
98E5
  8
0
 10
305.16630563323849
 20
150.89669464211829
 30
0.0
  0
VERTEX
  5
98E6
  8
0
 10
305.18011172856461
 20
150.90650650034601
 30
0.0
  0
VERTEX
  5
98E7
  8
0
 10
305.19399982568058
 20
150.91629508128739
 30
0.0
  0
VERTEX
  5
98E8
  8
0
 10
305.2220188758248
 20
150.9357998855437
 30
0.0
  0
VERTEX
  5
98E9
  8
0
 10
305.2503563490028
 20
150.95520401597281
 30
0.0
  0
VERTEX
  5
98EA
  8
0
 10
305.27900559839748
 20
150.9745024590384
 30
0.0
  0
VERTEX
  5
98EB
  8
0
 10
305.30795977269111
 20
150.9936902339204
 30
0.0
  0
VERTEX
  5
98EC
  8
0
 10
305.33721182429571
 20
151.01276239977389
 30
0.0
  0
VERTEX
  5
98ED
  8
0
 10
305.35194730021419
 20
151.02225359800011
 30
0.0
  0
VERTEX
  5
98EE
  8
0
 10
305.3667545181969
 20
151.03171406290991
 30
0.0
  0
VERTEX
  5
98EF
  8
0
 10
305.3965804414355
 20
151.05054038391401
 30
0.0
  0
VERTEX
  5
98F0
  8
0
 10
305.42668201325898
 20
151.06923658470319
 30
0.0
  0
VERTEX
  5
98F1
  8
0
 10
305.45705149597381
 20
151.08779795553269
 30
0.0
  0
VERTEX
  5
98F2
  8
0
 10
305.48768100653558
 20
151.10621986195221
 30
0.0
  0
VERTEX
  5
98F3
  8
0
 10
305.51856252891167
 20
151.12449775171891
 30
0.0
  0
VERTEX
  5
98F4
  8
0
 10
305.53409525638028
 20
151.13358129195231
 30
0.0
  0
VERTEX
  5
98F5
  8
0
 10
305.54968792725327
 20
151.14262716166931
 30
0.0
  0
VERTEX
  5
98F6
  8
0
 10
305.58104895991909
 20
151.16060372454641
 30
0.0
  0
VERTEX
  5
98F7
  8
0
 10
305.61263729441822
 20
151.1784231758019
 30
0.0
  0
VERTEX
  5
98F8
  8
0
 10
305.64444450255661
 20
151.19608134893551
 30
0.0
  0
VERTEX
  5
98F9
  8
0
 10
305.67646197212002
 20
151.21357412610101
 30
0.0
  0
VERTEX
  5
98FA
  8
0
 10
305.70868086656219
 20
151.23089741910991
 30
0.0
  0
VERTEX
  5
98FB
  8
0
 10
305.72486302724968
 20
151.23949424165909
 30
0.0
  0
VERTEX
  5
98FC
  8
0
 10
305.74109213292672
 20
151.24804717784701
 30
0.0
  0
VERTEX
  5
98FD
  8
0
 10
305.77368651181399
 20
151.26501939931791
 30
0.0
  0
VERTEX
  5
98FE
  8
0
 10
305.80645454805608
 20
151.2818101365572
 30
0.0
  0
VERTEX
  5
98FF
  8
0
 10
305.82290068220732
 20
151.29013623264609
 30
0.0
  0
VERTEX
  5
9900
  8
0
 10
305.83938660212772
 20
151.29841550740409
 30
0.0
  0
VERTEX
  5
9901
  8
0
 10
305.872472862319
 20
151.3148317031455
 30
0.0
  0
VERTEX
  5
9902
  8
0
 10
305.9057033577007
 20
151.3310549970281
 30
0.0
  0
VERTEX
  5
9903
  8
0
 10
305.92236953751262
 20
151.33909316563839
 30
0.0
  0
VERTEX
  5
9904
  8
0
 10
305.93906797191607
 20
151.34708175264109
 30
0.0
  0
VERTEX
  5
9905
  8
0
 10
305.97255645783639
 20
151.36290843217029
 30
0.0
  0
VERTEX
  5
9906
  8
0
 10
306.0061584531224
 20
151.37853160452181
 30
0.0
  0
VERTEX
  5
9907
  8
0
 10
306.03986349673232
 20
151.39394795331191
 30
0.0
  0
VERTEX
  5
9908
  8
0
 10
306.07366104642392
 20
151.40915428472499
 30
0.0
  0
VERTEX
  5
9909
  8
0
 10
306.10754049730099
 20
151.42414753522749
 30
0.0
  0
VERTEX
  5
990A
  8
0
 10
306.12450761730088
 20
151.4315633387416
 30
0.0
  0
VERTEX
  5
990B
  8
0
 10
306.14152948384032
 20
151.43894130316511
 30
0.0
  0
VERTEX
  5
990C
  8
0
 10
306.17584033320992
 20
151.45362662948031
 30
0.0
  0
VERTEX
  5
990D
  8
0
 10
306.21049807618982
 20
151.46821018510551
 30
0.0
  0
VERTEX
  5
990E
  8
0
 10
306.24549137547388
 20
151.48268293354809
 30
0.0
  0
VERTEX
  5
990F
  8
0
 10
306.28080866119132
 20
151.4970359914897
 30
0.0
  0
VERTEX
  5
9910
  8
0
 10
306.31643815775379
 20
151.5112606407564
 30
0.0
  0
VERTEX
  5
9911
  8
0
 10
306.33436625594032
 20
151.5183221357112
 30
0.0
  0
VERTEX
  5
9912
  8
0
 10
306.35236791227658
 20
151.5253483398514
 30
0.0
  0
VERTEX
  5
9913
  8
0
 10
306.38858582466332
 20
151.5392907350323
 30
0.0
  0
VERTEX
  5
9914
  8
0
 10
306.4250796794438
 20
151.55307967091031
 30
0.0
  0
VERTEX
  5
9915
  8
0
 10
306.44342624459432
 20
151.5599140997812
 30
0.0
  0
VERTEX
  5
9916
  8
0
 10
306.5004664533069
 20
151.58053098078801
 30
0.0
  0
VERTEX
  5
9917
  8
0
 10
306.6157083056637
 20
151.61910743838811
 30
0.0
  0
VERTEX
  5
9918
  8
0
 10
306.73232720627362
 20
151.65428507348159
 30
0.0
  0
VERTEX
  5
9919
  8
0
 10
306.7910889444176
 20
151.6706517671866
 30
0.0
  0
VERTEX
  5
991A
  8
0
 10
306.81073242374509
 20
151.67593010344081
 30
0.0
  0
VERTEX
  5
991B
  8
0
 10
306.8501047631583
 20
151.68622723567981
 30
0.0
  0
VERTEX
  5
991C
  8
0
 10
306.8895847045444
 20
151.69618310384081
 30
0.0
  0
VERTEX
  5
991D
  8
0
 10
306.90936269359332
 20
151.7010348325077
 30
0.0
  0
VERTEX
  5
991E
  8
0
 10
306.92916651313823
 20
151.705803763863
 30
0.0
  0
VERTEX
  5
991F
  8
0
 10
306.96884277351643
 20
151.7150946946353
 30
0.0
  0
VERTEX
  5
9920
  8
0
 10
307.00860436977399
 20
151.72406086480521
 30
0.0
  0
VERTEX
  5
9921
  8
0
 10
307.02851486723688
 20
151.72842381396609
 30
0.0
  0
VERTEX
  5
9922
  8
0
 10
307.0484439410493
 20
151.73270753486179
 30
0.0
  0
VERTEX
  5
9923
  8
0
 10
307.08835416104102
 20
151.74103982531449
 30
0.0
  0
VERTEX
  5
9924
  8
0
 10
307.12832773766468
 20
151.74906271075741
 30
0.0
  0
VERTEX
  5
9925
  8
0
 10
307.1683574121883
 20
151.75678101382471
 30
0.0
  0
VERTEX
  5
9926
  8
0
 10
307.2084359578364
 20
151.76419939902809
 30
0.0
  0
VERTEX
  5
9927
  8
0
 10
307.24855617785693
 20
151.77132236647401
 30
0.0
  0
VERTEX
  5
9928
  8
0
 10
307.26862864349278
 20
151.7747742529024
 30
0.0
  0
VERTEX
  5
9929
  8
0
 10
307.28869467641118
 20
151.7781515438958
 30
0.0
  0
VERTEX
  5
992A
  8
0
 10
307.32879125668649
 20
151.78468298103539
 30
0.0
  0
VERTEX
  5
992B
  8
0
 10
307.36883331110852
 20
151.7909212675591
 30
0.0
  0
VERTEX
  5
992C
  8
0
 10
307.40881223038463
 20
151.7968714795168
 30
0.0
  0
VERTEX
  5
992D
  8
0
 10
307.4487194557824
 20
151.8025384903213
 30
0.0
  0
VERTEX
  5
992E
  8
0
 10
307.48854647831121
 20
151.80792696780239
 30
0.0
  0
VERTEX
  5
992F
  8
0
 10
307.50842726782702
 20
151.81051815831029
 30
0.0
  0
VERTEX
  5
9930
  8
0
 10
307.52828483784708
 20
151.81304137128521
 30
0.0
  0
VERTEX
  5
9931
  8
0
 10
307.56792612221551
 20
151.81788594867751
 30
0.0
  0
VERTEX
  5
9932
  8
0
 10
307.60746196624012
 20
151.82246473356261
 30
0.0
  0
VERTEX
  5
9933
  8
0
 10
307.62718774661869
 20
151.8246556549889
 30
0.0
  0
VERTEX
  5
9934
  8
0
 10
307.66642546560507
 20
151.82882999294239
 30
0.0
  0
VERTEX
  5
9935
  8
0
 10
307.7445167797419
 20
151.83641673795469
 30
0.0
  0
VERTEX
  5
9936
  8
0
 10
307.82204193156429
 20
151.84300798560059
 30
0.0
  0
VERTEX
  5
9937
  8
0
 10
307.86057210144179
 20
151.84593709764991
 30
0.0
  0
VERTEX
  5
9938
  8
0
 10
307.93749781221339
 20
151.85109647735459
 30
0.0
  0
VERTEX
  5
9939
  8
0
 10
308.08870136232042
 20
151.8585373057436
 30
0.0
  0
VERTEX
  5
993A
  8
0
 10
308.23593176950061
 20
151.8622306724028
 30
0.0
  0
VERTEX
  5
993B
  8
0
 10
308.30790252762853
 20
151.862691341426
 30
0.0
  0
SEQEND
  5
993C
  8
0
  0
LINE
  5
8983
  8
2
 10
276.93806889531447
 20
130.4247965718701
 30
0.0
 11
276.93806889531442
 21
151.22479657187009
 31
0.0
  0
LINE
  5
8984
  8
2
 10
277.93806889531447
 20
152.22479657187009
 30
0.0
 11
277.93806889531459
 21
151.22479657187009
 31
0.0
  0
LINE
  5
8985
  8
2
 10
274.93806889531459
 20
155.22479657187009
 30
0.0
 11
274.93806889531459
 21
152.22479657187009
 31
0.0
  0
LINE
  5
8986
  8
2
 10
277.93806889531447
 20
151.22479657187009
 30
0.0
 11
276.93806889531442
 21
151.22479657187009
 31
0.0
  0
LINE
  5
8987
  8
2
 10
298.93806889531629
 20
130.42479657187101
 30
0.0
 11
298.93806889531493
 21
151.22479657187091
 31
0.0
  0
LINE
  5
8988
  8
2
 10
297.9380688953147
 20
152.2247965718708
 30
0.0
 11
297.9380688953147
 21
151.2247965718708
 31
0.0
  0
LINE
  5
8989
  8
2
 10
300.93806889531442
 20
155.22479657187111
 30
0.0
 11
300.93806889531459
 21
152.22479657187111
 31
0.0
  0
LINE
  5
898A
  8
2
 10
274.9380688953147
 20
152.22479657187111
 30
0.0
 11
300.93806889531447
 21
152.22479657187111
 31
0.0
  0
LINE
  5
898B
  8
2
 10
297.93806889531481
 20
151.2247965718708
 30
0.0
 11
298.93806889531493
 21
151.22479657187091
 31
0.0
  0
LINE
  5
898C
  8
2
 10
73.643214115641513
 20
350.78721202906479
 30
0.0
 11
51.643214115641513
 21
350.78721202906479
 31
0.0
  0
LINE
  5
898D
  8
2
 10
51.643214115641513
 20
362.78721202906479
 30
0.0
 11
73.643214115641513
 21
362.78721202906462
 31
0.0
  0
LINE
  5
898E
  8
2
 10
76.643214115641513
 20
369.78721202906462
 30
0.0
 11
76.643214115643559
 21
343.78721202906479
 31
0.0
  0
LINE
  5
898F
  8
2
 10
51.843214115641551
 20
367.78721202906479
 30
0.0
 11
72.643214115641513
 21
367.78721202906479
 31
0.0
  0
LINE
  5
8990
  8
2
 10
73.643214115641513
 20
366.78721202906479
 30
0.0
 11
72.643214115641513
 21
366.78721202906462
 31
0.0
  0
LINE
  5
8991
  8
2
 10
76.643214115641513
 20
369.78721202906462
 30
0.0
 11
73.643214115641513
 21
369.78721202906462
 31
0.0
  0
LINE
  5
8992
  8
2
 10
73.643214115641513
 20
366.78721202906479
 30
0.0
 11
73.643214115641513
 21
369.78721202906428
 31
0.0
  0
LINE
  5
8993
  8
2
 10
72.643214115641513
 20
366.78721202906479
 30
0.0
 11
72.643214115641513
 21
367.78721202906479
 31
0.0
  0
LINE
  5
8994
  8
2
 10
51.84321411564224
 20
345.78721202906303
 30
0.0
 11
72.643214115642195
 21
345.78721202906428
 31
0.0
  0
LINE
  5
8995
  8
2
 10
73.643214115642195
 20
346.78721202906428
 30
0.0
 11
72.643214115642195
 21
346.78721202906428
 31
0.0
  0
LINE
  5
8996
  8
2
 10
76.643214115642422
 20
343.78721202906479
 30
0.0
 11
73.643214115642422
 21
343.78721202906451
 31
0.0
  0
LINE
  5
8997
  8
2
 10
73.643214115642195
 20
346.78721202906428
 30
0.0
 11
73.643214115642422
 21
343.78721202906479
 31
0.0
  0
LINE
  5
8998
  8
2
 10
72.643214115642195
 20
346.78721202906428
 30
0.0
 11
72.643214115642195
 21
345.78721202906428
 31
0.0
  0
LINE
  5
8999
  8
0
 10
299.18806889531459
 20
152.224796571871
 30
0.0
 11
299.18806889531618
 21
133.22479657186531
 31
0.0
  0
ARC
  5
8CC9
  8
0
 10
494.82578860734469
 20
404.78721202906502
 30
0.0
 40
9.1999999999999993
 50
292.49498217113791
 51
247.50501782886209
  0
ARC
  5
8CCA
  8
0
 10
494.82578860734469
 20
404.78721202906502
 30
0.0
 40
5.9474478823671637
 50
304.28202190628201
 51
235.71797809371799
  0
LINE
  5
8CCB
  8
0
 10
489.55796173091829
 20
396.28721202906502
 30
0.0
 11
500.09361548377109
 21
396.28721202906502
 31
0.0
  0
ARC
  5
8CCE
  8
0
 10
497.17578860734471
 20
408.28721202906502
 30
0.0
 40
1.000000000000004
 50
0.0
 51
90.0
  0
LINE
  5
8CCF
  8
0
 10
492.47578860734473
 20
409.28721202906502
 30
0.0
 11
497.17578860734471
 21
409.28721202906502
 31
0.0
  0
ARC
  5
8CD0
  8
0
 10
492.47578860734473
 20
408.28721202906502
 30
0.0
 40
1.0
 50
90.0
 51
180.0
  0
LINE
  5
8CD1
  8
0
 10
491.47578860734473
 20
396.28721202906502
 30
0.0
 11
491.47578860734473
 21
408.28721202906502
 31
0.0
  0
ARC
  5
8CD2
  8
0
 10
494.82578860734469
 20
404.78721202906502
 30
0.0
 40
5.2642703531402644
 50
309.52133428277727
 51
230.4786657172227
  0
LINE
  5
8CD3
  8
0
 10
498.17578860734471
 20
408.28721202906502
 30
0.0
 11
498.17578860734471
 21
396.28721202906502
 31
0.0
  0
CIRCLE
  5
8CD7
  8
0
 10
494.82578860734469
 20
356.78721202906479
 30
0.0
 40
58.346919881951457
  0
ARC
  5
8CD8
  8
0
 10
494.82578860734469
 20
404.78721202906502
 30
0.0
 40
9.9999999999999876
 50
301.7883306170512
 51
238.2116693829488
  0
ARC
  5
8D18
  8
0
 10
494.82578860734498
 20
165.7247965718704
 30
0.0
 40
11.0
 50
50.599431246260202
 51
129.4005687537398
  0
LINE
  5
8D96
  8
1
 10
483.82578860734469
 20
165.72479657187009
 30
0.0
 11
505.8257886073452
 21
165.72479657187009
 31
0.0
  0
ARC
  5
8D9A
  8
0
 10
287.93806889531442
 20
229.72479657187009
 30
0.0
 40
11.000000000000011
 50
0.0000008537736463
 51
179.99999914622629
  0
LINE
  5
8D9B
  8
0
 10
298.93806889531447
 20
206.72479657187009
 30
0.0
 11
298.93806889531447
 21
229.72479657187009
 31
0.0
  0
LINE
  5
8D9C
  8
0
 10
276.93806889531447
 20
229.72479657187009
 30
0.0
 11
276.93806889531447
 21
206.72479657187009
 31
0.0
  0
ARC
  5
8D9D
  8
0
 10
281.93806889531447
 20
206.72479657187009
 30
0.0
 40
5.0000000000000648
 50
180.0
 51
233.13010235415331
  0
ARC
  5
8D9E
  8
0
 10
293.93806889531447
 20
206.72479657187009
 30
0.0
 40
5.0000000000000302
 50
306.86989764584672
 51
0.0
  0
LINE
  5
8D9F
  8
0
 10
296.93806889531447
 20
175.9247965718701
 30
0.0
 11
296.93806889531447
 21
202.72479657187009
 31
0.0
  0
LINE
  5
8DA0
  8
0
 10
278.93806889531447
 20
202.72479657187009
 30
0.0
 11
278.93806889531447
 21
175.9247965718701
 31
0.0
  0
ARC
  5
8DA1
  8
0
 10
279.1380688953144
 20
175.9247965718701
 30
0.0
 40
0.1999999999999993
 50
180.0
 51
270.0
  0
ARC
  5
8DA2
  8
0
 10
296.73806889531443
 20
175.9247965718701
 30
0.0
 40
0.1999999999999957
 50
270.0
 51
0.0
  0
LINE
  5
8DA3
  8
0
 10
295.08806889531439
 20
174.72479657187009
 30
0.0
 11
295.08806889531439
 21
175.72479657187009
 31
0.0
  0
LINE
  5
8DA4
  8
0
 10
280.7880688953145
 20
175.72479657187009
 30
0.0
 11
280.7880688953145
 21
174.72479657187009
 31
0.0
  0
LINE
  5
8DA5
  8
0
 10
276.93806889531447
 20
229.72479657187009
 30
0.0
 11
298.93806889531447
 21
229.72479657187009
 31
0.0
  0
LINE
  5
8DA6
  8
0
 10
276.93806889531447
 20
206.72479657187009
 30
0.0
 11
298.93806889531447
 21
206.72479657187009
 31
0.0
  0
LINE
  5
8DA7
  8
0
 10
278.93806889531447
 20
202.72479657187009
 30
0.0
 11
296.93806889531447
 21
202.72479657187009
 31
0.0
  0
LINE
  5
8DA8
  8
0
 10
279.1380688953144
 20
175.72479657187009
 30
0.0
 11
296.73806889531443
 21
175.72479657187009
 31
0.0
  0
ARC
  5
8DA9
  8
0
 10
281.57790727759527
 20
174.32479657187011
 30
0.0
 40
0.3999999999999937
 50
6.0000000000016822
 51
90.0
  0
ARC
  5
8DAA
  8
0
 10
294.2982305130335
 20
174.32479657187011
 30
0.0
 40
0.3999999999999915
 50
90.0
 51
173.99999999999829
  0
LINE
  5
8DAB
  8
0
 10
280.7880688953145
 20
174.72479657187009
 30
0.0
 11
295.08806889531439
 21
174.72479657187009
 31
0.0
  0
LINE
  5
8DAE
  8
0
 10
293.90042175488628
 20
174.36660795717719
 30
0.0
 11
293.88551677768157
 21
174.22479657187009
 31
0.0
  0
LINE
  5
8DAF
  8
0
 10
281.97571603574261
 20
174.36660795717719
 30
0.0
 11
281.99062101294732
 21
174.22479657187009
 31
0.0
  0
LINE
  5
8DE3
  8
1
 10
87.143214115641484
 20
415.72954983904617
 30
0.0
 11
87.143214115641484
 21
393.84487421908329
 31
0.0
  0
ARC
  5
8E24
  8
0
 10
151.14321411564151
 20
404.78721202906468
 30
0.0
 40
11.000000000000011
 50
270.0000008537736
 51
89.999999146226358
  0
LINE
  5
8E25
  8
0
 10
128.14321411564151
 20
393.78721202906479
 30
0.0
 11
151.14321411564151
 21
393.78721202906479
 31
0.0
  0
LINE
  5
8E26
  8
0
 10
151.14321411564151
 20
415.78721202906468
 30
0.0
 11
128.14321411564151
 21
415.78721202906468
 31
0.0
  0
ARC
  5
8E27
  8
0
 10
128.14321411564151
 20
410.78721202906468
 30
0.0
 40
5.0000000000000648
 50
90.0
 51
143.13010235415419
  0
ARC
  5
8E28
  8
0
 10
128.14321411564151
 20
398.78721202906479
 30
0.0
 40
5.0000000000000302
 50
216.86989764584561
 51
270.0
  0
LINE
  5
8E29
  8
0
 10
97.343214115641544
 20
395.78721202906479
 30
0.0
 11
124.1432141156415
 21
395.78721202906479
 31
0.0
  0
LINE
  5
8E2A
  8
0
 10
124.1432141156415
 20
413.78721202906479
 30
0.0
 11
97.343214115641544
 21
413.78721202906479
 31
0.0
  0
ARC
  5
8E2B
  8
0
 10
97.343214115641544
 20
413.58721202906469
 30
0.0
 40
0.1999999999999993
 50
90.0
 51
180.0
  0
LINE
  5
8E2C
  8
0
 10
96.143214115641499
 20
397.63721202906481
 30
0.0
 11
97.143214115641484
 21
397.63721202906481
 31
0.0
  0
LINE
  5
8E2D
  8
0
 10
97.143214115641484
 20
411.93721202906471
 30
0.0
 11
96.143214115641499
 21
411.93721202906471
 31
0.0
  0
ARC
  5
8E2E
  8
0
 10
95.743214115641521
 20
411.14737364678388
 30
0.0
 40
0.3999999999999937
 50
276.00000000000171
 51
0.0
  0
ARC
  5
8E2F
  8
0
 10
95.743214115641521
 20
398.4270504113457
 30
0.0
 40
0.3999999999999915
 50
0.0
 51
83.999999999998238
  0
LINE
  5
8E30
  8
0
 10
95.643212186498417
 20
398.83976434945868
 30
0.0
 11
95.785025500948549
 21
398.82485916949292
 31
0.0
  0
LINE
  5
8E31
  8
0
 10
95.785025500948549
 20
410.7495648886366
 30
0.0
 11
95.643214115641484
 21
410.73465991143189
 31
0.0
  0
LINE
  5
8E32
  8
0
 10
151.14321411564151
 20
415.78721202906468
 30
0.0
 11
151.14321411564151
 21
393.78721202906479
 31
0.0
  0
LINE
  5
8E33
  8
0
 10
128.14321411564151
 20
415.78721202906468
 30
0.0
 11
128.14321411564151
 21
393.78721202906479
 31
0.0
  0
LINE
  5
8E34
  8
0
 10
124.1432141156415
 20
413.78721202906479
 30
0.0
 11
124.1432141156415
 21
395.78721202906479
 31
0.0
  0
LINE
  5
8E35
  8
0
 10
97.143214115641484
 20
413.58721202906469
 30
0.0
 11
97.143214115641484
 21
395.98721202906478
 31
0.0
  0
LINE
  5
8E36
  8
0
 10
96.143214115641499
 20
411.93721202906471
 30
0.0
 11
96.143214115641499
 21
397.63721202906481
 31
0.0
  0
ARC
  5
8F47
  8
0
 10
494.82578860734469
 20
334.28721202906502
 30
0.0
 40
11.000000000000011
 50
180.0000008537736
 51
359.99999914622629
  0
LINE
  5
8F48
  8
0
 10
483.82578860734469
 20
357.28721202906502
 30
0.0
 11
483.82578860734469
 21
334.28721202906502
 31
0.0
  0
LINE
  5
8F49
  8
0
 10
505.82578860734469
 20
334.28721202906502
 30
0.0
 11
505.82578860734469
 21
357.28721202906502
 31
0.0
  0
ARC
  5
8F4A
  8
0
 10
500.82578860734469
 20
357.28721202906502
 30
0.0
 40
5.0000000000000648
 50
0.0
 51
53.130102354152548
  0
ARC
  5
8F4B
  8
0
 10
488.82578860734469
 20
357.28721202906502
 30
0.0
 40
5.0000000000000302
 50
126.8698976458456
 51
180.0
  0
LINE
  5
8F4C
  8
0
 10
485.82578860734469
 20
388.08721202906497
 30
0.0
 11
485.82578860734469
 21
361.28721202906502
 31
0.0
  0
LINE
  5
8F4D
  8
0
 10
503.82578860734469
 20
361.28721202906502
 30
0.0
 11
503.82578860734469
 21
388.08721202906497
 31
0.0
  0
ARC
  5
8F4E
  8
0
 10
503.6257886073447
 20
388.08721202906497
 30
0.0
 40
0.1999999999999993
 50
0.0
 51
90.0
  0
LINE
  5
8F4F
  8
0
 10
487.67578860734471
 20
389.28721202906502
 30
0.0
 11
487.67578860734471
 21
388.28721202906502
 31
0.0
  0
LINE
  5
8F50
  8
0
 10
501.97578860734473
 20
388.28721202906502
 30
0.0
 11
501.97578860734473
 21
389.28721202906502
 31
0.0
  0
ARC
  5
8F51
  8
0
 10
501.18595022506378
 20
389.68721202906499
 30
0.0
 40
0.3999999999999937
 50
185.9999999999952
 51
270.0
  0
ARC
  5
8F52
  8
0
 10
488.46562698962572
 20
389.68721202906499
 30
0.0
 40
0.3999999999999915
 50
270.0
 51
353.99999999999159
  0
LINE
  5
8F54
  8
0
 10
500.7881414669165
 20
389.64540064375802
 30
0.0
 11
500.77323648971191
 21
389.78721202906502
 31
0.0
  0
LINE
  5
8F55
  8
0
 10
505.82578860734469
 20
334.28721202906502
 30
0.0
 11
483.82578860734469
 21
334.28721202906502
 31
0.0
  0
LINE
  5
8F56
  8
0
 10
505.82578860734469
 20
357.28721202906502
 30
0.0
 11
483.82578860734469
 21
357.28721202906502
 31
0.0
  0
LINE
  5
8F57
  8
0
 10
503.82578860734469
 20
361.28721202906502
 30
0.0
 11
485.82578860734469
 21
361.28721202906502
 31
0.0
  0
LINE
  5
8F58
  8
0
 10
503.6257886073447
 20
388.28721202906502
 30
0.0
 11
486.02578860734479
 21
388.28721202906502
 31
0.0
  0
LINE
  5
8F59
  8
0
 10
501.97578860734473
 20
389.28721202906502
 30
0.0
 11
487.67578860734471
 21
389.28721202906502
 31
0.0
  0
ARC
  5
8F5D
  8
0
 10
494.82578860734469
 20
356.78721202906502
 30
0.0
 40
15.5
 50
125.4959326502516
 51
224.7913246600782
  0
LINE
  5
8F5F
  8
0
 10
489.56151825420432
 20
396.28721202906502
 30
0.0
 11
488.86343574777288
 21
389.64540064375802
 31
0.0
  0
LINE
  5
8F61
  8
0
 10
500.09005896048501
 20
396.28721202906502
 30
0.0
 11
500.7881414669165
 21
389.64540064375802
 31
0.0
  0
ARC
  5
8F62
  8
0
 10
486.02578860734479
 20
388.08721202906497
 30
0.0
 40
0.1999999999999993
 50
90.0
 51
180.0
  0
LINE
  5
8FA3
  8
1
 10
651.17201791783691
 20
415.72954983904617
 30
0.0
 11
651.17201791783691
 21
315.47241111191693
 31
0.0
  0
ARC
  5
8FA4
  8
0
 10
651.17201791783702
 20
334.28721202906502
 30
0.0
 40
11.000000000000011
 50
180.0000008537736
 51
219.40056875373699
  0
LINE
  5
8FA5
  8
0
 10
640.17201791783691
 20
357.28721202906502
 30
0.0
 11
640.17201791783691
 21
334.28721202906502
 31
0.0
  0
ARC
  5
8FA6
  8
0
 10
645.17201791783702
 20
357.28721202906502
 30
0.0
 40
5.0000000000000302
 50
126.8698976458456
 51
180.0
  0
LINE
  5
8FA7
  8
0
 10
642.17201791783702
 20
388.08721202906497
 30
0.0
 11
642.17201791783702
 21
361.28721202906502
 31
0.0
  0
LINE
  5
8FAA
  8
0
 10
642.67201791783691
 20
334.28721202906502
 30
0.0
 11
640.17201791783691
 21
334.28721202906502
 31
0.0
  0
LINE
  5
8FAB
  8
0
 10
642.67201791783691
 20
357.28721202906502
 30
0.0
 11
640.17201791783691
 21
357.28721202906502
 31
0.0
  0
LINE
  5
8FAC
  8
0
 10
642.67201791783691
 20
361.28721202906502
 30
0.0
 11
642.17201791783702
 21
361.28721202906502
 31
0.0
  0
LINE
  5
8FAD
  8
0
 10
642.67201791783691
 20
388.28721202906507
 30
0.0
 11
642.37201791783707
 21
388.28721202906502
 31
0.0
  0
ARC
  5
8FB0
  8
0
 10
642.37201791783707
 20
388.08721202906497
 30
0.0
 40
0.1999999999999993
 50
90.0
 51
180.0
  0
LINE
  5
915C
  8
1
 10
276.93806889531419
 20
165.72479657187009
 30
0.0
 11
298.9380688953147
 21
165.72479657187009
 31
0.0
  0
LINE
  5
91DF
  8
0
 10
304.74481025691267
 20
391.65966028184391
 30
0.0
 11
304.9880688953146
 21
322.03113070134879
 31
0.0
  0
LINE
  5
91E0
  8
0
 10
270.88271617594131
 20
392.62967749223139
 30
0.0
 11
270.8880688953148
 21
322.03113070134879
 31
0.0
  0
LINE
  5
91E9
  8
0
 10
511.63252996894272
 20
391.65966028184391
 30
0.0
 11
511.8757886073447
 21
322.03113070134879
 31
0.0
  0
LINE
  5
91EA
  8
0
 10
477.7704358879713
 20
392.62967749223139
 30
0.0
 11
477.77578860734468
 21
322.03113070134879
 31
0.0
  0
TEXT
  5
928B
  8
0
 62
     3
 10
0.0
 20
0.0
 30
0.0
 40
10.0
  1
TWN125F-RE
  7
STANDARD1
  0
ENDSEC
  0
EOF
