  0
SECTION
  2
HEADER
  9
$ACADVER
  1
AC1009
  9
$INSBASE
 10
0.0
 20
0.0
 30
0.0
  9
$EXTMIN
 10
0.0
 20
-2.960436562073669
 30
-0.0000000000000098
  9
$EXTMAX
 10
378.12637487040092
 20
394.31696647813811
 30
48.0
  9
$LIMMIN
 10
0.0
 20
0.0
  9
$LIMMAX
 10
375.0
 20
270.0
  9
$ORTHOMODE
 70
     1
  9
$REGENMODE
 70
     1
  9
$FILLMODE
 70
     1
  9
$QTEXTMODE
 70
     0
  9
$MIRRTEXT
 70
     0
  9
$DRAGMODE
 70
     2
  9
$LTSCALE
 40
10.0
  9
$OSMODE
 70
    55
  9
$ATTMODE
 70
     1
  9
$TEXTSIZE
 40
0.2
  9
$TRACEWID
 40
0.05
  9
$TEXTSTYLE
  7
STANDARD
  9
$CLAYER
  8
0
  9
$CELTYPE
  6
BYLAYER
  9
$CECOLOR
 62
   256
  9
$DIMSCALE
 40
1.0
  9
$DIMASZ
 40
3.0
  9
$DIMEXO
 40
2.0
  9
$DIMDLI
 40
0.38
  9
$DIMRND
 40
0.0
  9
$DIMDLE
 40
0.0
  9
$DIMEXE
 40
2.0
  9
$DIMTP
 40
0.0
  9
$DIMTM
 40
0.0
  9
$DIMTXT
 40
3.2000000000000002
  9
$DIMCEN
 40
0.0
  9
$DIMTSZ
 40
0.0
  9
$DIMTOL
 70
     0
  9
$DIMLIM
 70
     0
  9
$DIMTIH
 70
     0
  9
$DIMTOH
 70
     0
  9
$DIMSE1
 70
     0
  9
$DIMSE2
 70
     0
  9
$DIMTAD
 70
     1
  9
$DIMZIN
 70
     8
  9
$DIMBLK
  1

  9
$DIMASO
 70
     1
  9
$DIMSHO
 70
     0
  9
$DIMPOST
  1

  9
$DIMAPOST
  1

  9
$DIMALT
 70
     0
  9
$DIMALTD
 70
     2
  9
$DIMALTF
 40
25.399999999999999
  9
$DIMLFAC
 40
1.0
  9
$DIMTOFL
 70
     1
  9
$DIMTVP
 40
1.6000000000000001
  9
$DIMTIX
 70
     1
  9
$DIMSOXD
 70
     0
  9
$DIMSAH
 70
     0
  9
$DIMBLK1
  1

  9
$DIMBLK2
  1

  9
$DIMSTYLE
  2
STANDARD
  9
$DIMCLRD
 70
     0
  9
$DIMCLRE
 70
     0
  9
$DIMCLRT
 70
     0
  9
$DIMTFAC
 40
1.0
  9
$DIMGAP
 40
1.5
  9
$LUNITS
 70
     2
  9
$LUPREC
 70
     4
  9
$SKETCHINC
 40
0.1
  9
$FILLETRAD
 40
0.0
  9
$AUNITS
 70
     1
  9
$AUPREC
 70
     4
  9
$MENU
  1
E:\r13\win\SUPPORT\ACAD
  9
$ELEVATION
 40
0.0
  9
$PELEVATION
 40
0.0
  9
$THICKNESS
 40
0.0
  9
$LIMCHECK
 70
     0
  9
$BLIPMODE
 70
     0
  9
$CHAMFERA
 40
0.0
  9
$CHAMFERB
 40
0.0
  9
$SKPOLY
 70
     0
  9
$TDCREATE
 40
2449839.7800462958
  9
$TDUPDATE
 40
2456598.4564427892
  9
$TDINDWG
 40
0.7712022454
  9
$TDUSRTIMER
 40
0.7712022454
  9
$USRTIMER
 70
     1
  9
$ANGBASE
 50
0.0
  9
$ANGDIR
 70
     0
  9
$PDMODE
 70
     0
  9
$PDSIZE
 40
0.0
  9
$PLINEWID
 40
0.0
  9
$COORDS
 70
     1
  9
$SPLFRAME
 70
     0
  9
$SPLINETYPE
 70
     6
  9
$SPLINESEGS
 70
     8
  9
$ATTDIA
 70
     0
  9
$ATTREQ
 70
     1
  9
$HANDLING
 70
     1
  9
$HANDSEED
  5
8B49
  9
$SURFTAB1
 70
     6
  9
$SURFTAB2
 70
     6
  9
$SURFTYPE
 70
     6
  9
$SURFU
 70
     6
  9
$SURFV
 70
     6
  9
$UCSNAME
  2

  9
$UCSORG
 10
0.0
 20
0.0
 30
0.0
  9
$UCSXDIR
 10
1.0
 20
0.0
 30
0.0
  9
$UCSYDIR
 10
0.0
 20
1.0
 30
0.0
  9
$PUCSNAME
  2

  9
$PUCSORG
 10
0.0
 20
0.0
 30
0.0
  9
$PUCSXDIR
 10
1.0
 20
0.0
 30
0.0
  9
$PUCSYDIR
 10
0.0
 20
1.0
 30
0.0
  9
$USERI1
 70
     0
  9
$USERI2
 70
     1
  9
$USERI3
 70
     1
  9
$USERI4
 70
     0
  9
$USERI5
 70
     0
  9
$USERR1
 40
0.0
  9
$USERR2
 40
0.0
  9
$USERR3
 40
0.0
  9
$USERR4
 40
0.0
  9
$USERR5
 40
0.0
  9
$WORLDVIEW
 70
     1
  9
$SHADEDGE
 70
     3
  9
$SHADEDIF
 70
    70
  9
$TILEMODE
 70
     1
  9
$MAXACTVP
 70
    16
  9
$PLIMCHECK
 70
     0
  9
$PEXTMIN
 10
1.0000000000000000E+020
 20
1.0000000000000000E+020
 30
1.0000000000000000E+020
  9
$PEXTMAX
 10
-1.0000000000000000E+020
 20
-1.0000000000000000E+020
 30
-1.0000000000000000E+020
  9
$PLIMMIN
 10
0.0
 20
0.0
  9
$PLIMMAX
 10
12.0
 20
9.0
  9
$UNITMODE
 70
     0
  9
$VISRETAIN
 70
     0
  9
$PLINEGEN
 70
     0
  9
$PSLTSCALE
 70
     0
  0
ENDSEC
  0
SECTION
  2
TABLES
  0
TABLE
  2
VPORT
 70
     1
  0
VPORT
  2
*ACTIVE
 70
     0
 10
0.0
 20
0.0
 11
1.0
 21
1.0
 12
189.0631883155944
 22
288.15028589581851
 13
0.0
 23
0.0
 14
10.0
 24
10.0
 15
10.0
 25
10.0
 16
0.0
 26
0.0
 36
1.0
 17
0.0
 27
0.0
 37
0.0
 40
587.4079698636308
 41
1.7807262569832401
 42
50.0
 43
0.0
 44
0.0
 50
0.0
 51
0.0
 71
     0
 72
   500
 73
     1
 74
     0
 75
     0
 76
     0
 77
     0
 78
     2
  0
ENDTAB
  0
TABLE
  2
LTYPE
 70
     4
  0
LTYPE
  2
CONTINUOUS
 70
     0
  3
Solid Line
 72
    65
 73
     0
 40
0.0
  0
LTYPE
  2
CENTER
 70
     0
  3
____ _ ____ _ ____ _ ____ _ ____ _ ____ _ ____
 72
    65
 73
     4
 40
2.0
 49
1.25
 49
-0.25
 49
0.25
 49
-0.25
  0
LTYPE
  2
HIDDEN
 70
     0
  3
_ _ _ _ _ _ _ _ _ _ _ _ _ _ _ _ _ _ _ _ _ _ _
 72
    65
 73
     2
 40
0.375
 49
0.25
 49
-0.125
  0
LTYPE
  2
PHANTOM2
 70
     0
  3
___ _ _ ___ _ _ ___ _ _ ___ _ _
 72
    65
 73
     6
 40
1.25
 49
0.625
 49
-0.125
 49
0.125
 49
-0.125
 49
0.125
 49
-0.125
  0
ENDTAB
  0
TABLE
  2
LAYER
 70
     4
  0
LAYER
  2
0
 70
     0
 62
     7
  6
CONTINUOUS
  0
LAYER
  2
1
 70
     0
 62
     1
  6
CENTER
  0
LAYER
  2
2
 70
     0
 62
     2
  6
HIDDEN
  0
LAYER
  2
DEFPOINTS
 70
     0
 62
     7
  6
CONTINUOUS
  0
ENDTAB
  0
TABLE
  2
STYLE
 70
     2
  0
STYLE
  2
STANDARD
 70
     0
 40
0.0
 41
1.0
 50
0.0
 71
     0
 42
0.2
  3
TXT
  4
BIGFONT
  0
STYLE
  2
STANDARD1
 70
     0
 40
0.0
 41
1.0
 50
0.0
 71
     0
 42
3.0
  3
txt
  4

  0
ENDTAB
  0
TABLE
  2
VIEW
 70
     1
  0
VIEW
  2
ALL
 70
     0
 40
270.0
 10
220.99159663865549
 20
135.0
 41
0.0
 11
0.0
 21
0.0
 31
1.0
 12
0.0
 22
0.0
 32
0.0
 42
0.0
 43
0.0
 44
0.0
 50
0.0
 71
     0
  0
ENDTAB
  0
TABLE
  2
UCS
 70
     0
  0
ENDTAB
  0
TABLE
  2
APPID
 70
     8
  0
APPID
  2
ACAD
 70
     0
  0
APPID
  2
ACAD_MLEADERVER
 70
     0
  0
APPID
  2
ACAD_EXEMPT_FROM_CAD_STANDARDS
 70
     0
  0
APPID
  2
ACAD_DSTYLE_DIMJAG
 70
     0
  0
APPID
  2
ACAD_DSTYLE_DIMTALN
 70
     0
  0
APPID
  2
ACAD_DSTYLE_DIMRADIAL_EXTENSION
 70
     0
  0
APPID
  2
ACAD_PSEXT
 70
     0
  0
APPID
  2
ACAD_NAV_VCDISPLAY
 70
     0
  0
ENDTAB
  0
TABLE
  2
DIMSTYLE
 70
     1
  0
DIMSTYLE
  2
STANDARD
 70
     0
  3

  4

  5

  6

  7

 40
1.0
 41
0.18
 42
0.0625
 43
0.38
 44
0.18
 45
0.0
 46
0.0
 47
0.0
 48
0.0
140
0.18
141
0.09
142
0.0
143
25.399999999999999
144
1.0
145
0.0
146
1.0
147
0.09
 71
     0
 72
     0
 73
     1
 74
     1
 75
     0
 76
     0
 77
     0
 78
     0
170
     0
171
     2
172
     0
173
     0
174
     0
175
     0
176
     0
177
     0
178
     0
  0
ENDTAB
  0
ENDSEC
  0
SECTION
  2
BLOCKS
  0
BLOCK
  8
0
  2
$MODEL_SPACE
 70
     0
 10
0.0
 20
0.0
 30
0.0
  3
$MODEL_SPACE
  1

  0
ENDBLK
  5
11B
  8
0
  0
BLOCK
 67
     1
  8
0
  2
$PAPER_SPACE
 70
     0
 10
0.0
 20
0.0
 30
0.0
  3
$PAPER_SPACE
  1

  0
ENDBLK
  5
119
 67
     1
  8
0
  0
ENDSEC
  0
SECTION
  2
ENTITIES
  0
CIRCLE
  5
3C37
  8
0
 10
118.435723592705
 20
372.50216556099002
 30
0.0
 40
11.0
  0
LINE
  5
3C40
  8
1
 10
137.25052450985311
 20
372.50216556099002
 30
0.0
 11
99.620922675556926
 21
372.50216556099002
 31
0.0
  0
CIRCLE
  5
3C48
  8
0
 10
118.435723592705
 20
324.50216556099002
 30
0.0
 40
62.0
  0
ARC
  5
3C4B
  8
0
 10
118.435723592705
 20
324.50216556098968
 30
0.0
 40
58.346919881951457
 50
94.043281756093066
 51
85.956718243906977
  0
ARC
  5
3C57
  8
0
 10
118.435723592705
 20
324.50216556099002
 30
0.0
 40
46.188522893215591
 50
103.2319229280051
 51
76.768077071994853
  0
CIRCLE
  5
3C5C
  8
0
 10
118.435723592705
 20
324.50216556099002
 30
0.0
 40
15.5
  0
POLYLINE
  5
3C5D
  8
0
 66
     1
 10
0.0
 20
0.0
 30
0.0
  0
VERTEX
  5
881D
  8
0
 10
97.265889960372775
 20
361.65237131090709
 30
0.0
  0
VERTEX
  5
881E
  8
0
 10
97.288315459412175
 20
361.66501195396961
 30
0.0
  0
VERTEX
  5
881F
  8
0
 10
97.333714936723027
 20
361.68976817755959
 30
0.0
  0
VERTEX
  5
8820
  8
0
 10
97.379825176421505
 20
361.71379757040228
 30
0.0
  0
VERTEX
  5
8821
  8
0
 10
97.403138845955937
 20
361.7255299660427
 30
0.0
  0
VERTEX
  5
8822
  8
0
 10
97.426620483564193
 20
361.73706913041917
 30
0.0
  0
VERTEX
  5
8823
  8
0
 10
97.474074091458775
 20
361.75955318911991
 30
0.0
  0
VERTEX
  5
8824
  8
0
 10
97.522158299888815
 20
361.78122149061721
 30
0.0
  0
VERTEX
  5
8825
  8
0
 10
97.570844618696356
 20
361.80204725722359
 30
0.0
  0
VERTEX
  5
8826
  8
0
 10
97.620103917074616
 20
361.8220052418061
 30
0.0
  0
VERTEX
  5
8827
  8
0
 10
97.669906578869345
 20
361.84107176691498
 30
0.0
  0
VERTEX
  5
8828
  8
0
 10
97.695002322908749
 20
361.85026376879421
 30
0.0
  0
VERTEX
  5
8829
  8
0
 10
97.720222664108178
 20
361.85922475055611
 30
0.0
  0
VERTEX
  5
882A
  8
0
 10
97.771022076890404
 20
361.87644371834352
 30
0.0
  0
VERTEX
  5
882B
  8
0
 10
97.822274691140137
 20
361.8927097867608
 30
0.0
  0
VERTEX
  5
882C
  8
0
 10
97.873949960313666
 20
361.90800548903542
 30
0.0
  0
VERTEX
  5
882D
  8
0
 10
97.926016465470184
 20
361.92231464006937
 30
0.0
  0
VERTEX
  5
882E
  8
0
 10
97.978441991666401
 20
361.935622391207
 30
0.0
  0
VERTEX
  5
882F
  8
0
 10
98.004779137351775
 20
361.94189648277791
 30
0.0
  0
VERTEX
  5
8830
  8
0
 10
98.031193668414076
 20
361.94791529305468
 30
0.0
  0
VERTEX
  5
8831
  8
0
 10
98.084238112191315
 20
361.9591813449245
 30
0.0
  0
VERTEX
  5
8832
  8
0
 10
98.137541571139309
 20
361.96941003111181
 30
0.0
  0
VERTEX
  5
8833
  8
0
 10
98.164279819267676
 20
361.97413248795198
 30
0.0
  0
VERTEX
  5
8834
  8
0
 10
98.191070072117114
 20
361.9785923441321
 30
0.0
  0
VERTEX
  5
8835
  8
0
 10
98.24478957026713
 20
361.98672079494321
 30
0.0
  0
VERTEX
  5
8836
  8
0
 10
98.298666101230992
 20
361.99378941007819
 30
0.0
  0
VERTEX
  5
8837
  8
0
 10
98.325652700247005
 20
361.99692482328408
 30
0.0
  0
VERTEX
  5
8838
  8
0
 10
98.352666973552004
 20
361.99979382054119
 30
0.0
  0
VERTEX
  5
8839
  8
0
 10
98.406771630066487
 20
362.00473199972618
 30
0.0
  0
VERTEX
  5
883A
  8
0
 10
98.460950169071353
 20
362.00860172633622
 30
0.0
  0
VERTEX
  5
883B
  8
0
 10
98.515168262225188
 20
362.01140171027362
 30
0.0
  0
VERTEX
  5
883C
  8
0
 10
98.569391149235798
 20
362.01313211129661
 30
0.0
  0
VERTEX
  5
883D
  8
0
 10
98.623583786271624
 20
362.01379457789483
 30
0.0
  0
VERTEX
  5
883E
  8
0
 10
98.650657768776696
 20
362.01372626454088
 30
0.0
  0
VERTEX
  5
883F
  8
0
 10
98.677710994079462
 20
362.01339227271012
 30
0.0
  0
VERTEX
  5
8840
  8
0
 10
98.731737605912485
 20
362.01192988470518
 30
0.0
  0
VERTEX
  5
8841
  8
0
 10
98.785628615416741
 20
362.0094136281744
 30
0.0
  0
VERTEX
  5
8842
  8
0
 10
98.839349324669683
 20
362.00585122861833
 30
0.0
  0
VERTEX
  5
8843
  8
0
 10
98.892865492584406
 20
362.0012518953842
 30
0.0
  0
VERTEX
  5
8844
  8
0
 10
98.946143469676826
 20
361.99562628254091
 30
0.0
  0
VERTEX
  5
8845
  8
0
 10
98.972682735489812
 20
361.99243234349399
 30
0.0
  0
VERTEX
  5
8846
  8
0
 10
98.999149945793761
 20
361.9889864901412
 30
0.0
  0
VERTEX
  5
8847
  8
0
 10
99.051851363841266
 20
361.98134615089668
 30
0.0
  0
VERTEX
  5
8848
  8
0
 10
99.104213943850482
 20
361.97272048373191
 30
0.0
  0
VERTEX
  5
8849
  8
0
 10
99.156203848911915
 20
361.96312632123102
 30
0.0
  0
VERTEX
  5
884A
  8
0
 10
99.207787347608715
 20
361.95258212247671
 30
0.0
  0
VERTEX
  5
884B
  8
0
 10
99.258930972700227
 20
361.94110797169759
 30
0.0
  0
VERTEX
  5
884C
  8
0
 10
99.284327484608426
 20
361.93502888152
 30
0.0
  0
VERTEX
  5
884D
  8
0
 10
99.309601676237207
 20
361.92872556299437
 30
0.0
  0
VERTEX
  5
884E
  8
0
 10
99.359766981409393
 20
361.91545817128929
 30
0.0
  0
VERTEX
  5
884F
  8
0
 10
99.409395131512625
 20
361.901330609507
 30
0.0
  0
VERTEX
  5
8850
  8
0
 10
99.458465264733832
 20
361.88636601129718
 30
0.0
  0
VERTEX
  5
8851
  8
0
 10
99.507335072357137
 20
361.87046135388653
 30
0.0
  0
VERTEX
  5
8852
  8
0
 10
99.556166752433228
 20
361.85355280497981
 30
0.0
  0
VERTEX
  5
8853
  8
0
 10
99.580555982978254
 20
361.84472116311429
 30
0.0
  0
VERTEX
  5
8854
  8
0
 10
99.60492092760569
 20
361.8356376666635
 30
0.0
  0
VERTEX
  5
8855
  8
0
 10
99.653558425042775
 20
361.81671489392318
 30
0.0
  0
VERTEX
  5
8856
  8
0
 10
99.702040423065
 20
361.79678505230828
 30
0.0
  0
VERTEX
  5
8857
  8
0
 10
99.750328591446745
 20
361.77585026341569
 30
0.0
  0
VERTEX
  5
8858
  8
0
 10
99.798385225830543
 20
361.75391413812503
 30
0.0
  0
VERTEX
  5
8859
  8
0
 10
99.846173376537294
 20
361.73098169744179
 30
0.0
  0
VERTEX
  5
885A
  8
0
 10
99.869955460562323
 20
361.71914379115839
 30
0.0
  0
VERTEX
  5
885B
  8
0
 10
99.893656971919881
 20
361.70705928075779
 30
0.0
  0
VERTEX
  5
885C
  8
0
 10
99.940800936258938
 20
361.68215444130072
 30
0.0
  0
VERTEX
  5
885D
  8
0
 10
99.987571296342125
 20
361.65627583175188
 30
0.0
  0
VERTEX
  5
885E
  8
0
 10
100.0108060339337
 20
361.64297436613163
 30
0.0
  0
VERTEX
  5
885F
  8
0
 10
100.03393502002859
 20
361.62943323261322
 30
0.0
  0
VERTEX
  5
8860
  8
0
 10
100.07985948503161
 20
361.6016378346838
 30
0.0
  0
VERTEX
  5
8861
  8
0
 10
100.1253124497252
 20
361.57290228536812
 30
0.0
  0
VERTEX
  5
8862
  8
0
 10
100.1478521815295
 20
361.55818629174479
 30
0.0
  0
VERTEX
  5
8863
  8
0
 10
100.1702621886852
 20
361.54324063577798
 30
0.0
  0
VERTEX
  5
8864
  8
0
 10
100.21467762116821
 20
361.51266827742342
 30
0.0
  0
VERTEX
  5
8865
  8
0
 10
100.25852843175559
 20
361.48120186913877
 30
0.0
  0
VERTEX
  5
8866
  8
0
 10
100.301785183417
 20
361.44885925424632
 30
0.0
  0
VERTEX
  5
8867
  8
0
 10
100.34441942317009
 20
361.41565936787617
 30
0.0
  0
VERTEX
  5
8868
  8
0
 10
100.3864037804517
 20
361.38162213432349
 30
0.0
  0
VERTEX
  5
8869
  8
0
 10
100.407144018407
 20
361.36429598162539
 30
0.0
  0
VERTEX
  5
886A
  8
0
 10
100.4277120582164
 20
361.34676835426001
 30
0.0
  0
VERTEX
  5
886B
  8
0
 10
100.4683246594422
 20
361.31111479767497
 30
0.0
  0
VERTEX
  5
886C
  8
0
 10
100.5082245040462
 20
361.27467698342792
 30
0.0
  0
VERTEX
  5
886D
  8
0
 10
100.54738756078081
 20
361.23747798131728
 30
0.0
  0
VERTEX
  5
886E
  8
0
 10
100.58579044262341
 20
361.19954218488363
 30
0.0
  0
VERTEX
  5
886F
  8
0
 10
100.6234105771282
 20
361.16089520002691
 30
0.0
  0
VERTEX
  5
8870
  8
0
 10
100.6419203118605
 20
361.14131332538528
 30
0.0
  0
VERTEX
  5
8871
  8
0
 10
100.66022632303179
 20
361.12156376344149
 30
0.0
  0
VERTEX
  5
8872
  8
0
 10
100.6962170776783
 20
361.08157565277531
 30
0.0
  0
VERTEX
  5
8873
  8
0
 10
100.7313633754711
 20
361.04095958848927
 30
0.0
  0
VERTEX
  5
8874
  8
0
 10
100.7656469775136
 20
360.99974512729671
 30
0.0
  0
VERTEX
  5
8875
  8
0
 10
100.7990509525557
 20
360.95796254698882
 30
0.0
  0
VERTEX
  5
8876
  8
0
 10
100.83155974922551
 20
360.91564272246308
 30
0.0
  0
VERTEX
  5
8877
  8
0
 10
100.8474739802073
 20
360.89429113463382
 30
0.0
  0
VERTEX
  5
8878
  8
0
 10
100.8631591887906
 20
360.87281709047642
 30
0.0
  0
VERTEX
  5
8879
  8
0
 10
100.893836132049
 20
360.82951808614041
 30
0.0
  0
VERTEX
  5
887A
  8
0
 10
100.923578360791
 20
360.78577937843158
 30
0.0
  0
VERTEX
  5
887B
  8
0
 10
100.9523746997108
 20
360.74163579122222
 30
0.0
  0
VERTEX
  5
887C
  8
0
 10
100.9802151365591
 20
360.69712320385941
 30
0.0
  0
VERTEX
  5
887D
  8
0
 10
101.0070909302521
 20
360.65227844501908
 30
0.0
  0
VERTEX
  5
887E
  8
0
 10
101.0201647258616
 20
360.62974324221852
 30
0.0
  0
VERTEX
  5
887F
  8
0
 10
101.0329947072334
 20
360.60713917991609
 30
0.0
  0
VERTEX
  5
8880
  8
0
 10
101.05792054636839
 20
360.56174379078692
 30
0.0
  0
VERTEX
  5
8881
  8
0
 10
101.081864052627
 20
360.51613125042002
 30
0.0
  0
VERTEX
  5
8882
  8
0
 10
101.1048224197616
 20
360.47034098834132
 30
0.0
  0
VERTEX
  5
8883
  8
0
 10
101.1268566551207
 20
360.42427963466378
 30
0.0
  0
VERTEX
  5
8884
  8
0
 10
101.1481631666245
 20
360.37752654441908
 30
0.0
  0
VERTEX
  5
8885
  8
0
 10
101.1585395204622
 20
360.35388554361168
 30
0.0
  0
VERTEX
  5
8886
  8
0
 10
101.1687256383386
 20
360.33007323900608
 30
0.0
  0
VERTEX
  5
8887
  8
0
 10
101.1885108743063
 20
360.28195014029842
 30
0.0
  0
VERTEX
  5
8888
  8
0
 10
101.2074873523261
 20
360.23318871639168
 30
0.0
  0
VERTEX
  5
8889
  8
0
 10
101.2166629325279
 20
360.20857871282539
 30
0.0
  0
VERTEX
  5
888A
  8
0
 10
101.22562529761829
 20
360.1838213205225
 30
0.0
  0
VERTEX
  5
888B
  8
0
 10
101.24289674121241
 20
360.13388102390053
 30
0.0
  0
VERTEX
  5
888C
  8
0
 10
101.259275563161
 20
360.0834014417577
 30
0.0
  0
VERTEX
  5
888D
  8
0
 10
101.2671225913207
 20
360.05797002766627
 30
0.0
  0
VERTEX
  5
888E
  8
0
 10
101.2747375204806
 20
360.03241655201452
 30
0.0
  0
VERTEX
  5
888F
  8
0
 10
101.2892602595081
 20
359.98096050608473
 30
0.0
  0
VERTEX
  5
8890
  8
0
 10
101.30282330009619
 20
359.92906747962149
 30
0.0
  0
VERTEX
  5
8891
  8
0
 10
101.3154078803295
 20
359.87677207360241
 30
0.0
  0
VERTEX
  5
8892
  8
0
 10
101.32699684051499
 20
359.82410979179338
 30
0.0
  0
VERTEX
  5
8893
  8
0
 10
101.33757467968231
 20
359.77111694215239
 30
0.0
  0
VERTEX
  5
8894
  8
0
 10
101.3424800534499
 20
359.74450807982168
 30
0.0
  0
VERTEX
  5
8895
  8
0
 10
101.34712761549871
 20
359.71783047127673
 30
0.0
  0
VERTEX
  5
8896
  8
0
 10
101.3556436287715
 20
359.66428779702039
 30
0.0
  0
VERTEX
  5
8897
  8
0
 10
101.36311249276081
 20
359.61052663875643
 30
0.0
  0
VERTEX
  5
8898
  8
0
 10
101.36952578737601
 20
359.55658484476811
 30
0.0
  0
VERTEX
  5
8899
  8
0
 10
101.3748768981613
 20
359.50250021629051
 30
0.0
  0
VERTEX
  5
889A
  8
0
 10
101.37916102417491
 20
359.44830997570182
 30
0.0
  0
VERTEX
  5
889B
  8
0
 10
101.3809021417849
 20
359.42118339581327
 30
0.0
  0
VERTEX
  5
889C
  8
0
 10
101.38237561422601
 20
359.39404038058029
 30
0.0
  0
VERTEX
  5
889D
  8
0
 10
101.3845187522568
 20
359.3397242348866
 30
0.0
  0
VERTEX
  5
889E
  8
0
 10
101.38558980668169
 20
359.28540000530199
 30
0.0
  0
VERTEX
  5
889F
  8
0
 10
101.38572359270501
 20
359.25824688870591
 30
0.0
  0
SEQEND
  5
88A0
  8
0
  0
ARC
  5
3C5E
  8
0
 10
118.435723592705
 20
324.50216556099002
 30
0.0
 40
42.75862068965516
 50
119.6764071726323
 51
240.3235926779432
  0
POLYLINE
  5
3C5F
  8
0
 66
     1
 10
0.0
 20
0.0
 30
0.0
  0
VERTEX
  5
88A1
  8
0
 10
101.38572359270501
 20
289.74608423327379
 30
0.0
  0
VERTEX
  5
88A2
  8
0
 10
101.38558980668169
 20
289.71893111667771
 30
0.0
  0
VERTEX
  5
88A3
  8
0
 10
101.3845187522568
 20
289.6646068870931
 30
0.0
  0
VERTEX
  5
88A4
  8
0
 10
101.38237561422601
 20
289.61029074139958
 30
0.0
  0
VERTEX
  5
88A5
  8
0
 10
101.3809021417849
 20
289.58314772616637
 30
0.0
  0
VERTEX
  5
88A6
  8
0
 10
101.37916102417491
 20
289.55602114627789
 30
0.0
  0
VERTEX
  5
88A7
  8
0
 10
101.3748768981613
 20
289.50183090568919
 30
0.0
  0
VERTEX
  5
88A8
  8
0
 10
101.36952578737601
 20
289.44774627721159
 30
0.0
  0
VERTEX
  5
88A9
  8
0
 10
101.36311249276081
 20
289.39380448322328
 30
0.0
  0
VERTEX
  5
88AA
  8
0
 10
101.3556436287715
 20
289.34004332495931
 30
0.0
  0
VERTEX
  5
88AB
  8
0
 10
101.34712761549871
 20
289.28650065070298
 30
0.0
  0
VERTEX
  5
88AC
  8
0
 10
101.3424800534499
 20
289.25982304215802
 30
0.0
  0
VERTEX
  5
88AD
  8
0
 10
101.33757467968231
 20
289.23321417982731
 30
0.0
  0
VERTEX
  5
88AE
  8
0
 10
101.32699684051499
 20
289.18022133018633
 30
0.0
  0
VERTEX
  5
88AF
  8
0
 10
101.3154078803295
 20
289.12755904837752
 30
0.0
  0
VERTEX
  5
88B0
  8
0
 10
101.30282330009619
 20
289.07526364235821
 30
0.0
  0
VERTEX
  5
88B1
  8
0
 10
101.2892602595081
 20
289.0233706158952
 30
0.0
  0
VERTEX
  5
88B2
  8
0
 10
101.2747375204803
 20
288.97191456996518
 30
0.0
  0
VERTEX
  5
88B3
  8
0
 10
101.2671225913207
 20
288.94636109431337
 30
0.0
  0
VERTEX
  5
88B4
  8
0
 10
101.259275563161
 20
288.92092968022217
 30
0.0
  0
VERTEX
  5
88B5
  8
0
 10
101.24289674121241
 20
288.87045009807929
 30
0.0
  0
VERTEX
  5
88B6
  8
0
 10
101.22562529761829
 20
288.82050980145738
 30
0.0
  0
VERTEX
  5
88B7
  8
0
 10
101.2166629325279
 20
288.79575240915432
 30
0.0
  0
VERTEX
  5
88B8
  8
0
 10
101.2074873523261
 20
288.77114240558819
 30
0.0
  0
VERTEX
  5
88B9
  8
0
 10
101.1885108743063
 20
288.72238098168128
 30
0.0
  0
VERTEX
  5
88BA
  8
0
 10
101.1687256383386
 20
288.67425788297362
 30
0.0
  0
VERTEX
  5
88BB
  8
0
 10
101.1585395204622
 20
288.65044557836802
 30
0.0
  0
VERTEX
  5
88BC
  8
0
 10
101.1481631666245
 20
288.62680457756062
 30
0.0
  0
VERTEX
  5
88BD
  8
0
 10
101.1268566551207
 20
288.58005148731593
 30
0.0
  0
VERTEX
  5
88BE
  8
0
 10
101.1048224197618
 20
288.53399013363838
 30
0.0
  0
VERTEX
  5
88BF
  8
0
 10
101.081864052627
 20
288.48819987155969
 30
0.0
  0
VERTEX
  5
88C0
  8
0
 10
101.05792054636839
 20
288.44258733119278
 30
0.0
  0
VERTEX
  5
88C1
  8
0
 10
101.0329947072334
 20
288.39719194206361
 30
0.0
  0
VERTEX
  5
88C2
  8
0
 10
101.0201647258616
 20
288.37458787976118
 30
0.0
  0
VERTEX
  5
88C3
  8
0
 10
101.0070909302521
 20
288.35205267696062
 30
0.0
  0
VERTEX
  5
88C4
  8
0
 10
100.9802151365591
 20
288.3072079181203
 30
0.0
  0
VERTEX
  5
88C5
  8
0
 10
100.9523746997108
 20
288.26269533075748
 30
0.0
  0
VERTEX
  5
88C6
  8
0
 10
100.923578360791
 20
288.2185517435484
 30
0.0
  0
VERTEX
  5
88C7
  8
0
 10
100.893836132049
 20
288.17481303583929
 30
0.0
  0
VERTEX
  5
88C8
  8
0
 10
100.8631591887906
 20
288.1315140315034
 30
0.0
  0
VERTEX
  5
88C9
  8
0
 10
100.8474739802073
 20
288.11003998734589
 30
0.0
  0
VERTEX
  5
88CA
  8
0
 10
100.83155974922551
 20
288.08868839951663
 30
0.0
  0
VERTEX
  5
88CB
  8
0
 10
100.7990509525557
 20
288.04636857499111
 30
0.0
  0
VERTEX
  5
88CC
  8
0
 10
100.7656469775136
 20
288.00458599468323
 30
0.0
  0
VERTEX
  5
88CD
  8
0
 10
100.7313633754711
 20
287.96337153349037
 30
0.0
  0
VERTEX
  5
88CE
  8
0
 10
100.6962170776783
 20
287.92275546920439
 30
0.0
  0
VERTEX
  5
88CF
  8
0
 10
100.66022632303179
 20
287.8827673585385
 30
0.0
  0
VERTEX
  5
88D0
  8
0
 10
100.6419203118605
 20
287.86301779659431
 30
0.0
  0
VERTEX
  5
88D1
  8
0
 10
100.6234105771282
 20
287.8434359219529
 30
0.0
  0
VERTEX
  5
88D2
  8
0
 10
100.58579044262341
 20
287.80478893709608
 30
0.0
  0
VERTEX
  5
88D3
  8
0
 10
100.54738756078081
 20
287.76685314066242
 30
0.0
  0
VERTEX
  5
88D4
  8
0
 10
100.5082245040462
 20
287.72965413855178
 30
0.0
  0
VERTEX
  5
88D5
  8
0
 10
100.4683246594422
 20
287.69321632430467
 30
0.0
  0
VERTEX
  5
88D6
  8
0
 10
100.4277120582164
 20
287.65756276771992
 30
0.0
  0
VERTEX
  5
88D7
  8
0
 10
100.407144018407
 20
287.64003514035443
 30
0.0
  0
VERTEX
  5
88D8
  8
0
 10
100.3864037804517
 20
287.62270898765621
 30
0.0
  0
VERTEX
  5
88D9
  8
0
 10
100.34441942317009
 20
287.58867175410347
 30
0.0
  0
VERTEX
  5
88DA
  8
0
 10
100.301785183417
 20
287.5554718677335
 30
0.0
  0
VERTEX
  5
88DB
  8
0
 10
100.25852843175559
 20
287.52312925284087
 30
0.0
  0
VERTEX
  5
88DC
  8
0
 10
100.21467762116821
 20
287.49166284455657
 30
0.0
  0
VERTEX
  5
88DD
  8
0
 10
100.1702621886852
 20
287.46109048620161
 30
0.0
  0
VERTEX
  5
88DE
  8
0
 10
100.1478521815295
 20
287.44614483023491
 30
0.0
  0
VERTEX
  5
88DF
  8
0
 10
100.1253124497252
 20
287.43142883661159
 30
0.0
  0
VERTEX
  5
88E0
  8
0
 10
100.07985948503161
 20
287.4026932872959
 30
0.0
  0
VERTEX
  5
88E1
  8
0
 10
100.03393502002859
 20
287.37489788936671
 30
0.0
  0
VERTEX
  5
88E2
  8
0
 10
100.0108060339337
 20
287.36135675584808
 30
0.0
  0
VERTEX
  5
88E3
  8
0
 10
99.987571296342367
 20
287.34805529022771
 30
0.0
  0
VERTEX
  5
88E4
  8
0
 10
99.940800936258938
 20
287.32217668067932
 30
0.0
  0
VERTEX
  5
88E5
  8
0
 10
99.893656971919881
 20
287.29727184122191
 30
0.0
  0
VERTEX
  5
88E6
  8
0
 10
99.869955460562323
 20
287.28518733082132
 30
0.0
  0
VERTEX
  5
88E7
  8
0
 10
99.846173376537294
 20
287.27334942453803
 30
0.0
  0
VERTEX
  5
88E8
  8
0
 10
99.798385225830543
 20
287.25041698385468
 30
0.0
  0
VERTEX
  5
88E9
  8
0
 10
99.750328591446745
 20
287.22848085856401
 30
0.0
  0
VERTEX
  5
88EA
  8
0
 10
99.702040423065
 20
287.20754606967159
 30
0.0
  0
VERTEX
  5
88EB
  8
0
 10
99.653558425042775
 20
287.18761622805653
 30
0.0
  0
VERTEX
  5
88EC
  8
0
 10
99.60492092760569
 20
287.1686934553162
 30
0.0
  0
VERTEX
  5
88ED
  8
0
 10
99.580555982978254
 20
287.15960995886542
 30
0.0
  0
VERTEX
  5
88EE
  8
0
 10
99.556166752433228
 20
287.15077831699989
 30
0.0
  0
VERTEX
  5
88EF
  8
0
 10
99.507335072357137
 20
287.13386976809318
 30
0.0
  0
VERTEX
  5
88F0
  8
0
 10
99.458465264733832
 20
287.11796511068258
 30
0.0
  0
VERTEX
  5
88F1
  8
0
 10
99.409395131512625
 20
287.1030005124727
 30
0.0
  0
VERTEX
  5
88F2
  8
0
 10
99.359766981409393
 20
287.08887295069042
 30
0.0
  0
VERTEX
  5
88F3
  8
0
 10
99.309601676237207
 20
287.07560555898527
 30
0.0
  0
VERTEX
  5
88F4
  8
0
 10
99.284327484608426
 20
287.06930224045971
 30
0.0
  0
VERTEX
  5
88F5
  8
0
 10
99.258930972700227
 20
287.06322315028223
 30
0.0
  0
VERTEX
  5
88F6
  8
0
 10
99.207787347608715
 20
287.05174899950299
 30
0.0
  0
VERTEX
  5
88F7
  8
0
 10
99.156203848911915
 20
287.04120480074869
 30
0.0
  0
VERTEX
  5
88F8
  8
0
 10
99.104213943850482
 20
287.0316106382478
 30
0.0
  0
VERTEX
  5
88F9
  8
0
 10
99.051851363841266
 20
287.02298497108302
 30
0.0
  0
VERTEX
  5
88FA
  8
0
 10
98.999149945793761
 20
287.0153446318385
 30
0.0
  0
VERTEX
  5
88FB
  8
0
 10
98.972682735489812
 20
287.01189877848572
 30
0.0
  0
VERTEX
  5
88FC
  8
0
 10
98.946143469676826
 20
287.00870483943879
 30
0.0
  0
VERTEX
  5
88FD
  8
0
 10
98.892865492584406
 20
287.00307922659562
 30
0.0
  0
VERTEX
  5
88FE
  8
0
 10
98.839349324669925
 20
286.9984798933616
 30
0.0
  0
VERTEX
  5
88FF
  8
0
 10
98.785628615416741
 20
286.9949174938053
 30
0.0
  0
VERTEX
  5
8900
  8
0
 10
98.731737605912485
 20
286.99240123727469
 30
0.0
  0
VERTEX
  5
8901
  8
0
 10
98.677710994079462
 20
286.99093884926958
 30
0.0
  0
VERTEX
  5
8902
  8
0
 10
98.650657768776696
 20
286.99060485743883
 30
0.0
  0
VERTEX
  5
8903
  8
0
 10
98.623583786271624
 20
286.99053654408488
 30
0.0
  0
VERTEX
  5
8904
  8
0
 10
98.569391149235798
 20
286.99119901068309
 30
0.0
  0
VERTEX
  5
8905
  8
0
 10
98.515168262225188
 20
286.99292941170609
 30
0.0
  0
VERTEX
  5
8906
  8
0
 10
98.460950169071353
 20
286.99572939564348
 30
0.0
  0
VERTEX
  5
8907
  8
0
 10
98.406771630066487
 20
286.99959912225341
 30
0.0
  0
VERTEX
  5
8908
  8
0
 10
98.352666973552004
 20
287.00453730143852
 30
0.0
  0
VERTEX
  5
8909
  8
0
 10
98.325652700247005
 20
287.00740629869563
 30
0.0
  0
VERTEX
  5
890A
  8
0
 10
98.298666101230992
 20
287.01054171190151
 30
0.0
  0
VERTEX
  5
890B
  8
0
 10
98.24478957026713
 20
287.01761032703649
 30
0.0
  0
VERTEX
  5
890C
  8
0
 10
98.191070072117114
 20
287.02573877784761
 30
0.0
  0
VERTEX
  5
890D
  8
0
 10
98.164279819267676
 20
287.03019863402761
 30
0.0
  0
VERTEX
  5
890E
  8
0
 10
98.137541571139309
 20
287.0349210908679
 30
0.0
  0
VERTEX
  5
890F
  8
0
 10
98.084238112191315
 20
287.04514977705509
 30
0.0
  0
VERTEX
  5
8910
  8
0
 10
98.031193668414275
 20
287.0564158289252
 30
0.0
  0
VERTEX
  5
8911
  8
0
 10
98.004779137351775
 20
287.0624346392018
 30
0.0
  0
VERTEX
  5
8912
  8
0
 10
97.978441991666401
 20
287.0687087307727
 30
0.0
  0
VERTEX
  5
8913
  8
0
 10
97.926016465470411
 20
287.08201648191027
 30
0.0
  0
VERTEX
  5
8914
  8
0
 10
97.873949960313666
 20
287.09632563294429
 30
0.0
  0
VERTEX
  5
8915
  8
0
 10
97.822274691140137
 20
287.1116213352189
 30
0.0
  0
VERTEX
  5
8916
  8
0
 10
97.771022076872896
 20
287.12788740364192
 30
0.0
  0
VERTEX
  5
8917
  8
0
 10
97.720222661061371
 20
287.14510637248969
 30
0.0
  0
VERTEX
  5
8918
  8
0
 10
97.695002316620958
 20
287.154067355454
 30
0.0
  0
VERTEX
  5
8919
  8
0
 10
97.669906568380156
 20
287.16325935896458
 30
0.0
  0
VERTEX
  5
891A
  8
0
 10
97.620103895865896
 20
287.18232588852942
 30
0.0
  0
VERTEX
  5
891B
  8
0
 10
97.570844584617134
 20
287.20228387894792
 30
0.0
  0
VERTEX
  5
891C
  8
0
 10
97.522158251895235
 20
287.2231096524398
 30
0.0
  0
VERTEX
  5
891D
  8
0
 10
97.474074029586987
 20
287.24477796145658
 30
0.0
  0
VERTEX
  5
891E
  8
0
 10
97.426620408896497
 20
287.26726202781413
 30
0.0
  0
VERTEX
  5
891F
  8
0
 10
97.403138765611857
 20
287.27880119589378
 30
0.0
  0
VERTEX
  5
8920
  8
0
 10
97.379825091044253
 20
287.29053359505048
 30
0.0
  0
VERTEX
  5
8921
  8
0
 10
97.333714843679005
 20
287.31456299402993
 30
0.0
  0
VERTEX
  5
8922
  8
0
 10
97.288315362645335
 20
287.33931922196109
 30
0.0
  0
VERTEX
  5
8923
  8
0
 10
97.265889863488837
 20
287.35195986628139
 30
0.0
  0
SEQEND
  5
8924
  8
0
  0
POLYLINE
  5
3C63
  8
0
 66
     1
 10
0.0
 20
0.0
 30
0.0
  0
VERTEX
  5
8925
  8
0
 10
139.60555722503719
 20
287.35195981107262
 30
0.0
  0
VERTEX
  5
8926
  8
0
 10
139.58313172599779
 20
287.33931916801009
 30
0.0
  0
VERTEX
  5
8927
  8
0
 10
139.53773224868701
 20
287.31456294442012
 30
0.0
  0
VERTEX
  5
8928
  8
0
 10
139.49162200898849
 20
287.29053355157743
 30
0.0
  0
VERTEX
  5
8929
  8
0
 10
139.4683083394541
 20
287.278801155937
 30
0.0
  0
VERTEX
  5
892A
  8
0
 10
139.44482670184581
 20
287.26726199156047
 30
0.0
  0
VERTEX
  5
892B
  8
0
 10
139.3973730939513
 20
287.2447779328599
 30
0.0
  0
VERTEX
  5
892C
  8
0
 10
139.34928888552119
 20
287.22310963136249
 30
0.0
  0
VERTEX
  5
892D
  8
0
 10
139.30060256671371
 20
287.20228386475623
 30
0.0
  0
VERTEX
  5
892E
  8
0
 10
139.2513432683354
 20
287.18232588017361
 30
0.0
  0
VERTEX
  5
892F
  8
0
 10
139.2015406065407
 20
287.16325935506501
 30
0.0
  0
VERTEX
  5
8930
  8
0
 10
139.17644486250131
 20
287.15406735318572
 30
0.0
  0
VERTEX
  5
8931
  8
0
 10
139.1512245213018
 20
287.14510637142359
 30
0.0
  0
VERTEX
  5
8932
  8
0
 10
139.1004251085196
 20
287.12788740363629
 30
0.0
  0
VERTEX
  5
8933
  8
0
 10
139.0491724942699
 20
287.1116213352189
 30
0.0
  0
VERTEX
  5
8934
  8
0
 10
138.99749722509631
 20
287.09632563294429
 30
0.0
  0
VERTEX
  5
8935
  8
0
 10
138.94543071993959
 20
287.08201648191027
 30
0.0
  0
VERTEX
  5
8936
  8
0
 10
138.89300519374359
 20
287.0687087307727
 30
0.0
  0
VERTEX
  5
8937
  8
0
 10
138.86666804805819
 20
287.0624346392018
 30
0.0
  0
VERTEX
  5
8938
  8
0
 10
138.840253516996
 20
287.0564158289252
 30
0.0
  0
VERTEX
  5
8939
  8
0
 10
138.78720907321869
 20
287.04514977705509
 30
0.0
  0
VERTEX
  5
893A
  8
0
 10
138.7339056142707
 20
287.0349210908679
 30
0.0
  0
VERTEX
  5
893B
  8
0
 10
138.7071673661423
 20
287.03019863402761
 30
0.0
  0
VERTEX
  5
893C
  8
0
 10
138.68037711329291
 20
287.02573877784761
 30
0.0
  0
VERTEX
  5
893D
  8
0
 10
138.6266576151429
 20
287.01761032703649
 30
0.0
  0
VERTEX
  5
893E
  8
0
 10
138.57278108417901
 20
287.01054171190151
 30
0.0
  0
VERTEX
  5
893F
  8
0
 10
138.54579448516299
 20
287.00740629869563
 30
0.0
  0
VERTEX
  5
8940
  8
0
 10
138.518780211858
 20
287.00453730143852
 30
0.0
  0
VERTEX
  5
8941
  8
0
 10
138.46467555534349
 20
286.99959912225341
 30
0.0
  0
VERTEX
  5
8942
  8
0
 10
138.4104970163387
 20
286.99572939564348
 30
0.0
  0
VERTEX
  5
8943
  8
0
 10
138.35627892318479
 20
286.99292941170609
 30
0.0
  0
VERTEX
  5
8944
  8
0
 10
138.30205603617401
 20
286.99119901068309
 30
0.0
  0
VERTEX
  5
8945
  8
0
 10
138.2478633991384
 20
286.99053654408488
 30
0.0
  0
VERTEX
  5
8946
  8
0
 10
138.22078941663329
 20
286.99060485743883
 30
0.0
  0
VERTEX
  5
8947
  8
0
 10
138.19373619133049
 20
286.99093884926958
 30
0.0
  0
VERTEX
  5
8948
  8
0
 10
138.13970957949749
 20
286.99240123727469
 30
0.0
  0
VERTEX
  5
8949
  8
0
 10
138.08581856999331
 20
286.9949174938053
 30
0.0
  0
VERTEX
  5
894A
  8
0
 10
138.03209786074029
 20
286.9984798933616
 30
0.0
  0
VERTEX
  5
894B
  8
0
 10
137.9785816928256
 20
287.00307922659562
 30
0.0
  0
VERTEX
  5
894C
  8
0
 10
137.92530371573321
 20
287.00870483943879
 30
0.0
  0
VERTEX
  5
894D
  8
0
 10
137.89876444992021
 20
287.01189877848572
 30
0.0
  0
VERTEX
  5
894E
  8
0
 10
137.87229723961619
 20
287.0153446318385
 30
0.0
  0
VERTEX
  5
894F
  8
0
 10
137.8195958215687
 20
287.02298497108302
 30
0.0
  0
VERTEX
  5
8950
  8
0
 10
137.7672332415595
 20
287.0316106382478
 30
0.0
  0
VERTEX
  5
8951
  8
0
 10
137.71524333649811
 20
287.04120480074869
 30
0.0
  0
VERTEX
  5
8952
  8
0
 10
137.66365983780111
 20
287.05174899950299
 30
0.0
  0
VERTEX
  5
8953
  8
0
 10
137.61251621270981
 20
287.06322315028223
 30
0.0
  0
VERTEX
  5
8954
  8
0
 10
137.58711970080159
 20
287.06930224045971
 30
0.0
  0
VERTEX
  5
8955
  8
0
 10
137.5618455091728
 20
287.07560555898527
 30
0.0
  0
VERTEX
  5
8956
  8
0
 10
137.51168020400061
 20
287.08887295069042
 30
0.0
  0
VERTEX
  5
8957
  8
0
 10
137.46205205389739
 20
287.1030005124727
 30
0.0
  0
VERTEX
  5
8958
  8
0
 10
137.4129819206762
 20
287.11796511068258
 30
0.0
  0
VERTEX
  5
8959
  8
0
 10
137.3641121130529
 20
287.13386976809318
 30
0.0
  0
VERTEX
  5
895A
  8
0
 10
137.31528043297681
 20
287.15077831699989
 30
0.0
  0
VERTEX
  5
895B
  8
0
 10
137.29089120243179
 20
287.15960995886542
 30
0.0
  0
VERTEX
  5
895C
  8
0
 10
137.26652625780429
 20
287.1686934553162
 30
0.0
  0
VERTEX
  5
895D
  8
0
 10
137.217888760367
 20
287.18761622805653
 30
0.0
  0
VERTEX
  5
895E
  8
0
 10
137.16940676234501
 20
287.20754606967159
 30
0.0
  0
VERTEX
  5
895F
  8
0
 10
137.12111859396319
 20
287.22848085856401
 30
0.0
  0
VERTEX
  5
8960
  8
0
 10
137.07306195957949
 20
287.25041698385468
 30
0.0
  0
VERTEX
  5
8961
  8
0
 10
137.0252738088727
 20
287.27334942453803
 30
0.0
  0
VERTEX
  5
8962
  8
0
 10
137.00149172484771
 20
287.28518733082132
 30
0.0
  0
VERTEX
  5
8963
  8
0
 10
136.9777902134901
 20
287.29727184122191
 30
0.0
  0
VERTEX
  5
8964
  8
0
 10
136.9306462491511
 20
287.32217668067932
 30
0.0
  0
VERTEX
  5
8965
  8
0
 10
136.88387588906761
 20
287.34805529022771
 30
0.0
  0
VERTEX
  5
8966
  8
0
 10
136.8606411514763
 20
287.36135675584808
 30
0.0
  0
VERTEX
  5
8967
  8
0
 10
136.83751216538141
 20
287.37489788936671
 30
0.0
  0
VERTEX
  5
8968
  8
0
 10
136.79158770037839
 20
287.4026932872959
 30
0.0
  0
VERTEX
  5
8969
  8
0
 10
136.74613473568479
 20
287.43142883661159
 30
0.0
  0
VERTEX
  5
896A
  8
0
 10
136.72359500388049
 20
287.44614483023491
 30
0.0
  0
VERTEX
  5
896B
  8
0
 10
136.70118499672481
 20
287.46109048620161
 30
0.0
  0
VERTEX
  5
896C
  8
0
 10
136.65676956424181
 20
287.49166284455657
 30
0.0
  0
VERTEX
  5
896D
  8
0
 10
136.61291875365441
 20
287.52312925284087
 30
0.0
  0
VERTEX
  5
896E
  8
0
 10
136.56966200199301
 20
287.5554718677335
 30
0.0
  0
VERTEX
  5
896F
  8
0
 10
136.52702776223981
 20
287.58867175410347
 30
0.0
  0
VERTEX
  5
8970
  8
0
 10
136.4850434049583
 20
287.62270898765638
 30
0.0
  0
VERTEX
  5
8971
  8
0
 10
136.4643031670027
 20
287.64003514035443
 30
0.0
  0
VERTEX
  5
8972
  8
0
 10
136.44373512719361
 20
287.65756276771992
 30
0.0
  0
VERTEX
  5
8973
  8
0
 10
136.4031225259678
 20
287.69321632430467
 30
0.0
  0
VERTEX
  5
8974
  8
0
 10
136.3632226813636
 20
287.72965413855178
 30
0.0
  0
VERTEX
  5
8975
  8
0
 10
136.32405962462889
 20
287.76685314066242
 30
0.0
  0
VERTEX
  5
8976
  8
0
 10
136.28565674278661
 20
287.80478893709608
 30
0.0
  0
VERTEX
  5
8977
  8
0
 10
136.24803660828181
 20
287.8434359219529
 30
0.0
  0
VERTEX
  5
8978
  8
0
 10
136.2295268735495
 20
287.86301779659431
 30
0.0
  0
VERTEX
  5
8979
  8
0
 10
136.21122086237821
 20
287.88276735853822
 30
0.0
  0
VERTEX
  5
897A
  8
0
 10
136.17523010773169
 20
287.92275546920439
 30
0.0
  0
VERTEX
  5
897B
  8
0
 10
136.14008380993889
 20
287.96337153349037
 30
0.0
  0
VERTEX
  5
897C
  8
0
 10
136.10580020789641
 20
288.00458599468323
 30
0.0
  0
VERTEX
  5
897D
  8
0
 10
136.07239623285429
 20
288.04636857499111
 30
0.0
  0
VERTEX
  5
897E
  8
0
 10
136.03988743618419
 20
288.08868839951663
 30
0.0
  0
VERTEX
  5
897F
  8
0
 10
136.02397320520271
 20
288.11003998734589
 30
0.0
  0
VERTEX
  5
8980
  8
0
 10
136.0082879966194
 20
288.1315140315034
 30
0.0
  0
VERTEX
  5
8981
  8
0
 10
135.97761105336099
 20
288.17481303583929
 30
0.0
  0
VERTEX
  5
8982
  8
0
 10
135.94786882461881
 20
288.2185517435484
 30
0.0
  0
VERTEX
  5
8983
  8
0
 10
135.91907248569919
 20
288.26269533075748
 30
0.0
  0
VERTEX
  5
8984
  8
0
 10
135.8912320488509
 20
288.3072079181203
 30
0.0
  0
VERTEX
  5
8985
  8
0
 10
135.86435625515779
 20
288.35205267696062
 30
0.0
  0
VERTEX
  5
8986
  8
0
 10
135.8512824595484
 20
288.37458787976118
 30
0.0
  0
VERTEX
  5
8987
  8
0
 10
135.83845247817661
 20
288.39719194206361
 30
0.0
  0
VERTEX
  5
8988
  8
0
 10
135.81352663904161
 20
288.44258733119278
 30
0.0
  0
VERTEX
  5
8989
  8
0
 10
135.78958313278301
 20
288.48819987155969
 30
0.0
  0
VERTEX
  5
898A
  8
0
 10
135.7666247656482
 20
288.53399013363838
 30
0.0
  0
VERTEX
  5
898B
  8
0
 10
135.74459053028929
 20
288.58005148731593
 30
0.0
  0
VERTEX
  5
898C
  8
0
 10
135.72328401878551
 20
288.62680457756062
 30
0.0
  0
VERTEX
  5
898D
  8
0
 10
135.71290766494781
 20
288.65044557836802
 30
0.0
  0
VERTEX
  5
898E
  8
0
 10
135.70272154707141
 20
288.67425788297362
 30
0.0
  0
VERTEX
  5
898F
  8
0
 10
135.6829363111037
 20
288.72238098168128
 30
0.0
  0
VERTEX
  5
8990
  8
0
 10
135.66395983308391
 20
288.77114240558802
 30
0.0
  0
VERTEX
  5
8991
  8
0
 10
135.65478425288211
 20
288.79575240915432
 30
0.0
  0
VERTEX
  5
8992
  8
0
 10
135.6458218877917
 20
288.82050980145738
 30
0.0
  0
VERTEX
  5
8993
  8
0
 10
135.62855044419749
 20
288.87045009807929
 30
0.0
  0
VERTEX
  5
8994
  8
0
 10
135.61217162224901
 20
288.92092968022217
 30
0.0
  0
VERTEX
  5
8995
  8
0
 10
135.60432459408929
 20
288.94636109431337
 30
0.0
  0
VERTEX
  5
8996
  8
0
 10
135.59670966492939
 20
288.97191456996518
 30
0.0
  0
VERTEX
  5
8997
  8
0
 10
135.58218692590179
 20
289.0233706158952
 30
0.0
  0
VERTEX
  5
8998
  8
0
 10
135.5686238853138
 20
289.07526364235821
 30
0.0
  0
VERTEX
  5
8999
  8
0
 10
135.5560393050805
 20
289.12755904837752
 30
0.0
  0
VERTEX
  5
899A
  8
0
 10
135.54445034489501
 20
289.18022133018633
 30
0.0
  0
VERTEX
  5
899B
  8
0
 10
135.53387250572769
 20
289.23321417982731
 30
0.0
  0
VERTEX
  5
899C
  8
0
 10
135.52896713196009
 20
289.25982304215802
 30
0.0
  0
VERTEX
  5
899D
  8
0
 10
135.52431956991111
 20
289.28650065070298
 30
0.0
  0
VERTEX
  5
899E
  8
0
 10
135.5158035566385
 20
289.34004332495931
 30
0.0
  0
VERTEX
  5
899F
  8
0
 10
135.50833469264921
 20
289.39380448322328
 30
0.0
  0
VERTEX
  5
89A0
  8
0
 10
135.501921398034
 20
289.44774627721159
 30
0.0
  0
VERTEX
  5
89A1
  8
0
 10
135.49657028724869
 20
289.50183090568919
 30
0.0
  0
VERTEX
  5
89A2
  8
0
 10
135.49228616123511
 20
289.55602114627789
 30
0.0
  0
VERTEX
  5
89A3
  8
0
 10
135.4905450436251
 20
289.58314772616637
 30
0.0
  0
VERTEX
  5
89A4
  8
0
 10
135.48907157118401
 20
289.61029074139958
 30
0.0
  0
VERTEX
  5
89A5
  8
0
 10
135.4869284331532
 20
289.6646068870931
 30
0.0
  0
VERTEX
  5
89A6
  8
0
 10
135.48585737872821
 20
289.71893111667771
 30
0.0
  0
VERTEX
  5
89A7
  8
0
 10
135.48572359270489
 20
289.74608423327379
 30
0.0
  0
SEQEND
  5
89A8
  8
0
  0
POLYLINE
  5
3C65
  8
0
 66
     1
 10
0.0
 20
0.0
 30
0.0
  0
VERTEX
  5
89A9
  8
0
 10
135.48572359270489
 20
359.25824688870591
 30
0.0
  0
VERTEX
  5
89AA
  8
0
 10
135.48585737872821
 20
359.28540000530199
 30
0.0
  0
VERTEX
  5
89AB
  8
0
 10
135.4869284331532
 20
359.3397242348866
 30
0.0
  0
VERTEX
  5
89AC
  8
0
 10
135.48907157118401
 20
359.39404038058029
 30
0.0
  0
VERTEX
  5
89AD
  8
0
 10
135.4905450436251
 20
359.42118339581327
 30
0.0
  0
VERTEX
  5
89AE
  8
0
 10
135.49228616123511
 20
359.44830997570182
 30
0.0
  0
VERTEX
  5
89AF
  8
0
 10
135.49657028724869
 20
359.50250021629051
 30
0.0
  0
VERTEX
  5
89B0
  8
0
 10
135.501921398034
 20
359.55658484476811
 30
0.0
  0
VERTEX
  5
89B1
  8
0
 10
135.50833469264921
 20
359.61052663875643
 30
0.0
  0
VERTEX
  5
89B2
  8
0
 10
135.5158035566385
 20
359.66428779702039
 30
0.0
  0
VERTEX
  5
89B3
  8
0
 10
135.52431956991111
 20
359.71783047127673
 30
0.0
  0
VERTEX
  5
89B4
  8
0
 10
135.52896713196009
 20
359.74450807982168
 30
0.0
  0
VERTEX
  5
89B5
  8
0
 10
135.53387250572769
 20
359.77111694215239
 30
0.0
  0
VERTEX
  5
89B6
  8
0
 10
135.54445034489501
 20
359.82410979179338
 30
0.0
  0
VERTEX
  5
89B7
  8
0
 10
135.5560393050805
 20
359.87677207360241
 30
0.0
  0
VERTEX
  5
89B8
  8
0
 10
135.5686238853138
 20
359.92906747962149
 30
0.0
  0
VERTEX
  5
89B9
  8
0
 10
135.58218692590179
 20
359.98096050608473
 30
0.0
  0
VERTEX
  5
89BA
  8
0
 10
135.59670966492939
 20
360.03241655201452
 30
0.0
  0
VERTEX
  5
89BB
  8
0
 10
135.60432459408929
 20
360.05797002766627
 30
0.0
  0
VERTEX
  5
89BC
  8
0
 10
135.61217162224901
 20
360.08340144175747
 30
0.0
  0
VERTEX
  5
89BD
  8
0
 10
135.62855044419749
 20
360.13388102390053
 30
0.0
  0
VERTEX
  5
89BE
  8
0
 10
135.6458218877917
 20
360.1838213205225
 30
0.0
  0
VERTEX
  5
89BF
  8
0
 10
135.65478425288211
 20
360.20857871282539
 30
0.0
  0
VERTEX
  5
89C0
  8
0
 10
135.66395983308391
 20
360.23318871639168
 30
0.0
  0
VERTEX
  5
89C1
  8
0
 10
135.6829363111037
 20
360.28195014029842
 30
0.0
  0
VERTEX
  5
89C2
  8
0
 10
135.70272154707141
 20
360.33007323900608
 30
0.0
  0
VERTEX
  5
89C3
  8
0
 10
135.71290766494781
 20
360.35388554361168
 30
0.0
  0
VERTEX
  5
89C4
  8
0
 10
135.72328401878551
 20
360.37752654441908
 30
0.0
  0
VERTEX
  5
89C5
  8
0
 10
135.74459053028929
 20
360.42427963466378
 30
0.0
  0
VERTEX
  5
89C6
  8
0
 10
135.7666247656482
 20
360.47034098834132
 30
0.0
  0
VERTEX
  5
89C7
  8
0
 10
135.78958313278301
 20
360.51613125042002
 30
0.0
  0
VERTEX
  5
89C8
  8
0
 10
135.81352663904161
 20
360.56174379078692
 30
0.0
  0
VERTEX
  5
89C9
  8
0
 10
135.83845247817661
 20
360.60713917991609
 30
0.0
  0
VERTEX
  5
89CA
  8
0
 10
135.8512824595484
 20
360.62974324221852
 30
0.0
  0
VERTEX
  5
89CB
  8
0
 10
135.86435625515779
 20
360.65227844501908
 30
0.0
  0
VERTEX
  5
89CC
  8
0
 10
135.8912320488509
 20
360.69712320385941
 30
0.0
  0
VERTEX
  5
89CD
  8
0
 10
135.91907248569919
 20
360.74163579122222
 30
0.0
  0
VERTEX
  5
89CE
  8
0
 10
135.94786882461901
 20
360.78577937843158
 30
0.0
  0
VERTEX
  5
89CF
  8
0
 10
135.97761105336099
 20
360.82951808614041
 30
0.0
  0
VERTEX
  5
89D0
  8
0
 10
136.0082879966194
 20
360.87281709047642
 30
0.0
  0
VERTEX
  5
89D1
  8
0
 10
136.02397320520271
 20
360.89429113463382
 30
0.0
  0
VERTEX
  5
89D2
  8
0
 10
136.03988743618419
 20
360.91564272246308
 30
0.0
  0
VERTEX
  5
89D3
  8
0
 10
136.07239623285429
 20
360.95796254698882
 30
0.0
  0
VERTEX
  5
89D4
  8
0
 10
136.10580020789641
 20
360.99974512729671
 30
0.0
  0
VERTEX
  5
89D5
  8
0
 10
136.14008380993889
 20
361.04095958848927
 30
0.0
  0
VERTEX
  5
89D6
  8
0
 10
136.17523010773169
 20
361.08157565277531
 30
0.0
  0
VERTEX
  5
89D7
  8
0
 10
136.21122086237821
 20
361.12156376344149
 30
0.0
  0
VERTEX
  5
89D8
  8
0
 10
136.2295268735495
 20
361.14131332538528
 30
0.0
  0
VERTEX
  5
89D9
  8
0
 10
136.24803660828181
 20
361.16089520002708
 30
0.0
  0
VERTEX
  5
89DA
  8
0
 10
136.28565674278661
 20
361.19954218488363
 30
0.0
  0
VERTEX
  5
89DB
  8
0
 10
136.32405962462889
 20
361.23747798131728
 30
0.0
  0
VERTEX
  5
89DC
  8
0
 10
136.3632226813636
 20
361.27467698342792
 30
0.0
  0
VERTEX
  5
89DD
  8
0
 10
136.4031225259678
 20
361.31111479767497
 30
0.0
  0
VERTEX
  5
89DE
  8
0
 10
136.44373512719361
 20
361.34676835426001
 30
0.0
  0
VERTEX
  5
89DF
  8
0
 10
136.4643031670027
 20
361.36429598162539
 30
0.0
  0
VERTEX
  5
89E0
  8
0
 10
136.4850434049583
 20
361.38162213432349
 30
0.0
  0
VERTEX
  5
89E1
  8
0
 10
136.52702776223981
 20
361.41565936787617
 30
0.0
  0
VERTEX
  5
89E2
  8
0
 10
136.56966200199301
 20
361.44885925424632
 30
0.0
  0
VERTEX
  5
89E3
  8
0
 10
136.61291875365441
 20
361.48120186913877
 30
0.0
  0
VERTEX
  5
89E4
  8
0
 10
136.65676956424181
 20
361.51266827742342
 30
0.0
  0
VERTEX
  5
89E5
  8
0
 10
136.70118499672481
 20
361.54324063577798
 30
0.0
  0
VERTEX
  5
89E6
  8
0
 10
136.72359500388049
 20
361.55818629174479
 30
0.0
  0
VERTEX
  5
89E7
  8
0
 10
136.74613473568479
 20
361.57290228536812
 30
0.0
  0
VERTEX
  5
89E8
  8
0
 10
136.79158770037839
 20
361.6016378346838
 30
0.0
  0
VERTEX
  5
89E9
  8
0
 10
136.83751216538141
 20
361.629433232613
 30
0.0
  0
VERTEX
  5
89EA
  8
0
 10
136.8606411514763
 20
361.64297436613163
 30
0.0
  0
VERTEX
  5
89EB
  8
0
 10
136.88387588906761
 20
361.65627583175188
 30
0.0
  0
VERTEX
  5
89EC
  8
0
 10
136.9306462491511
 20
361.68215444130072
 30
0.0
  0
VERTEX
  5
89ED
  8
0
 10
136.9777902134901
 20
361.70705928075779
 30
0.0
  0
VERTEX
  5
89EE
  8
0
 10
137.00149172484771
 20
361.71914379115839
 30
0.0
  0
VERTEX
  5
89EF
  8
0
 10
137.0252738088727
 20
361.73098169744179
 30
0.0
  0
VERTEX
  5
89F0
  8
0
 10
137.07306195957949
 20
361.75391413812503
 30
0.0
  0
VERTEX
  5
89F1
  8
0
 10
137.12111859396319
 20
361.77585026341569
 30
0.0
  0
VERTEX
  5
89F2
  8
0
 10
137.16940676234501
 20
361.79678505230811
 30
0.0
  0
VERTEX
  5
89F3
  8
0
 10
137.217888760367
 20
361.81671489392318
 30
0.0
  0
VERTEX
  5
89F4
  8
0
 10
137.26652625780429
 20
361.8356376666635
 30
0.0
  0
VERTEX
  5
89F5
  8
0
 10
137.29089120243179
 20
361.84472116311429
 30
0.0
  0
VERTEX
  5
89F6
  8
0
 10
137.31528043297681
 20
361.85355280497981
 30
0.0
  0
VERTEX
  5
89F7
  8
0
 10
137.3641121130529
 20
361.87046135388653
 30
0.0
  0
VERTEX
  5
89F8
  8
0
 10
137.4129819206762
 20
361.88636601129718
 30
0.0
  0
VERTEX
  5
89F9
  8
0
 10
137.46205205389739
 20
361.901330609507
 30
0.0
  0
VERTEX
  5
89FA
  8
0
 10
137.51168020400061
 20
361.91545817128929
 30
0.0
  0
VERTEX
  5
89FB
  8
0
 10
137.5618455091728
 20
361.92872556299437
 30
0.0
  0
VERTEX
  5
89FC
  8
0
 10
137.58711970080159
 20
361.93502888152
 30
0.0
  0
VERTEX
  5
89FD
  8
0
 10
137.61251621270981
 20
361.94110797169759
 30
0.0
  0
VERTEX
  5
89FE
  8
0
 10
137.66365983780111
 20
361.95258212247671
 30
0.0
  0
VERTEX
  5
89FF
  8
0
 10
137.71524333649811
 20
361.96312632123102
 30
0.0
  0
VERTEX
  5
8A00
  8
0
 10
137.7672332415595
 20
361.97272048373191
 30
0.0
  0
VERTEX
  5
8A01
  8
0
 10
137.8195958215687
 20
361.98134615089668
 30
0.0
  0
VERTEX
  5
8A02
  8
0
 10
137.8722972396165
 20
361.9889864901412
 30
0.0
  0
VERTEX
  5
8A03
  8
0
 10
137.89876444992021
 20
361.99243234349399
 30
0.0
  0
VERTEX
  5
8A04
  8
0
 10
137.92530371573321
 20
361.99562628254091
 30
0.0
  0
VERTEX
  5
8A05
  8
0
 10
137.9785816928256
 20
362.0012518953842
 30
0.0
  0
VERTEX
  5
8A06
  8
0
 10
138.03209786074029
 20
362.00585122861833
 30
0.0
  0
VERTEX
  5
8A07
  8
0
 10
138.08581856999331
 20
362.0094136281744
 30
0.0
  0
VERTEX
  5
8A08
  8
0
 10
138.13970957949749
 20
362.01192988470518
 30
0.0
  0
VERTEX
  5
8A09
  8
0
 10
138.19373619133049
 20
362.01339227271012
 30
0.0
  0
VERTEX
  5
8A0A
  8
0
 10
138.22078941663329
 20
362.01372626454088
 30
0.0
  0
VERTEX
  5
8A0B
  8
0
 10
138.2478633991384
 20
362.01379457789483
 30
0.0
  0
VERTEX
  5
8A0C
  8
0
 10
138.30205603617401
 20
362.01313211129661
 30
0.0
  0
VERTEX
  5
8A0D
  8
0
 10
138.35627892318479
 20
362.01140171027362
 30
0.0
  0
VERTEX
  5
8A0E
  8
0
 10
138.4104970163387
 20
362.00860172633622
 30
0.0
  0
VERTEX
  5
8A0F
  8
0
 10
138.46467555534349
 20
362.00473199972618
 30
0.0
  0
VERTEX
  5
8A10
  8
0
 10
138.518780211858
 20
361.99979382054119
 30
0.0
  0
VERTEX
  5
8A11
  8
0
 10
138.54579448516299
 20
361.99692482328408
 30
0.0
  0
VERTEX
  5
8A12
  8
0
 10
138.57278108417901
 20
361.99378941007819
 30
0.0
  0
VERTEX
  5
8A13
  8
0
 10
138.6266576151429
 20
361.98672079494321
 30
0.0
  0
VERTEX
  5
8A14
  8
0
 10
138.68037711329291
 20
361.9785923441321
 30
0.0
  0
VERTEX
  5
8A15
  8
0
 10
138.7071673661423
 20
361.97413248795198
 30
0.0
  0
VERTEX
  5
8A16
  8
0
 10
138.7339056142707
 20
361.96941003111181
 30
0.0
  0
VERTEX
  5
8A17
  8
0
 10
138.78720907321869
 20
361.9591813449245
 30
0.0
  0
VERTEX
  5
8A18
  8
0
 10
138.840253516996
 20
361.94791529305451
 30
0.0
  0
VERTEX
  5
8A19
  8
0
 10
138.86666804805819
 20
361.94189648277791
 30
0.0
  0
VERTEX
  5
8A1A
  8
0
 10
138.8930051937439
 20
361.935622391207
 30
0.0
  0
VERTEX
  5
8A1B
  8
0
 10
138.94543071993959
 20
361.92231464006937
 30
0.0
  0
VERTEX
  5
8A1C
  8
0
 10
138.99749722509631
 20
361.90800548903542
 30
0.0
  0
VERTEX
  5
8A1D
  8
0
 10
139.0491724942699
 20
361.8927097867608
 30
0.0
  0
VERTEX
  5
8A1E
  8
0
 10
139.10042510853711
 20
361.87644371833778
 30
0.0
  0
VERTEX
  5
8A1F
  8
0
 10
139.15122452434861
 20
361.85922474949018
 30
0.0
  0
VERTEX
  5
8A20
  8
0
 10
139.1764448687891
 20
361.8502637665257
 30
0.0
  0
VERTEX
  5
8A21
  8
0
 10
139.2015406170301
 20
361.84107176301512
 30
0.0
  0
VERTEX
  5
8A22
  8
0
 10
139.25134328954411
 20
361.82200523345028
 30
0.0
  0
VERTEX
  5
8A23
  8
0
 10
139.3006026007929
 20
361.80204724303178
 30
0.0
  0
VERTEX
  5
8A24
  8
0
 10
139.3492889335148
 20
361.7812214695399
 30
0.0
  0
VERTEX
  5
8A25
  8
0
 10
139.397373155823
 20
361.75955316052313
 30
0.0
  0
VERTEX
  5
8A26
  8
0
 10
139.44482677651351
 20
361.73706909416558
 30
0.0
  0
VERTEX
  5
8A27
  8
0
 10
139.46830841979821
 20
361.7255299260861
 30
0.0
  0
VERTEX
  5
8A28
  8
0
 10
139.49162209436571
 20
361.71379752692923
 30
0.0
  0
VERTEX
  5
8A29
  8
0
 10
139.53773234173099
 20
361.68976812794978
 30
0.0
  0
VERTEX
  5
8A2A
  8
0
 10
139.5831318227647
 20
361.66501190001878
 30
0.0
  0
VERTEX
  5
8A2B
  8
0
 10
139.6055573219212
 20
361.65237125569831
 30
0.0
  0
SEQEND
  5
8A2C
  8
0
  0
ARC
  5
3C66
  8
0
 10
118.435723592705
 20
324.50216556099002
 30
0.0
 40
42.75862068965516
 50
299.67640717263231
 51
60.323592677943189
  0
LINE
  5
3C6F
  8
1
 10
118.435723592705
 20
254.6873646438419
 30
0.0
 11
118.435723592705
 21
394.31696647813811
 31
0.0
  0
LINE
  5
3C70
  8
1
 10
188.25052450985311
 20
324.50216556099002
 30
0.0
 11
48.620922675556919
 21
324.50216556099002
 31
0.0
  0
LINE
  5
3C7D
  8
0
 10
111.6857235927052
 20
110.33143831410629
 30
0.0
 11
111.6857235927052
 21
110.0314383141061
 31
0.0
  0
LINE
  5
3C7E
  8
0
 10
125.1857235927052
 20
110.0314383141061
 30
0.0
 11
125.1857235927052
 21
110.33143831410629
 31
0.0
  0
LINE
  5
3C7F
  8
0
 10
109.4357235927052
 20
131.03143831410611
 30
0.0
 11
109.4357235927052
 21
110.33143831410629
 31
0.0
  0
LINE
  5
3C80
  8
0
 10
127.4357235927052
 20
110.33143831410629
 30
0.0
 11
127.4357235927052
 21
131.03143831410611
 31
0.0
  0
ARC
  5
3C81
  8
0
 10
127.4357235927052
 20
133.03143831410611
 30
0.0
 40
2.0
 50
270.0
 51
0.0
  0
ARC
  5
3C82
  8
0
 10
109.4357235927052
 20
133.03143831410611
 30
0.0
 40
2.000000000000008
 50
180.0
 51
270.0
  0
LINE
  5
3C83
  8
0
 10
107.4357235927052
 20
164.03143831410611
 30
0.0
 11
107.4357235927052
 21
133.03143831410611
 31
0.0
  0
LINE
  5
3C84
  8
0
 10
129.43572359270519
 20
133.03143831410611
 30
0.0
 11
129.43572359270519
 21
164.03143831410611
 31
0.0
  0
ARC
  5
3C85
  8
0
 10
118.4357235927052
 20
164.03143831410611
 30
0.0
 40
10.999999999999989
 50
0.0
 51
180.0
  0
LINE
  5
3C88
  8
0
 10
127.4357235927052
 20
110.33143831410629
 30
0.0
 11
109.4357235927052
 21
110.33143831410629
 31
0.0
  0
LINE
  5
3C89
  8
0
 10
127.4357235927052
 20
131.03143831410611
 30
0.0
 11
109.4357235927052
 21
131.03143831410611
 31
0.0
  0
LINE
  5
3C8A
  8
0
 10
129.43572359270519
 20
133.03143831410611
 30
0.0
 11
107.4357235927052
 21
133.03143831410611
 31
0.0
  0
LINE
  5
3C8B
  8
0
 10
129.43572359270519
 20
164.03143831410611
 30
0.0
 11
107.4357235927052
 21
164.03143831410611
 31
0.0
  0
LINE
  5
3C99
  8
2
 10
112.4357235927053
 20
88.031438314106126
 30
0.0
 11
112.4357235927053
 21
66.03143831410614
 31
0.0
  0
LINE
  5
3C9A
  8
2
 10
124.4357235927052
 20
66.03143831410614
 30
0.0
 11
124.4357235927051
 21
88.031438314106126
 31
0.0
  0
LINE
  5
3C9D
  8
0
 10
107.4357235927052
 20
66.231438314106185
 30
0.0
 11
107.4357235927052
 21
66.03143831410614
 31
0.0
  0
LINE
  5
3C9E
  8
0
 10
129.43572359270519
 20
66.03143831410614
 30
0.0
 11
129.43572359270519
 21
66.231438314106185
 31
0.0
  0
ARC
  5
3C9F
  8
0
 10
133.43572359270519
 20
66.731438314106185
 30
0.0
 40
0.5000000000000006
 50
270.0
 51
0.0
  0
ARC
  5
3CA0
  8
0
 10
103.4357235927052
 20
66.731438314106185
 30
0.0
 40
0.5
 50
180.0
 51
270.0
  0
LINE
  5
3CA1
  8
0
 10
102.9357235927052
 20
69.03143831410614
 30
0.0
 11
102.9357235927052
 21
66.731438314106185
 31
0.0
  0
LINE
  5
3CA2
  8
0
 10
133.93572359270519
 20
66.731438314106185
 30
0.0
 11
133.93572359270519
 21
69.03143831410614
 31
0.0
  0
ARC
  5
3CA3
  8
0
 10
173.1023902593717
 20
95.364771647439625
 30
0.0
 40
7.3333333333333526
 50
270.0
 51
0.0000008537736463
  0
ARC
  5
3CA4
  8
0
 10
63.769056926038502
 20
95.364771647439625
 30
0.0
 40
7.333333333333357
 50
179.99999914622629
 51
270.0
  0
LINE
  5
3CA5
  8
0
 10
56.435723592705251
 20
99.801750033850226
 30
0.0
 11
56.435723592705251
 21
95.364771647439625
 31
0.0
  0
LINE
  5
3CA6
  8
0
 10
180.43572359270519
 20
95.364771647439625
 30
0.0
 11
180.43572359270519
 21
99.801750033850226
 31
0.0
  0
ARC
  5
3CA7
  8
0
 10
158.43572359270451
 20
99.801750033849984
 30
0.0
 40
22.00000000000065
 50
0.0
 51
14.99999999999446
  0
ARC
  5
3CA8
  8
0
 10
78.435723592705699
 20
99.801750033849984
 30
0.0
 40
22.000000000000568
 50
165.00000000000551
 51
180.0
  0
LINE
  5
3CA9
  8
0
 10
57.963766892917867
 20
108.4008402133319
 30
0.0
 11
57.185355414345622
 21
105.49576902610561
 31
0.0
  0
LINE
  5
3CAA
  8
0
 10
179.68609177106461
 20
105.49576902610561
 30
0.0
 11
178.90768029249239
 21
108.4008402133319
 31
0.0
  0
ARC
  5
3CAB
  8
0
 10
176.7826434746564
 20
107.83143831410609
 30
0.0
 40
2.2000000000000242
 50
14.99999999999446
 51
90.0
  0
ARC
  5
3CAC
  8
0
 10
60.088803710753837
 20
107.83143831410609
 30
0.0
 40
2.2000000000000171
 50
90.0
 51
165.00000000000551
  0
ARC
  5
3CBC
  8
0
 10
162.8353802890326
 20
83.631438314106276
 30
0.0
 40
4.3999999999999773
 50
90.0
 51
111.898452886014
  0
ARC
  5
3CBD
  8
0
 10
74.036066896377633
 20
83.631438314106276
 30
0.0
 40
4.4000000000000687
 50
68.101547113985873
 51
90.0
  0
LINE
  5
3CCA
  8
0
 10
129.43572359270519
 20
66.03143831410614
 30
0.0
 11
107.4357235927052
 21
66.03143831410614
 31
0.0
  0
LINE
  5
3CCB
  8
0
 10
133.43572359270519
 20
66.231438314106185
 30
0.0
 11
103.4357235927052
 21
66.231438314106185
 31
0.0
  0
LINE
  5
3CCD
  8
0
 10
173.1023902593717
 20
88.031438314106126
 30
0.0
 11
63.769056926038502
 21
88.031438314106126
 31
0.0
  0
LINE
  5
3CD2
  8
0
 10
176.7826434746566
 20
110.0314383141061
 30
0.0
 11
60.088803710753837
 21
110.0314383141061
 31
0.0
  0
LINE
  5
3CD8
  8
0
 10
134.68572359270519
 20
69.03143831410614
 30
0.0
 11
102.1857235927052
 21
69.03143831410614
 31
0.0
  0
LINE
  5
3CE6
  8
0
 10
138.8055572250191
 20
87.669333083660405
 30
0.0
 11
161.1943442823603
 21
87.713962144386286
 31
0.0
  0
LINE
  5
3D0C
  8
1
 10
118.4357235927052
 20
182.8462392312542
 30
0.0
 11
118.4357235927052
 21
58.216637396958049
 31
0.0
  0
POINT
  5
3D0E
  8
0
 10
118.4357235927052
 20
175.03143831410611
 30
48.0
210
0.0
220
1.0
230
0.0
  0
LINE
  5
3D17
  8
0
 10
326.01157395325271
 20
365.75216556098968
 30
0.0
 11
326.31157395325272
 21
365.75216556098968
 31
0.0
  0
LINE
  5
3D18
  8
0
 10
326.31157395325272
 20
379.25216556098968
 30
0.0
 11
326.01157395325271
 21
379.25216556098968
 31
0.0
  0
LINE
  5
3D19
  8
0
 10
305.31157395325272
 20
363.50216556098968
 30
0.0
 11
326.01157395325271
 21
363.50216556098968
 31
0.0
  0
LINE
  5
3D1A
  8
0
 10
326.01157395325271
 20
381.50216556098968
 30
0.0
 11
305.31157395325272
 21
381.50216556098968
 31
0.0
  0
ARC
  5
3D1B
  8
0
 10
303.31157395325272
 20
381.50216556098968
 30
0.0
 40
2.0
 50
0.0
 51
90.0
  0
ARC
  5
3D1C
  8
0
 10
303.31157395325272
 20
363.50216556098968
 30
0.0
 40
2.0000000000000071
 50
270.0
 51
0.0
  0
LINE
  5
3D1D
  8
0
 10
272.31157395325272
 20
361.50216556098968
 30
0.0
 11
303.31157395325272
 21
361.50216556098968
 31
0.0
  0
LINE
  5
3D1E
  8
0
 10
303.31157395325272
 20
383.50216556098968
 30
0.0
 11
272.31157395325272
 21
383.50216556098968
 31
0.0
  0
ARC
  5
3D1F
  8
0
 10
272.31157395325272
 20
372.50216556098968
 30
0.0
 40
11.0
 50
90.0
 51
270.0
  0
LINE
  5
3D22
  8
0
 10
326.01157395325271
 20
381.50216556098968
 30
0.0
 11
326.01157395325271
 21
363.50216556098968
 31
0.0
  0
LINE
  5
3D23
  8
0
 10
305.31157395325272
 20
381.50216556098968
 30
0.0
 11
305.31157395325272
 21
363.50216556098968
 31
0.0
  0
LINE
  5
3D24
  8
0
 10
303.31157395325272
 20
383.50216556098968
 30
0.0
 11
303.31157395325272
 21
361.50216556098968
 31
0.0
  0
LINE
  5
3D25
  8
0
 10
272.31157395325272
 20
383.50216556098968
 30
0.0
 11
272.31157395325272
 21
361.50216556098968
 31
0.0
  0
LINE
  5
3D2E
  8
1
 10
340.23011180155481
 20
372.50216556098968
 30
0.0
 11
253.49677303610451
 21
372.50216556098968
 31
0.0
  0
LINE
  5
3D36
  8
0
 10
370.11157395325267
 20
313.50216556098968
 30
0.0
 11
370.31157395325272
 21
313.50216556098968
 31
0.0
  0
LINE
  5
3D37
  8
0
 10
370.31157395325272
 20
335.50216556098968
 30
0.0
 11
370.11157395325267
 21
335.50216556098968
 31
0.0
  0
ARC
  5
3D38
  8
0
 10
369.61157395325267
 20
339.50216556098968
 30
0.0
 40
0.4999999999999999
 50
0.0
 51
90.0
  0
ARC
  5
3D39
  8
0
 10
369.61157395325267
 20
309.50216556098968
 30
0.0
 40
0.5000000000000018
 50
270.0
 51
0.0
  0
LINE
  5
3D3A
  8
0
 10
367.31157395325272
 20
309.00216556098979
 30
0.0
 11
369.61157395325267
 21
309.00216556098979
 31
0.0
  0
LINE
  5
3D3B
  8
0
 10
369.61157395325267
 20
340.00216556098979
 30
0.0
 11
367.31157395325272
 21
340.00216556098979
 31
0.0
  0
ARC
  5
3D3C
  8
0
 10
340.97824061991918
 20
379.1688322276562
 30
0.0
 40
7.3333333333333526
 50
0.0
 51
90.000000853773614
  0
ARC
  5
3D3D
  8
0
 10
340.97824061991918
 20
269.835498894323
 30
0.0
 40
7.333333333333357
 50
269.99999914622629
 51
0.0
  0
LINE
  5
3D3E
  8
0
 10
336.54126223350858
 20
262.50216556098968
 30
0.0
 11
340.97824061991918
 21
262.50216556098968
 31
0.0
  0
LINE
  5
3D3F
  8
0
 10
340.97824061991918
 20
386.50216556098968
 30
0.0
 11
336.54126223350858
 21
386.50216556098968
 31
0.0
  0
ARC
  5
3D40
  8
0
 10
336.54126223350892
 20
364.50216556098911
 30
0.0
 40
22.00000000000065
 50
90.0
 51
104.9999999999944
  0
ARC
  5
3D41
  8
0
 10
336.54126223350858
 20
284.5021655609886
 30
0.0
 40
21.999999999998959
 50
255.00000000000551
 51
270.0
  0
LINE
  5
3D42
  8
0
 10
327.9421720540272
 20
264.03020886120242
 30
0.0
 11
330.84724324125318
 21
263.25179738263012
 31
0.0
  0
LINE
  5
3D43
  8
0
 10
330.84724324125318
 20
385.75253373934908
 30
0.0
 11
327.9421720540272
 21
384.97412226077711
 31
0.0
  0
ARC
  5
3D44
  8
0
 10
328.51157395325282
 20
382.8490854429412
 30
0.0
 40
2.200000000000025
 50
104.9999999999944
 51
180.0
  0
ARC
  5
3D45
  8
0
 10
328.51157395325282
 20
266.15524567903827
 30
0.0
 40
2.2000000000000242
 50
180.0
 51
255.00000000000551
  0
LINE
  5
3D4C
  8
0
 10
348.31157395325272
 20
281.31413137295539
 30
0.0
 11
367.31157395325272
 21
309.00216556098979
 31
0.0
  0
LINE
  5
3D4D
  8
0
 10
367.31157395325272
 20
340.00216556098979
 30
0.0
 11
348.31157395325272
 21
367.69019974902352
 31
0.0
  0
LINE
  5
3D5C
  8
0
 10
370.31157395325272
 20
335.50216556098968
 30
0.0
 11
370.31157395325272
 21
313.50216556098968
 31
0.0
  0
LINE
  5
3D5D
  8
0
 10
370.11157395325267
 20
339.50216556098968
 30
0.0
 11
370.11157395325267
 21
309.50216556098968
 31
0.0
  0
LINE
  5
3D5F
  8
0
 10
348.31157395325272
 20
379.1688322276562
 30
0.0
 11
348.31157395325272
 21
269.835498894323
 31
0.0
  0
LINE
  5
3D64
  8
0
 10
326.31157395325272
 20
382.8490854429412
 30
0.0
 11
326.31157395325272
 21
266.15524567903827
 31
0.0
  0
LINE
  5
3D6A
  8
0
 10
367.31157395325272
 20
340.00216556098979
 30
0.0
 11
367.31157395325272
 21
309.00216556098979
 31
0.0
  0
POLYLINE
  5
3D81
  8
0
 66
     1
 10
0.0
 20
0.0
 30
0.0
  0
VERTEX
  5
8A2D
  8
0
 10
348.31157395325272
 20
364.30559013243209
 30
0.0
  0
VERTEX
  5
8A2E
  8
0
 10
353.11243750477553
 20
355.21937230631909
 30
0.0
  0
VERTEX
  5
8A2F
  8
0
 10
356.3802978617453
 20
348.75734728870441
 30
0.0
  0
VERTEX
  5
8A30
  8
0
 10
358.72370944118848
 20
343.7531605241864
 30
0.0
  0
VERTEX
  5
8A31
  8
0
 10
359.64706723527911
 20
341.62848286478282
 30
0.0
  0
VERTEX
  5
8A32
  8
0
 10
360.43936900543582
 20
339.69487712194763
 30
0.0
  0
VERTEX
  5
8A33
  8
0
 10
361.7020036206755
 20
336.27226574012718
 30
0.0
  0
VERTEX
  5
8A34
  8
0
 10
362.61946627512538
 20
333.28351712050511
 30
0.0
  0
VERTEX
  5
8A35
  8
0
 10
363.02352571913838
 20
331.68300182928567
 30
0.0
  0
VERTEX
  5
8A36
  8
0
 10
363.12309933332131
 20
331.24084627624308
 30
0.0
  0
VERTEX
  5
8A37
  8
0
 10
363.2159643994878
 20
330.80456194501232
 30
0.0
  0
VERTEX
  5
8A38
  8
0
 10
363.25993321388069
 20
330.58848456911721
 30
0.0
  0
VERTEX
  5
8A39
  8
0
 10
363.30228555987861
 20
330.37371278939997
 30
0.0
  0
VERTEX
  5
8A3A
  8
0
 10
363.38221394717038
 20
329.94787905126589
 30
0.0
  0
VERTEX
  5
8A3B
  8
0
 10
363.45588787143652
 20
329.52665578588977
 30
0.0
  0
VERTEX
  5
8A3C
  8
0
 10
363.52343343873167
 20
329.10965148240581
 30
0.0
  0
VERTEX
  5
8A3D
  8
0
 10
363.58496510662258
 20
328.69648676894337
 30
0.0
  0
VERTEX
  5
8A3E
  8
0
 10
363.64058618135959
 20
328.28679319306792
 30
0.0
  0
VERTEX
  5
8A3F
  8
0
 10
363.66620959036783
 20
328.08313564117373
 30
0.0
  0
VERTEX
  5
8A40
  8
0
 10
363.6903892608172
 20
327.88021206892728
 30
0.0
  0
VERTEX
  5
8A41
  8
0
 10
363.73445662682229
 20
327.47639338322381
 30
0.0
  0
VERTEX
  5
8A42
  8
0
 10
363.77286059002449
 20
327.07499475275642
 30
0.0
  0
VERTEX
  5
8A43
  8
0
 10
363.80566379004972
 20
326.67568042680188
 30
0.0
  0
VERTEX
  5
8A44
  8
0
 10
363.83291945328659
 20
326.27812032807338
 30
0.0
  0
VERTEX
  5
8A45
  8
0
 10
363.85467161030721
 20
325.88198912637051
 30
0.0
  0
VERTEX
  5
8A46
  8
0
 10
363.8634951638121
 20
325.6843587724876
 30
0.0
  0
VERTEX
  5
8A47
  8
0
 10
363.87095527458928
 20
325.48696533937198
 30
0.0
  0
VERTEX
  5
8A48
  8
0
 10
363.88179658390459
 20
325.0927304552809
 30
0.0
  0
VERTEX
  5
8A49
  8
0
 10
363.8872129054389
 20
324.6989680722549
 30
0.0
  0
VERTEX
  5
8A4A
  8
0
 10
363.88788974268442
 20
324.50216556098042
 30
0.0
  0
VERTEX
  5
8A4B
  8
0
 10
363.88721290543822
 20
324.30536304970582
 30
0.0
  0
VERTEX
  5
8A4C
  8
0
 10
363.88179658390283
 20
323.91160066667959
 30
0.0
  0
VERTEX
  5
8A4D
  8
0
 10
363.87095527458632
 20
323.51736578258863
 30
0.0
  0
VERTEX
  5
8A4E
  8
0
 10
363.86349516380852
 20
323.31997234947301
 30
0.0
  0
VERTEX
  5
8A4F
  8
0
 10
363.85467161030277
 20
323.12234199558992
 30
0.0
  0
VERTEX
  5
8A50
  8
0
 10
363.83291945328119
 20
322.72621079388688
 30
0.0
  0
VERTEX
  5
8A51
  8
0
 10
363.80566379004313
 20
322.32865069515822
 30
0.0
  0
VERTEX
  5
8A52
  8
0
 10
363.77286059001648
 20
321.9293363692035
 30
0.0
  0
VERTEX
  5
8A53
  8
0
 10
363.7344566268132
 20
321.52793773873572
 30
0.0
  0
VERTEX
  5
8A54
  8
0
 10
363.69038926080702
 20
321.1241190530319
 30
0.0
  0
VERTEX
  5
8A55
  8
0
 10
363.66620959035708
 20
320.92119548078551
 30
0.0
  0
VERTEX
  5
8A56
  8
0
 10
363.64058618134823
 20
320.71753792889092
 30
0.0
  0
VERTEX
  5
8A57
  8
0
 10
363.58496510661013
 20
320.30784435301518
 30
0.0
  0
VERTEX
  5
8A58
  8
0
 10
363.5234334387178
 20
319.89467963955218
 30
0.0
  0
VERTEX
  5
8A59
  8
0
 10
363.45588787142151
 20
319.47767533606782
 30
0.0
  0
VERTEX
  5
8A5A
  8
0
 10
363.3822139471543
 20
319.05645207069131
 30
0.0
  0
VERTEX
  5
8A5B
  8
0
 10
363.3022855598615
 20
318.63061833255648
 30
0.0
  0
VERTEX
  5
8A5C
  8
0
 10
363.25993321386289
 20
318.4158465528393
 30
0.0
  0
VERTEX
  5
8A5D
  8
0
 10
363.21596439946939
 20
318.1997691769439
 30
0.0
  0
VERTEX
  5
8A5E
  8
0
 10
363.12309933330181
 20
317.7634848457123
 30
0.0
  0
VERTEX
  5
8A5F
  8
0
 10
363.0235257191178
 20
317.3213292926693
 30
0.0
  0
VERTEX
  5
8A60
  8
0
 10
362.6194662751011
 20
315.72081400144759
 30
0.0
  0
VERTEX
  5
8A61
  8
0
 10
361.70200362064543
 20
312.73206538182092
 30
0.0
  0
VERTEX
  5
8A62
  8
0
 10
360.43936900540137
 20
309.30945399999621
 30
0.0
  0
VERTEX
  5
8A63
  8
0
 10
359.64706723524392
 20
307.37584825715942
 30
0.0
  0
VERTEX
  5
8A64
  8
0
 10
358.72370944115301
 20
305.25117059775482
 30
0.0
  0
VERTEX
  5
8A65
  8
0
 10
356.3802978617141
 20
300.24698383323999
 30
0.0
  0
VERTEX
  5
8A66
  8
0
 10
353.11243750476001
 20
293.78495881564169
 30
0.0
  0
VERTEX
  5
8A67
  8
0
 10
348.31157395325272
 20
284.69874098953409
 30
0.0
  0
SEQEND
  5
8A68
  8
0
  0
LINE
  5
3D9F
  8
1
 10
318.49677303610451
 20
324.50216556098968
 30
0.0
 11
378.12637487040092
 21
324.50216556098968
 31
0.0
  0
POINT
  5
3DA2
  8
0
 10
261.31157395325272
 20
372.50216556098968
 30
-0.0000000000000098
210
-1.0
220
0.0000000000000001
230
0.0
  0
LINE
  5
4675
  8
0
 10
134.6857235926868
 20
85.319956369761314
 30
0.0
 11
134.68572359270519
 21
69.03143831410614
 31
0.0
  0
POLYLINE
  5
4FB2
  8
0
 66
     1
 10
0.0
 20
0.0
 30
0.0
  0
VERTEX
  5
8A69
  8
0
 10
134.68572359268609
 20
85.319956369755076
 30
0.0
  0
VERTEX
  5
8A6A
  8
0
 10
134.68578302930609
 20
85.329655483322028
 30
0.0
  0
VERTEX
  5
8A6B
  8
0
 10
134.68625812085591
 20
85.349137820596013
 30
0.0
  0
VERTEX
  5
8A6C
  8
0
 10
134.68720713874021
 20
85.368727405610059
 30
0.0
  0
VERTEX
  5
8A6D
  8
0
 10
134.6878589205626
 20
85.378560566512931
 30
0.0
  0
VERTEX
  5
8A6E
  8
0
 10
134.68862861117171
 20
85.388418314072112
 30
0.0
  0
VERTEX
  5
8A6F
  8
0
 10
134.69052079946431
 20
85.408204577171489
 30
0.0
  0
VERTEX
  5
8A70
  8
0
 10
134.69288175551679
 20
85.42808062042576
 30
0.0
  0
VERTEX
  5
8A71
  8
0
 10
134.70480616114179
 20
85.498286530444545
 30
0.0
  0
VERTEX
  5
8A72
  8
0
 10
134.7382015850327
 20
85.620350222803765
 30
0.0
  0
VERTEX
  5
8A73
  8
0
 10
134.76081703299781
 20
85.681840902744085
 30
0.0
  0
VERTEX
  5
8A74
  8
0
 10
134.7872009994573
 20
85.743409961441472
 30
0.0
  0
VERTEX
  5
8A75
  8
0
 10
134.85061820227969
 20
85.866099413479674
 30
0.0
  0
VERTEX
  5
8A76
  8
0
 10
134.92691401369501
 20
85.987028350877921
 30
0.0
  0
VERTEX
  5
8A77
  8
0
 10
135.0152761336131
 20
86.106164994467292
 30
0.0
  0
VERTEX
  5
8A78
  8
0
 10
135.11866667837771
 20
86.227400776421078
 30
0.0
  0
VERTEX
  5
8A79
  8
0
 10
135.23723734069861
 20
86.349954232307226
 30
0.0
  0
VERTEX
  5
8A7A
  8
0
 10
135.3020723087584
 20
86.411330429914585
 30
0.0
  0
VERTEX
  5
8A7B
  8
0
 10
135.37049776486779
 20
86.472568709335647
 30
0.0
  0
VERTEX
  5
8A7C
  8
0
 10
135.5176834340607
 20
86.594025766883618
 30
0.0
  0
VERTEX
  5
8A7D
  8
0
 10
135.60957033854891
 20
86.663868236779365
 30
0.0
  0
VERTEX
  5
8A7E
  8
0
 10
135.63659721132339
 20
86.683645367131078
 30
0.0
  0
VERTEX
  5
8A7F
  8
0
 10
135.66396033062901
 20
86.703336384352994
 30
0.0
  0
VERTEX
  5
8A80
  8
0
 10
135.6777664259551
 20
86.713148242580729
 30
0.0
  0
VERTEX
  5
8A81
  8
0
 10
135.69165452307121
 20
86.722936823522133
 30
0.0
  0
VERTEX
  5
8A82
  8
0
 10
135.71967357321529
 20
86.742441627778391
 30
0.0
  0
VERTEX
  5
8A83
  8
0
 10
135.74801104639329
 20
86.761845758207528
 30
0.0
  0
VERTEX
  5
8A84
  8
0
 10
135.77666029578799
 20
86.781144201273037
 30
0.0
  0
VERTEX
  5
8A85
  8
0
 10
135.80561447008159
 20
86.800331976155135
 30
0.0
  0
VERTEX
  5
8A86
  8
0
 10
135.83486652168619
 20
86.819404142008551
 30
0.0
  0
VERTEX
  5
8A87
  8
0
 10
135.84960199760471
 20
86.828895340234766
 30
0.0
  0
VERTEX
  5
8A88
  8
0
 10
135.86440921558739
 20
86.838355805144573
 30
0.0
  0
VERTEX
  5
8A89
  8
0
 10
135.89423513882599
 20
86.857182126148643
 30
0.0
  0
VERTEX
  5
8A8A
  8
0
 10
135.9243367106495
 20
86.87587832693788
 30
0.0
  0
VERTEX
  5
8A8B
  8
0
 10
135.9547061933643
 20
86.894439697767368
 30
0.0
  0
VERTEX
  5
8A8C
  8
0
 10
135.9853357039261
 20
86.912861604186816
 30
0.0
  0
VERTEX
  5
8A8D
  8
0
 10
136.0162172263023
 20
86.931139493953566
 30
0.0
  0
VERTEX
  5
8A8E
  8
0
 10
136.0317499537708
 20
86.940223034186957
 30
0.0
  0
VERTEX
  5
8A8F
  8
0
 10
136.0473426246439
 20
86.949268903904013
 30
0.0
  0
VERTEX
  5
8A90
  8
0
 10
136.07870365730969
 20
86.967245466781037
 30
0.0
  0
VERTEX
  5
8A91
  8
0
 10
136.11029199180871
 20
86.985064918036528
 30
0.0
  0
VERTEX
  5
8A92
  8
0
 10
136.1420991999471
 20
87.002723091170154
 30
0.0
  0
VERTEX
  5
8A93
  8
0
 10
136.1741166695106
 20
87.020215868335612
 30
0.0
  0
VERTEX
  5
8A94
  8
0
 10
136.20633556395271
 20
87.037539161344569
 30
0.0
  0
VERTEX
  5
8A95
  8
0
 10
136.22251772464031
 20
87.046135983893748
 30
0.0
  0
VERTEX
  5
8A96
  8
0
 10
136.23874683031721
 20
87.054688920081674
 30
0.0
  0
VERTEX
  5
8A97
  8
0
 10
136.27134120920459
 20
87.071661141552624
 30
0.0
  0
VERTEX
  5
8A98
  8
0
 10
136.3041092454466
 20
87.088451878791858
 30
0.0
  0
VERTEX
  5
8A99
  8
0
 10
136.32055537959781
 20
87.09677797488078
 30
0.0
  0
VERTEX
  5
8A9A
  8
0
 10
136.33704129951821
 20
87.105057249638804
 30
0.0
  0
VERTEX
  5
8A9B
  8
0
 10
136.37012755970949
 20
87.121473445380175
 30
0.0
  0
VERTEX
  5
8A9C
  8
0
 10
136.4033580550913
 20
87.137696739262765
 30
0.0
  0
VERTEX
  5
8A9D
  8
0
 10
136.42002423490311
 20
87.14573490787302
 30
0.0
  0
VERTEX
  5
8A9E
  8
0
 10
136.43672266930659
 20
87.153723494875734
 30
0.0
  0
VERTEX
  5
8A9F
  8
0
 10
136.47021115522691
 20
87.169550174404975
 30
0.0
  0
VERTEX
  5
8AA0
  8
0
 10
136.503813150513
 20
87.185173346756514
 30
0.0
  0
VERTEX
  5
8AA1
  8
0
 10
136.53751819412281
 20
87.200589695546512
 30
0.0
  0
VERTEX
  5
8AA2
  8
0
 10
136.57131574381441
 20
87.215796026959595
 30
0.0
  0
VERTEX
  5
8AA3
  8
0
 10
136.6051951946915
 20
87.230789277462165
 30
0.0
  0
VERTEX
  5
8AA4
  8
0
 10
136.62216231469139
 20
87.238205080976201
 30
0.0
  0
VERTEX
  5
8AA5
  8
0
 10
136.6391841812308
 20
87.245583045399727
 30
0.0
  0
VERTEX
  5
8AA6
  8
0
 10
136.67349503060041
 20
87.260268371714929
 30
0.0
  0
VERTEX
  5
8AA7
  8
0
 10
136.70815277358031
 20
87.274851927340137
 30
0.0
  0
VERTEX
  5
8AA8
  8
0
 10
136.7431460728645
 20
87.289324675782709
 30
0.0
  0
VERTEX
  5
8AA9
  8
0
 10
136.77846335858189
 20
87.303677733724356
 30
0.0
  0
VERTEX
  5
8AAA
  8
0
 10
136.81409285514439
 20
87.317902382991036
 30
0.0
  0
VERTEX
  5
8AAB
  8
0
 10
136.8320209533309
 20
87.324963877945791
 30
0.0
  0
VERTEX
  5
8AAC
  8
0
 10
136.85002260966721
 20
87.331990082085952
 30
0.0
  0
VERTEX
  5
8AAD
  8
0
 10
136.88624052205401
 20
87.345932477266899
 30
0.0
  0
VERTEX
  5
8AAE
  8
0
 10
136.9227343768344
 20
87.359721413144854
 30
0.0
  0
VERTEX
  5
8AAF
  8
0
 10
136.94108094198501
 20
87.366555842015742
 30
0.0
  0
VERTEX
  5
8AB0
  8
0
 10
136.9981211506975
 20
87.387172723022559
 30
0.0
  0
VERTEX
  5
8AB1
  8
0
 10
137.1133630030543
 20
87.425749180622645
 30
0.0
  0
VERTEX
  5
8AB2
  8
0
 10
137.2299819036642
 20
87.460926815716135
 30
0.0
  0
VERTEX
  5
8AB3
  8
0
 10
137.28874364180831
 20
87.477293509421216
 30
0.0
  0
VERTEX
  5
8AB4
  8
0
 10
137.30838712113569
 20
87.482571845675352
 30
0.0
  0
VERTEX
  5
8AB5
  8
0
 10
137.3477594605489
 20
87.492868977914327
 30
0.0
  0
VERTEX
  5
8AB6
  8
0
 10
137.38723940193501
 20
87.502824846075413
 30
0.0
  0
VERTEX
  5
8AB7
  8
0
 10
137.4070173909839
 20
87.507676574742248
 30
0.0
  0
VERTEX
  5
8AB8
  8
0
 10
137.4268212105288
 20
87.512445506097578
 30
0.0
  0
VERTEX
  5
8AB9
  8
0
 10
137.466497470907
 20
87.521736436869844
 30
0.0
  0
VERTEX
  5
8ABA
  8
0
 10
137.50625906716471
 20
87.530702607039814
 30
0.0
  0
VERTEX
  5
8ABB
  8
0
 10
137.52616956462759
 20
87.535065556200649
 30
0.0
  0
VERTEX
  5
8ABC
  8
0
 10
137.5460986384399
 20
87.539349277096363
 30
0.0
  0
VERTEX
  5
8ABD
  8
0
 10
137.58600885843171
 20
87.547681567549063
 30
0.0
  0
VERTEX
  5
8ABE
  8
0
 10
137.62598243505531
 20
87.555704452991904
 30
0.0
  0
VERTEX
  5
8ABF
  8
0
 10
137.6660121095789
 20
87.563422756059254
 30
0.0
  0
VERTEX
  5
8AC0
  8
0
 10
137.706090655227
 20
87.570841141262662
 30
0.0
  0
VERTEX
  5
8AC1
  8
0
 10
137.74621087524761
 20
87.577964108708514
 30
0.0
  0
VERTEX
  5
8AC2
  8
0
 10
137.7662833408834
 20
87.581415995136879
 30
0.0
  0
VERTEX
  5
8AC3
  8
0
 10
137.78634937380181
 20
87.584793286130378
 30
0.0
  0
VERTEX
  5
8AC4
  8
0
 10
137.82644595407709
 20
87.591324723269906
 30
0.0
  0
VERTEX
  5
8AC5
  8
0
 10
137.86648800849909
 20
87.597563009793603
 30
0.0
  0
VERTEX
  5
8AC6
  8
0
 10
137.9064669277752
 20
87.603513221751314
 30
0.0
  0
VERTEX
  5
8AC7
  8
0
 10
137.94637415317311
 20
87.609180232555786
 30
0.0
  0
VERTEX
  5
8AC8
  8
0
 10
137.98620117570181
 20
87.614568710036892
 30
0.0
  0
VERTEX
  5
8AC9
  8
0
 10
138.00608196521759
 20
87.617159900544806
 30
0.0
  0
VERTEX
  5
8ACA
  8
0
 10
138.02593953523771
 20
87.619683113519685
 30
0.0
  0
VERTEX
  5
8ACB
  8
0
 10
138.06558081960611
 20
87.624527690911989
 30
0.0
  0
VERTEX
  5
8ACC
  8
0
 10
138.1051166636307
 20
87.629106475797059
 30
0.0
  0
VERTEX
  5
8ACD
  8
0
 10
138.12484244400929
 20
87.631297397223349
 30
0.0
  0
VERTEX
  5
8ACE
  8
0
 10
138.16408016299579
 20
87.635471735176935
 30
0.0
  0
VERTEX
  5
8ACF
  8
0
 10
138.24217147713259
 20
87.643058480189211
 30
0.0
  0
VERTEX
  5
8AD0
  8
0
 10
138.31969662895489
 20
87.649649727835111
 30
0.0
  0
VERTEX
  5
8AD1
  8
0
 10
138.35822679883239
 20
87.652578839884384
 30
0.0
  0
VERTEX
  5
8AD2
  8
0
 10
138.43515250960399
 20
87.657738219589135
 30
0.0
  0
VERTEX
  5
8AD3
  8
0
 10
138.58635605971111
 20
87.665179047978086
 30
0.0
  0
VERTEX
  5
8AD4
  8
0
 10
138.73358646689121
 20
87.668872414637292
 30
0.0
  0
VERTEX
  5
8AD5
  8
0
 10
138.8055572250191
 20
87.669333083660405
 30
0.0
  0
SEQEND
  5
8AD6
  8
0
  0
LINE
  5
6176
  8
2
 10
131.4357235927051
 20
91.03143831410614
 30
0.0
 11
105.4357235927054
 21
91.031438314108229
 31
0.0
  0
LINE
  5
61BA
  8
0
 10
98.065889960391246
 20
87.669333083661996
 30
0.0
 11
75.677102903050013
 21
87.713962144389626
 31
0.0
  0
LINE
  5
61BB
  8
0
 10
102.18572359272331
 20
85.319956369762579
 30
0.0
 11
102.18572359270389
 21
69.031438314107405
 31
0.0
  0
POLYLINE
  5
61BC
  8
0
 66
     1
 10
0.0
 20
0.0
 30
0.0
  0
VERTEX
  5
8AD7
  8
0
 10
102.185723592724
 20
85.319956369756355
 30
0.0
  0
VERTEX
  5
8AD8
  8
0
 10
102.185664156104
 20
85.329655483323307
 30
0.0
  0
VERTEX
  5
8AD9
  8
0
 10
102.18518906455419
 20
85.349137820597306
 30
0.0
  0
VERTEX
  5
8ADA
  8
0
 10
102.1842400466699
 20
85.368727405611338
 30
0.0
  0
VERTEX
  5
8ADB
  8
0
 10
102.1835882648475
 20
85.378560566514196
 30
0.0
  0
VERTEX
  5
8ADC
  8
0
 10
102.1828185742384
 20
85.388418314073377
 30
0.0
  0
VERTEX
  5
8ADD
  8
0
 10
102.1809263859458
 20
85.408204577172754
 30
0.0
  0
VERTEX
  5
8ADE
  8
0
 10
102.1785654298933
 20
85.428080620427025
 30
0.0
  0
VERTEX
  5
8ADF
  8
0
 10
102.1666410242683
 20
85.49828653044581
 30
0.0
  0
VERTEX
  5
8AE0
  8
0
 10
102.13324560037741
 20
85.620350222805016
 30
0.0
  0
VERTEX
  5
8AE1
  8
0
 10
102.1106301524123
 20
85.681840902745364
 30
0.0
  0
VERTEX
  5
8AE2
  8
0
 10
102.08424618595279
 20
85.743409961442737
 30
0.0
  0
VERTEX
  5
8AE3
  8
0
 10
102.0208289831305
 20
85.866099413480953
 30
0.0
  0
VERTEX
  5
8AE4
  8
0
 10
101.94453317171519
 20
85.987028350879186
 30
0.0
  0
VERTEX
  5
8AE5
  8
0
 10
101.85617105179711
 20
86.106164994468585
 30
0.0
  0
VERTEX
  5
8AE6
  8
0
 10
101.7527805070325
 20
86.227400776422371
 30
0.0
  0
VERTEX
  5
8AE7
  8
0
 10
101.63420984471161
 20
86.349954232308534
 30
0.0
  0
VERTEX
  5
8AE8
  8
0
 10
101.56937487665181
 20
86.411330429915907
 30
0.0
  0
VERTEX
  5
8AE9
  8
0
 10
101.5009494205423
 20
86.472568709336997
 30
0.0
  0
VERTEX
  5
8AEA
  8
0
 10
101.3537637513495
 20
86.594025766884954
 30
0.0
  0
VERTEX
  5
8AEB
  8
0
 10
101.2618768468613
 20
86.663868236780701
 30
0.0
  0
VERTEX
  5
8AEC
  8
0
 10
101.2348499740868
 20
86.683645367132414
 30
0.0
  0
VERTEX
  5
8AED
  8
0
 10
101.20748685478119
 20
86.703336384354344
 30
0.0
  0
VERTEX
  5
8AEE
  8
0
 10
101.19368075945511
 20
86.713148242582079
 30
0.0
  0
VERTEX
  5
8AEF
  8
0
 10
101.179792662339
 20
86.722936823523483
 30
0.0
  0
VERTEX
  5
8AF0
  8
0
 10
101.1517736121949
 20
86.742441627779726
 30
0.0
  0
VERTEX
  5
8AF1
  8
0
 10
101.1234361390169
 20
86.761845758208878
 30
0.0
  0
VERTEX
  5
8AF2
  8
0
 10
101.0947868896222
 20
86.781144201274387
 30
0.0
  0
VERTEX
  5
8AF3
  8
0
 10
101.0658327153286
 20
86.800331976156457
 30
0.0
  0
VERTEX
  5
8AF4
  8
0
 10
101.036580663724
 20
86.819404142009915
 30
0.0
  0
VERTEX
  5
8AF5
  8
0
 10
101.0218451878055
 20
86.828895340236144
 30
0.0
  0
VERTEX
  5
8AF6
  8
0
 10
101.0070379698228
 20
86.838355805145937
 30
0.0
  0
VERTEX
  5
8AF7
  8
0
 10
100.9772120465842
 20
86.857182126149993
 30
0.0
  0
VERTEX
  5
8AF8
  8
0
 10
100.94711047476071
 20
86.875878326939244
 30
0.0
  0
VERTEX
  5
8AF9
  8
0
 10
100.9167409920459
 20
86.894439697768746
 30
0.0
  0
VERTEX
  5
8AFA
  8
0
 10
100.88611148148409
 20
86.912861604188194
 30
0.0
  0
VERTEX
  5
8AFB
  8
0
 10
100.855229959108
 20
86.931139493954944
 30
0.0
  0
VERTEX
  5
8AFC
  8
0
 10
100.83969723163941
 20
86.940223034188335
 30
0.0
  0
VERTEX
  5
8AFD
  8
0
 10
100.8241045607664
 20
86.949268903905377
 30
0.0
  0
VERTEX
  5
8AFE
  8
0
 10
100.7927435281005
 20
86.967245466782416
 30
0.0
  0
VERTEX
  5
8AFF
  8
0
 10
100.7611551936015
 20
86.985064918037878
 30
0.0
  0
VERTEX
  5
8B00
  8
0
 10
100.72934798546309
 20
87.002723091171561
 30
0.0
  0
VERTEX
  5
8B01
  8
0
 10
100.69733051589969
 20
87.020215868337004
 30
0.0
  0
VERTEX
  5
8B02
  8
0
 10
100.6651116214575
 20
87.037539161345961
 30
0.0
  0
VERTEX
  5
8B03
  8
0
 10
100.64892946076991
 20
87.046135983895141
 30
0.0
  0
VERTEX
  5
8B04
  8
0
 10
100.63270035509299
 20
87.054688920083066
 30
0.0
  0
VERTEX
  5
8B05
  8
0
 10
100.6001059762057
 20
87.071661141554003
 30
0.0
  0
VERTEX
  5
8B06
  8
0
 10
100.56733793996359
 20
87.088451878793236
 30
0.0
  0
VERTEX
  5
8B07
  8
0
 10
100.5508918058124
 20
87.096777974882158
 30
0.0
  0
VERTEX
  5
8B08
  8
0
 10
100.534405885892
 20
87.105057249640197
 30
0.0
  0
VERTEX
  5
8B09
  8
0
 10
100.5013196257007
 20
87.121473445381568
 30
0.0
  0
VERTEX
  5
8B0A
  8
0
 10
100.4680891303189
 20
87.137696739264157
 30
0.0
  0
VERTEX
  5
8B0B
  8
0
 10
100.45142295050709
 20
87.145734907874413
 30
0.0
  0
VERTEX
  5
8B0C
  8
0
 10
100.4347245161036
 20
87.153723494877127
 30
0.0
  0
VERTEX
  5
8B0D
  8
0
 10
100.4012360301833
 20
87.169550174406396
 30
0.0
  0
VERTEX
  5
8B0E
  8
0
 10
100.36763403489719
 20
87.185173346757892
 30
0.0
  0
VERTEX
  5
8B0F
  8
0
 10
100.33392899128739
 20
87.200589695547933
 30
0.0
  0
VERTEX
  5
8B10
  8
0
 10
100.30013144159579
 20
87.215796026961016
 30
0.0
  0
VERTEX
  5
8B11
  8
0
 10
100.2662519907187
 20
87.230789277463572
 30
0.0
  0
VERTEX
  5
8B12
  8
0
 10
100.2492848707188
 20
87.238205080977622
 30
0.0
  0
VERTEX
  5
8B13
  8
0
 10
100.2322630041794
 20
87.245583045401148
 30
0.0
  0
VERTEX
  5
8B14
  8
0
 10
100.1979521548098
 20
87.260268371716364
 30
0.0
  0
VERTEX
  5
8B15
  8
0
 10
100.1632944118299
 20
87.274851927341544
 30
0.0
  0
VERTEX
  5
8B16
  8
0
 10
100.1283011125458
 20
87.289324675784144
 30
0.0
  0
VERTEX
  5
8B17
  8
0
 10
100.0929838268284
 20
87.303677733725792
 30
0.0
  0
VERTEX
  5
8B18
  8
0
 10
100.05735433026599
 20
87.317902382992443
 30
0.0
  0
VERTEX
  5
8B19
  8
0
 10
100.03942623207941
 20
87.324963877947226
 30
0.0
  0
VERTEX
  5
8B1A
  8
0
 10
100.0214245757431
 20
87.331990082087415
 30
0.0
  0
VERTEX
  5
8B1B
  8
0
 10
99.985206663356394
 20
87.345932477268335
 30
0.0
  0
VERTEX
  5
8B1C
  8
0
 10
99.948712808575934
 20
87.359721413146303
 30
0.0
  0
VERTEX
  5
8B1D
  8
0
 10
99.930366243425397
 20
87.366555842017178
 30
0.0
  0
VERTEX
  5
8B1E
  8
0
 10
99.873326034712818
 20
87.387172723023994
 30
0.0
  0
VERTEX
  5
8B1F
  8
0
 10
99.758084182356015
 20
87.425749180624109
 30
0.0
  0
VERTEX
  5
8B20
  8
0
 10
99.641465281746164
 20
87.460926815717613
 30
0.0
  0
VERTEX
  5
8B21
  8
0
 10
99.582703543602065
 20
87.47729350942268
 30
0.0
  0
VERTEX
  5
8B22
  8
0
 10
99.563060064274623
 20
87.482571845676816
 30
0.0
  0
VERTEX
  5
8B23
  8
0
 10
99.523687724861475
 20
87.492868977915791
 30
0.0
  0
VERTEX
  5
8B24
  8
0
 10
99.484207783475327
 20
87.502824846076891
 30
0.0
  0
VERTEX
  5
8B25
  8
0
 10
99.464429794426451
 20
87.507676574743726
 30
0.0
  0
VERTEX
  5
8B26
  8
0
 10
99.444625974881546
 20
87.512445506099056
 30
0.0
  0
VERTEX
  5
8B27
  8
0
 10
99.404949714503346
 20
87.521736436871336
 30
0.0
  0
VERTEX
  5
8B28
  8
0
 10
99.365188118245669
 20
87.530702607041292
 30
0.0
  0
VERTEX
  5
8B29
  8
0
 10
99.345277620782781
 20
87.535065556202142
 30
0.0
  0
VERTEX
  5
8B2A
  8
0
 10
99.325348546970417
 20
87.539349277097855
 30
0.0
  0
VERTEX
  5
8B2B
  8
0
 10
99.285438326978692
 20
87.547681567550526
 30
0.0
  0
VERTEX
  5
8B2C
  8
0
 10
99.245464750355055
 20
87.55570445299341
 30
0.0
  0
VERTEX
  5
8B2D
  8
0
 10
99.205435075831474
 20
87.563422756060746
 30
0.0
  0
VERTEX
  5
8B2E
  8
0
 10
99.165356530183317
 20
87.570841141264168
 30
0.0
  0
VERTEX
  5
8B2F
  8
0
 10
99.125236310162791
 20
87.577964108710034
 30
0.0
  0
VERTEX
  5
8B30
  8
0
 10
99.105163844526942
 20
87.581415995138386
 30
0.0
  0
VERTEX
  5
8B31
  8
0
 10
99.085097811608534
 20
87.584793286131884
 30
0.0
  0
VERTEX
  5
8B32
  8
0
 10
99.045001231333245
 20
87.591324723271413
 30
0.0
  0
VERTEX
  5
8B33
  8
0
 10
99.004959176911257
 20
87.597563009795138
 30
0.0
  0
VERTEX
  5
8B34
  8
0
 10
98.964980257635148
 20
87.603513221752848
 30
0.0
  0
VERTEX
  5
8B35
  8
0
 10
98.925073032237265
 20
87.609180232557307
 30
0.0
  0
VERTEX
  5
8B36
  8
0
 10
98.885246009708567
 20
87.614568710038427
 30
0.0
  0
VERTEX
  5
8B37
  8
0
 10
98.865365220192771
 20
87.617159900546341
 30
0.0
  0
VERTEX
  5
8B38
  8
0
 10
98.845507650172635
 20
87.619683113521234
 30
0.0
  0
VERTEX
  5
8B39
  8
0
 10
98.805866365804263
 20
87.624527690913524
 30
0.0
  0
VERTEX
  5
8B3A
  8
0
 10
98.766330521779651
 20
87.629106475798608
 30
0.0
  0
VERTEX
  5
8B3B
  8
0
 10
98.746604741401029
 20
87.631297397224898
 30
0.0
  0
VERTEX
  5
8B3C
  8
0
 10
98.707367022414573
 20
87.635471735178484
 30
0.0
  0
VERTEX
  5
8B3D
  8
0
 10
98.629275708277774
 20
87.643058480190746
 30
0.0
  0
VERTEX
  5
8B3E
  8
0
 10
98.551750556455445
 20
87.649649727836675
 30
0.0
  0
VERTEX
  5
8B3F
  8
0
 10
98.513220386577927
 20
87.652578839885933
 30
0.0
  0
VERTEX
  5
8B40
  8
0
 10
98.436294675806394
 20
87.657738219590684
 30
0.0
  0
VERTEX
  5
8B41
  8
0
 10
98.285091125699296
 20
87.665179047979635
 30
0.0
  0
VERTEX
  5
8B42
  8
0
 10
98.137860718519164
 20
87.668872414638869
 30
0.0
  0
VERTEX
  5
8B43
  8
0
 10
98.065889960391246
 20
87.669333083661996
 30
0.0
  0
SEQEND
  5
8B44
  8
0
  0
LINE
  5
620A
  8
2
 10
129.43572359270519
 20
66.231438314106185
 30
0.0
 11
129.4357235927053
 21
87.031438314106126
 31
0.0
  0
LINE
  5
620B
  8
2
 10
128.43572359270519
 20
88.031438314106126
 30
0.0
 11
128.4357235927051
 21
87.031438314106126
 31
0.0
  0
LINE
  5
620C
  8
2
 10
131.4357235927051
 20
91.03143831410614
 30
0.0
 11
131.4357235927051
 21
88.031438314106126
 31
0.0
  0
LINE
  5
620E
  8
2
 10
128.43572359270519
 20
87.031438314106126
 30
0.0
 11
129.4357235927053
 21
87.031438314106126
 31
0.0
  0
LINE
  5
620F
  8
2
 10
107.4357235927034
 20
66.231438314106995
 30
0.0
 11
107.4357235927048
 21
87.031438314106964
 31
0.0
  0
LINE
  5
6210
  8
2
 10
108.435723592705
 20
88.031438314106893
 30
0.0
 11
108.435723592705
 21
87.031438314106893
 31
0.0
  0
LINE
  5
6211
  8
2
 10
105.4357235927053
 20
91.03143831410712
 30
0.0
 11
105.4357235927051
 21
88.031438314107135
 31
0.0
  0
LINE
  5
6212
  8
2
 10
131.43572359270499
 20
88.031438314107135
 30
0.0
 11
105.4357235927052
 21
88.031438314107135
 31
0.0
  0
LINE
  5
6213
  8
2
 10
108.4357235927049
 20
87.031438314106893
 30
0.0
 11
107.4357235927048
 21
87.031438314106964
 31
0.0
  0
LINE
  5
640E
  8
2
 10
348.31157395325272
 20
318.50216556098968
 30
0.0
 11
370.31157395325272
 21
318.50216556098968
 31
0.0
  0
LINE
  5
640F
  8
2
 10
370.31157395325272
 20
330.50216556098968
 30
0.0
 11
348.31157395325272
 21
330.50216556098951
 31
0.0
  0
LINE
  5
6410
  8
2
 10
345.31157395325272
 20
337.50216556098951
 30
0.0
 11
345.31157395325067
 21
311.50216556098968
 31
0.0
  0
LINE
  5
6411
  8
2
 10
370.11157395325267
 20
335.50216556098968
 30
0.0
 11
349.31157395325272
 21
335.50216556098968
 31
0.0
  0
LINE
  5
6412
  8
2
 10
348.31157395325272
 20
334.50216556098968
 30
0.0
 11
349.31157395325272
 21
334.50216556098951
 31
0.0
  0
LINE
  5
6413
  8
2
 10
345.31157395325272
 20
337.50216556098951
 30
0.0
 11
348.31157395325272
 21
337.50216556098951
 31
0.0
  0
LINE
  5
6414
  8
2
 10
348.31157395325272
 20
334.50216556098968
 30
0.0
 11
348.31157395325272
 21
337.50216556098928
 31
0.0
  0
LINE
  5
6415
  8
2
 10
349.31157395325272
 20
334.50216556098968
 30
0.0
 11
349.31157395325272
 21
335.50216556098968
 31
0.0
  0
LINE
  5
6416
  8
2
 10
370.11157395325199
 20
313.50216556098792
 30
0.0
 11
349.31157395325198
 21
313.50216556098928
 31
0.0
  0
LINE
  5
6417
  8
2
 10
348.31157395325198
 20
314.50216556098928
 30
0.0
 11
349.31157395325198
 21
314.50216556098928
 31
0.0
  0
LINE
  5
6418
  8
2
 10
345.31157395325181
 20
311.50216556098968
 30
0.0
 11
348.31157395325181
 21
311.50216556098951
 31
0.0
  0
LINE
  5
6419
  8
2
 10
348.31157395325198
 20
314.50216556098928
 30
0.0
 11
348.31157395325181
 21
311.50216556098968
 31
0.0
  0
LINE
  5
641A
  8
2
 10
349.31157395325198
 20
314.50216556098928
 30
0.0
 11
349.31157395325198
 21
313.50216556098928
 31
0.0
  0
LINE
  5
6462
  8
0
 10
129.6857235927051
 20
88.031438314106126
 30
0.0
 11
129.68572359270519
 21
69.031438314100484
 31
0.0
  0
LINE
  5
6463
  8
0
 10
107.1857235927051
 20
88.031438314106978
 30
0.0
 11
107.1857235927035
 21
69.031438314101337
 31
0.0
  0
LINE
  5
875C
  8
0
 10
135.48572359270489
 20
359.25824688870591
 30
0.0
 11
135.48572359270489
 21
289.74608423327379
 31
0.0
  0
LINE
  5
875D
  8
0
 10
101.38130370777441
 20
359.42120700548088
 30
0.0
 11
101.38130370777441
 21
289.74608423327379
 31
0.0
  0
TEXT
  5
87BB
  8
0
 62
     3
 10
0.0
 20
0.0
 30
0.0
 40
10.0
  1
TWN125-GR
  7
STANDARD1
  0
ENDSEC
  0
EOF
