  0
SECTION
  2
HEADER
  9
$ACADVER
  1
AC1009
  9
$INSBASE
 10
0.0
 20
0.0
 30
0.0
  9
$EXTMIN
 10
0.0
 20
-2.960436562073669
 30
-0.0000000000000089
  9
$EXTMAX
 10
321.30169248071269
 20
333.9118462027181
 30
37.0
  9
$LIMMIN
 10
0.0
 20
0.0
  9
$LIMMAX
 10
375.0
 20
270.0
  9
$ORTHOMODE
 70
     1
  9
$REGENMODE
 70
     1
  9
$FILLMODE
 70
     1
  9
$QTEXTMODE
 70
     0
  9
$MIRRTEXT
 70
     0
  9
$DRAGMODE
 70
     2
  9
$LTSCALE
 40
10.0
  9
$OSMODE
 70
    55
  9
$ATTMODE
 70
     1
  9
$TEXTSIZE
 40
0.2
  9
$TRACEWID
 40
0.05
  9
$TEXTSTYLE
  7
STANDARD
  9
$CLAYER
  8
0
  9
$CELTYPE
  6
BYLAYER
  9
$CECOLOR
 62
   256
  9
$DIMSCALE
 40
1.0
  9
$DIMASZ
 40
3.0
  9
$DIMEXO
 40
2.0
  9
$DIMDLI
 40
0.38
  9
$DIMRND
 40
0.0
  9
$DIMDLE
 40
0.0
  9
$DIMEXE
 40
2.0
  9
$DIMTP
 40
0.0
  9
$DIMTM
 40
0.0
  9
$DIMTXT
 40
3.2000000000000002
  9
$DIMCEN
 40
0.0
  9
$DIMTSZ
 40
0.0
  9
$DIMTOL
 70
     0
  9
$DIMLIM
 70
     0
  9
$DIMTIH
 70
     0
  9
$DIMTOH
 70
     0
  9
$DIMSE1
 70
     0
  9
$DIMSE2
 70
     0
  9
$DIMTAD
 70
     1
  9
$DIMZIN
 70
     8
  9
$DIMBLK
  1

  9
$DIMASO
 70
     1
  9
$DIMSHO
 70
     0
  9
$DIMPOST
  1

  9
$DIMAPOST
  1

  9
$DIMALT
 70
     0
  9
$DIMALTD
 70
     2
  9
$DIMALTF
 40
25.399999999999999
  9
$DIMLFAC
 40
1.0
  9
$DIMTOFL
 70
     1
  9
$DIMTVP
 40
1.6000000000000001
  9
$DIMTIX
 70
     1
  9
$DIMSOXD
 70
     0
  9
$DIMSAH
 70
     0
  9
$DIMBLK1
  1

  9
$DIMBLK2
  1

  9
$DIMSTYLE
  2
STANDARD
  9
$DIMCLRD
 70
     0
  9
$DIMCLRE
 70
     0
  9
$DIMCLRT
 70
     0
  9
$DIMTFAC
 40
1.0
  9
$DIMGAP
 40
1.5
  9
$LUNITS
 70
     2
  9
$LUPREC
 70
     4
  9
$SKETCHINC
 40
0.1
  9
$FILLETRAD
 40
0.0
  9
$AUNITS
 70
     1
  9
$AUPREC
 70
     4
  9
$MENU
  1
E:\r13\win\SUPPORT\ACAD
  9
$ELEVATION
 40
0.0
  9
$PELEVATION
 40
0.0
  9
$THICKNESS
 40
0.0
  9
$LIMCHECK
 70
     0
  9
$BLIPMODE
 70
     0
  9
$CHAMFERA
 40
0.0
  9
$CHAMFERB
 40
0.0
  9
$SKPOLY
 70
     0
  9
$TDCREATE
 40
2449839.7800462958
  9
$TDUPDATE
 40
2456598.453482477
  9
$TDINDWG
 40
0.7859791088
  9
$TDUSRTIMER
 40
0.7859791088
  9
$USRTIMER
 70
     1
  9
$ANGBASE
 50
0.0
  9
$ANGDIR
 70
     0
  9
$PDMODE
 70
     0
  9
$PDSIZE
 40
0.0
  9
$PLINEWID
 40
0.0
  9
$COORDS
 70
     1
  9
$SPLFRAME
 70
     0
  9
$SPLINETYPE
 70
     6
  9
$SPLINESEGS
 70
     8
  9
$ATTDIA
 70
     0
  9
$ATTREQ
 70
     1
  9
$HANDLING
 70
     1
  9
$HANDSEED
  5
8B8A
  9
$SURFTAB1
 70
     6
  9
$SURFTAB2
 70
     6
  9
$SURFTYPE
 70
     6
  9
$SURFU
 70
     6
  9
$SURFV
 70
     6
  9
$UCSNAME
  2

  9
$UCSORG
 10
0.0
 20
0.0
 30
0.0
  9
$UCSXDIR
 10
1.0
 20
0.0
 30
0.0
  9
$UCSYDIR
 10
0.0
 20
1.0
 30
0.0
  9
$PUCSNAME
  2

  9
$PUCSORG
 10
0.0
 20
0.0
 30
0.0
  9
$PUCSXDIR
 10
1.0
 20
0.0
 30
0.0
  9
$PUCSYDIR
 10
0.0
 20
1.0
 30
0.0
  9
$USERI1
 70
     0
  9
$USERI2
 70
     1
  9
$USERI3
 70
     1
  9
$USERI4
 70
     0
  9
$USERI5
 70
     0
  9
$USERR1
 40
0.0
  9
$USERR2
 40
0.0
  9
$USERR3
 40
0.0
  9
$USERR4
 40
0.0
  9
$USERR5
 40
0.0
  9
$WORLDVIEW
 70
     1
  9
$SHADEDGE
 70
     3
  9
$SHADEDIF
 70
    70
  9
$TILEMODE
 70
     1
  9
$MAXACTVP
 70
    16
  9
$PLIMCHECK
 70
     0
  9
$PEXTMIN
 10
1.0000000000000000E+020
 20
1.0000000000000000E+020
 30
1.0000000000000000E+020
  9
$PEXTMAX
 10
-1.0000000000000000E+020
 20
-1.0000000000000000E+020
 30
-1.0000000000000000E+020
  9
$PLIMMIN
 10
0.0
 20
0.0
  9
$PLIMMAX
 10
12.0
 20
9.0
  9
$UNITMODE
 70
     0
  9
$VISRETAIN
 70
     0
  9
$PLINEGEN
 70
     0
  9
$PSLTSCALE
 70
     0
  0
ENDSEC
  0
SECTION
  2
TABLES
  0
TABLE
  2
VPORT
 70
     1
  0
VPORT
  2
*ACTIVE
 70
     0
 10
0.0
 20
0.0
 11
1.0
 21
1.0
 12
187.4942783906524
 22
243.8930237441466
 13
0.0
 23
0.0
 14
10.0
 24
10.0
 15
10.0
 25
10.0
 16
0.0
 26
0.0
 36
1.0
 17
0.0
 27
0.0
 37
0.0
 40
498.06366511973027
 41
1.7807262569832401
 42
50.0
 43
0.0
 44
0.0
 50
0.0
 51
0.0
 71
     0
 72
   500
 73
     1
 74
     0
 75
     0
 76
     0
 77
     0
 78
     2
  0
ENDTAB
  0
TABLE
  2
LTYPE
 70
     4
  0
LTYPE
  2
CONTINUOUS
 70
     0
  3
Solid Line
 72
    65
 73
     0
 40
0.0
  0
LTYPE
  2
CENTER
 70
     0
  3
____ _ ____ _ ____ _ ____ _ ____ _ ____ _ ____
 72
    65
 73
     4
 40
2.0
 49
1.25
 49
-0.25
 49
0.25
 49
-0.25
  0
LTYPE
  2
HIDDEN
 70
     0
  3
_ _ _ _ _ _ _ _ _ _ _ _ _ _ _ _ _ _ _ _ _ _ _
 72
    65
 73
     2
 40
0.375
 49
0.25
 49
-0.125
  0
LTYPE
  2
PHANTOM2
 70
     0
  3
___ _ _ ___ _ _ ___ _ _ ___ _ _
 72
    65
 73
     6
 40
1.25
 49
0.625
 49
-0.125
 49
0.125
 49
-0.125
 49
0.125
 49
-0.125
  0
ENDTAB
  0
TABLE
  2
LAYER
 70
     4
  0
LAYER
  2
0
 70
     0
 62
     7
  6
CONTINUOUS
  0
LAYER
  2
1
 70
     0
 62
     1
  6
CENTER
  0
LAYER
  2
2
 70
     0
 62
     2
  6
HIDDEN
  0
LAYER
  2
DEFPOINTS
 70
     0
 62
     7
  6
CONTINUOUS
  0
ENDTAB
  0
TABLE
  2
STYLE
 70
     2
  0
STYLE
  2
STANDARD
 70
     0
 40
0.0
 41
1.0
 50
0.0
 71
     0
 42
0.2
  3
TXT
  4
BIGFONT
  0
STYLE
  2
STANDARD1
 70
     0
 40
0.0
 41
1.0
 50
0.0
 71
     0
 42
3.0
  3
txt
  4

  0
ENDTAB
  0
TABLE
  2
VIEW
 70
     1
  0
VIEW
  2
ALL
 70
     0
 40
270.0
 10
220.99159663865549
 20
135.0
 41
0.0
 11
0.0
 21
0.0
 31
1.0
 12
0.0
 22
0.0
 32
0.0
 42
0.0
 43
0.0
 44
0.0
 50
0.0
 71
     0
  0
ENDTAB
  0
TABLE
  2
UCS
 70
     0
  0
ENDTAB
  0
TABLE
  2
APPID
 70
     8
  0
APPID
  2
ACAD
 70
     0
  0
APPID
  2
ACAD_MLEADERVER
 70
     0
  0
APPID
  2
ACAD_EXEMPT_FROM_CAD_STANDARDS
 70
     0
  0
APPID
  2
ACAD_DSTYLE_DIMJAG
 70
     0
  0
APPID
  2
ACAD_DSTYLE_DIMTALN
 70
     0
  0
APPID
  2
ACAD_DSTYLE_DIMRADIAL_EXTENSION
 70
     0
  0
APPID
  2
ACAD_PSEXT
 70
     0
  0
APPID
  2
ACAD_NAV_VCDISPLAY
 70
     0
  0
ENDTAB
  0
TABLE
  2
DIMSTYLE
 70
     1
  0
DIMSTYLE
  2
STANDARD
 70
     0
  3

  4

  5

  6

  7

 40
1.0
 41
0.18
 42
0.0625
 43
0.38
 44
0.18
 45
0.0
 46
0.0
 47
0.0
 48
0.0
140
0.18
141
0.09
142
0.0
143
25.399999999999999
144
1.0
145
0.0
146
1.0
147
0.09
 71
     0
 72
     0
 73
     1
 74
     1
 75
     0
 76
     0
 77
     0
 78
     0
170
     0
171
     2
172
     0
173
     0
174
     0
175
     0
176
     0
177
     0
178
     0
  0
ENDTAB
  0
ENDSEC
  0
SECTION
  2
BLOCKS
  0
BLOCK
  8
0
  2
$MODEL_SPACE
 70
     0
 10
0.0
 20
0.0
 30
0.0
  3
$MODEL_SPACE
  1

  0
ENDBLK
  5
11B
  8
0
  0
BLOCK
 67
     1
  8
0
  2
$PAPER_SPACE
 70
     0
 10
0.0
 20
0.0
 30
0.0
  3
$PAPER_SPACE
  1

  0
ENDBLK
  5
119
 67
     1
  8
0
  0
ENDSEC
  0
SECTION
  2
ENTITIES
  0
CIRCLE
  5
3AC8
  8
0
 10
107.87969442672011
 20
314.42814802772187
 30
0.0
 40
9.0
  0
LINE
  5
3AD1
  8
1
 10
123.8633926017163
 20
314.42814802772187
 30
0.0
 11
91.895996251723886
 21
314.42814802772187
 31
0.0
  0
CIRCLE
  5
3AD8
  8
0
 10
107.87969442672011
 20
277.42814802772187
 30
0.0
 40
49.5
  0
CIRCLE
  5
3ADB
  8
0
 10
107.87969442672011
 20
277.42814802772187
 30
0.0
 40
46.179018074501258
  0
ARC
  5
3AE0
  8
0
 10
107.87969442672011
 20
277.86291692025981
 30
0.0
 40
36.648462604725538
 50
104.1216139541465
 51
75.878386045853304
  0
CIRCLE
  5
3AE5
  8
0
 10
107.87969442672011
 20
277.42814802772187
 30
0.0
 40
12.5
  0
POLYLINE
  5
3AE6
  8
0
 66
     1
 10
0.0
 20
0.0
 30
0.0
  0
VERTEX
  5
87EE
  8
0
 10
90.831000961127188
 20
307.00415834742779
 30
0.0
  0
VERTEX
  5
87EF
  8
0
 10
90.848908784943319
 20
307.0143695913718
 30
0.0
  0
VERTEX
  5
87F0
  8
0
 10
90.885166738981411
 20
307.03437234892971
 30
0.0
  0
VERTEX
  5
87F1
  8
0
 10
90.92199798375384
 20
307.05379385929012
 30
0.0
  0
VERTEX
  5
87F2
  8
0
 10
90.940622191523062
 20
307.06327877821838
 30
0.0
  0
VERTEX
  5
87F3
  8
0
 10
90.959381930600898
 20
307.07260907467378
 30
0.0
  0
VERTEX
  5
87F4
  8
0
 10
90.997297119880045
 20
307.09079402079948
 30
0.0
  0
VERTEX
  5
87F5
  8
0
 10
91.035721332907769
 20
307.10832586155442
 30
0.0
  0
VERTEX
  5
87F6
  8
0
 10
91.074631708320453
 20
307.12518295275652
 30
0.0
  0
VERTEX
  5
87F7
  8
0
 10
91.114004863138234
 20
307.14134488515208
 30
0.0
  0
VERTEX
  5
87F8
  8
0
 10
91.153817018771861
 20
307.15679251665739
 30
0.0
  0
VERTEX
  5
87F9
  8
0
 10
91.173880215072813
 20
307.1642428396554
 30
0.0
  0
VERTEX
  5
87FA
  8
0
 10
91.194044132146374
 20
307.17150799374269
 30
0.0
  0
VERTEX
  5
87FB
  8
0
 10
91.234662032047595
 20
307.18547476173518
 30
0.0
  0
VERTEX
  5
87FC
  8
0
 10
91.275646515397739
 20
307.19867754961899
 30
0.0
  0
VERTEX
  5
87FD
  8
0
 10
91.316973017595956
 20
307.21110222383561
 30
0.0
  0
VERTEX
  5
87FE
  8
0
 10
91.358616263318254
 20
307.22273568363443
 30
0.0
  0
VERTEX
  5
87FF
  8
0
 10
91.400550332534507
 20
307.2335659069978
 30
0.0
  0
VERTEX
  5
8800
  8
0
 10
91.421618177643495
 20
307.23867635592171
 30
0.0
  0
VERTEX
  5
8801
  8
0
 10
91.442748774373854
 20
307.24358200182508
 30
0.0
  0
VERTEX
  5
8802
  8
0
 10
91.485184722702115
 20
307.25277424623079
 30
0.0
  0
VERTEX
  5
8803
  8
0
 10
91.527831013527233
 20
307.26113411813043
 30
0.0
  0
VERTEX
  5
8804
  8
0
 10
91.549224496515308
 20
307.2649995841947
 30
0.0
  0
VERTEX
  5
8805
  8
0
 10
91.57066030436215
 20
307.26865431420907
 30
0.0
  0
VERTEX
  5
8806
  8
0
 10
91.613645195670415
 20
307.27532875830008
 30
0.0
  0
VERTEX
  5
8807
  8
0
 10
91.656758354502927
 20
307.28115259910749
 30
0.0
  0
VERTEX
  5
8808
  8
0
 10
91.678354541840463
 20
307.2837443591855
 30
0.0
  0
VERTEX
  5
8809
  8
0
 10
91.699973784954295
 20
307.28612231731421
 30
0.0
  0
VERTEX
  5
880A
  8
0
 10
91.743275140396463
 20
307.29023628338581
 30
0.0
  0
VERTEX
  5
880B
  8
0
 10
91.786637783169454
 20
307.29349261849359
 30
0.0
  0
VERTEX
  5
880C
  8
0
 10
91.830034039801376
 20
307.2958902524
 30
0.0
  0
VERTEX
  5
880D
  8
0
 10
91.873435890483847
 20
307.29742928715871
 30
0.0
  0
VERTEX
  5
880E
  8
0
 10
91.916815089355623
 20
307.29811102846401
 30
0.0
  0
VERTEX
  5
880F
  8
0
 10
91.938487335272271
 20
307.29813115646459
 30
0.0
  0
VERTEX
  5
8810
  8
0
 10
91.960143284577256
 20
307.29793800605569
 30
0.0
  0
VERTEX
  5
8811
  8
0
 10
92.003392138279764
 20
307.29691398334319
 30
0.0
  0
VERTEX
  5
8812
  8
0
 10
92.046533446512626
 20
307.29504395632711
 30
0.0
  0
VERTEX
  5
8813
  8
0
 10
92.089539259345884
 20
307.29233414183238
 30
0.0
  0
VERTEX
  5
8814
  8
0
 10
92.132382001302958
 20
307.288791954977
 30
0.0
  0
VERTEX
  5
8815
  8
0
 10
92.175034573929793
 20
307.28442597779127
 30
0.0
  0
VERTEX
  5
8816
  8
0
 10
92.196281156304835
 20
307.28193706856712
 30
0.0
  0
VERTEX
  5
8817
  8
0
 10
92.217470101699405
 20
307.27924596601508
 30
0.0
  0
VERTEX
  5
8818
  8
0
 10
92.259661488191796
 20
307.27326291790553
 30
0.0
  0
VERTEX
  5
8819
  8
0
 10
92.301581464222863
 20
307.26648911459063
 30
0.0
  0
VERTEX
  5
881A
  8
0
 10
92.343202722184515
 20
307.2589381417007
 30
0.0
  0
VERTEX
  5
881B
  8
0
 10
92.384498047350121
 20
307.25062489916621
 30
0.0
  0
VERTEX
  5
881C
  8
0
 10
92.425440446155108
 20
307.24156559949
 30
0.0
  0
VERTEX
  5
881D
  8
0
 10
92.445770954075556
 20
307.23676160056118
 30
0.0
  0
VERTEX
  5
881E
  8
0
 10
92.466003271608997
 20
307.23177775472038
 30
0.0
  0
VERTEX
  5
881F
  8
0
 10
92.506160346089814
 20
307.22128015223433
 30
0.0
  0
VERTEX
  5
8820
  8
0
 10
92.545886081850654
 20
307.21009281933141
 30
0.0
  0
VERTEX
  5
8821
  8
0
 10
92.585177265050902
 20
307.19823021437412
 30
0.0
  0
VERTEX
  5
8822
  8
0
 10
92.624349916680899
 20
307.18560022468688
 30
0.0
  0
VERTEX
  5
8823
  8
0
 10
92.663491255899316
 20
307.17216469086873
 30
0.0
  0
VERTEX
  5
8824
  8
0
 10
92.683040304486084
 20
307.16514412934919
 30
0.0
  0
VERTEX
  5
8825
  8
0
 10
92.702569687588039
 20
307.15792149019518
 30
0.0
  0
VERTEX
  5
8826
  8
0
 10
92.741553790704643
 20
307.14286982728169
 30
0.0
  0
VERTEX
  5
8827
  8
0
 10
92.780412436090273
 20
307.12701019918637
 30
0.0
  0
VERTEX
  5
8828
  8
0
 10
92.819114899223109
 20
307.11034435065159
 30
0.0
  0
VERTEX
  5
8829
  8
0
 10
92.857630968255762
 20
307.0928752194273
 30
0.0
  0
VERTEX
  5
882A
  8
0
 10
92.895931047558634
 20
307.07460687156492
 30
0.0
  0
VERTEX
  5
882B
  8
0
 10
92.914991035415014
 20
307.06517455233569
 30
0.0
  0
VERTEX
  5
882C
  8
0
 10
92.933986256873254
 20
307.05554442652249
 30
0.0
  0
VERTEX
  5
882D
  8
0
 10
92.971768526063684
 20
307.0356939719041
 30
0.0
  0
VERTEX
  5
882E
  8
0
 10
93.009250674582844
 20
307.015062473684
 30
0.0
  0
VERTEX
  5
882F
  8
0
 10
93.027870914517848
 20
307.00445625889199
 30
0.0
  0
VERTEX
  5
8830
  8
0
 10
93.046406216909205
 20
306.99365783595402
 30
0.0
  0
VERTEX
  5
8831
  8
0
 10
93.08320896288194
 20
306.97148911766192
 30
0.0
  0
VERTEX
  5
8832
  8
0
 10
93.11963303955099
 20
306.94856654524062
 30
0.0
  0
VERTEX
  5
8833
  8
0
 10
93.137695105339489
 20
306.93682606813297
 30
0.0
  0
VERTEX
  5
8834
  8
0
 10
93.155653000367366
 20
306.92490146889293
 30
0.0
  0
VERTEX
  5
8835
  8
0
 10
93.191243927977439
 20
306.90050631086939
 30
0.0
  0
VERTEX
  5
8836
  8
0
 10
93.22638153073558
 20
306.87539450585979
 30
0.0
  0
VERTEX
  5
8837
  8
0
 10
93.261042233137346
 20
306.84958043348541
 30
0.0
  0
VERTEX
  5
8838
  8
0
 10
93.295203260314125
 20
306.82307934283619
 30
0.0
  0
VERTEX
  5
8839
  8
0
 10
93.328842716671019
 20
306.79590726894151
 30
0.0
  0
VERTEX
  5
883A
  8
0
 10
93.345460271880015
 20
306.78207481672428
 30
0.0
  0
VERTEX
  5
883B
  8
0
 10
93.361939691086945
 20
306.76808091324023
 30
0.0
  0
VERTEX
  5
883C
  8
0
 10
93.394480071265662
 20
306.7396124090252
 30
0.0
  0
VERTEX
  5
883D
  8
0
 10
93.426448540908055
 20
306.7105156596391
 30
0.0
  0
VERTEX
  5
883E
  8
0
 10
93.457825781608335
 20
306.68080932420452
 30
0.0
  0
VERTEX
  5
883F
  8
0
 10
93.488593042186949
 20
306.65051308834052
 30
0.0
  0
VERTEX
  5
8840
  8
0
 10
93.518732239103883
 20
306.61964760455669
 30
0.0
  0
VERTEX
  5
8841
  8
0
 10
93.533560868148015
 20
306.60400809680061
 30
0.0
  0
VERTEX
  5
8842
  8
0
 10
93.548226049333266
 20
306.58823442591768
 30
0.0
  0
VERTEX
  5
8843
  8
0
 10
93.577057995886094
 20
306.55629593302098
 30
0.0
  0
VERTEX
  5
8844
  8
0
 10
93.605212526145806
 20
306.52385525425677
 30
0.0
  0
VERTEX
  5
8845
  8
0
 10
93.632675083145614
 20
306.4909361792441
 30
0.0
  0
VERTEX
  5
8846
  8
0
 10
93.659432169878755
 20
306.45756306527289
 30
0.0
  0
VERTEX
  5
8847
  8
0
 10
93.685471405937278
 20
306.42376073749949
 30
0.0
  0
VERTEX
  5
8848
  8
0
 10
93.698218263027002
 20
306.40670649932161
 30
0.0
  0
VERTEX
  5
8849
  8
0
 10
93.710781481772415
 20
306.3895545134875
 30
0.0
  0
VERTEX
  5
884A
  8
0
 10
93.735351873894828
 20
306.3549705864649
 30
0.0
  0
VERTEX
  5
884B
  8
0
 10
93.759172810496366
 20
306.32003613841732
 30
0.0
  0
VERTEX
  5
884C
  8
0
 10
93.782235373727886
 20
306.28477926868538
 30
0.0
  0
VERTEX
  5
884D
  8
0
 10
93.804531594871492
 20
306.24922891344897
 30
0.0
  0
VERTEX
  5
884E
  8
0
 10
93.826054539874121
 20
306.2134147597796
 30
0.0
  0
VERTEX
  5
884F
  8
0
 10
93.836524168773167
 20
306.19541821869842
 30
0.0
  0
VERTEX
  5
8850
  8
0
 10
93.846798385485485
 20
306.17736715430448
 30
0.0
  0
VERTEX
  5
8851
  8
0
 10
93.866758486228477
 20
306.14111700639438
 30
0.0
  0
VERTEX
  5
8852
  8
0
 10
93.885931432400866
 20
306.10469568565679
 30
0.0
  0
VERTEX
  5
8853
  8
0
 10
93.904315099274754
 20
306.06813491340171
 30
0.0
  0
VERTEX
  5
8854
  8
0
 10
93.921995292443512
 20
306.0312817628747
 30
0.0
  0
VERTEX
  5
8855
  8
0
 10
93.939101752247439
 20
305.9938507992494
 30
0.0
  0
VERTEX
  5
8856
  8
0
 10
93.947432022979214
 20
305.97492406579101
 30
0.0
  0
VERTEX
  5
8857
  8
0
 10
93.955609154250396
 20
305.9558605193875
 30
0.0
  0
VERTEX
  5
8858
  8
0
 10
93.971490994338183
 20
305.9173353836278
 30
0.0
  0
VERTEX
  5
8859
  8
0
 10
93.986722123154664
 20
305.8783006724201
 30
0.0
  0
VERTEX
  5
885A
  8
0
 10
93.994086196416788
 20
305.8586003184929
 30
0.0
  0
VERTEX
  5
885B
  8
0
 10
94.001278803239984
 20
305.83878235620352
 30
0.0
  0
VERTEX
  5
885C
  8
0
 10
94.015138753934593
 20
305.79880696019438
 30
0.0
  0
VERTEX
  5
885D
  8
0
 10
94.028281184103207
 20
305.75840142354502
 30
0.0
  0
VERTEX
  5
885E
  8
0
 10
94.034577244335196
 20
305.73804584812132
 30
0.0
  0
VERTEX
  5
885F
  8
0
 10
94.040686812560807
 20
305.71759295240292
 30
0.0
  0
VERTEX
  5
8860
  8
0
 10
94.052337875909302
 20
305.67640886653868
 30
0.0
  0
VERTEX
  5
8861
  8
0
 10
94.063218100949484
 20
305.63487652837608
 30
0.0
  0
VERTEX
  5
8862
  8
0
 10
94.073312556411111
 20
305.59302377711691
 30
0.0
  0
VERTEX
  5
8863
  8
0
 10
94.082607600095443
 20
305.5508791865181
 30
0.0
  0
VERTEX
  5
8864
  8
0
 10
94.091090931565077
 20
305.50847195302151
 30
0.0
  0
VERTEX
  5
8865
  8
0
 10
94.095024739776804
 20
305.48717910663078
 30
0.0
  0
VERTEX
  5
8866
  8
0
 10
94.098751638072031
 20
305.4658317627115
 30
0.0
  0
VERTEX
  5
8867
  8
0
 10
94.105580228155759
 20
305.42298865662332
 30
0.0
  0
VERTEX
  5
8868
  8
0
 10
94.111568653061227
 20
305.37997289397953
 30
0.0
  0
VERTEX
  5
8869
  8
0
 10
94.116710316005083
 20
305.33681481294042
 30
0.0
  0
VERTEX
  5
886A
  8
0
 10
94.121000069184547
 20
305.29354468848521
 30
0.0
  0
VERTEX
  5
886B
  8
0
 10
94.124434290657973
 20
305.25019125394891
 30
0.0
  0
VERTEX
  5
886C
  8
0
 10
94.125829981218544
 20
305.22848915271408
 30
0.0
  0
VERTEX
  5
886D
  8
0
 10
94.127011070844105
 20
305.20677453292041
 30
0.0
  0
VERTEX
  5
886E
  8
0
 10
94.128728826993552
 20
305.16332315885472
 30
0.0
  0
VERTEX
  5
886F
  8
0
 10
94.129587213132027
 20
305.11986803509677
 30
0.0
  0
VERTEX
  5
8870
  8
0
 10
94.129694426720107
 20
305.09814872818032
 30
0.0
  0
SEQEND
  5
8871
  8
0
  0
ARC
  5
3AE7
  8
0
 10
107.87969442672011
 20
277.42814802772187
 30
0.0
 40
34.137931034482762
 50
119.9607204410827
 51
240.03927932428749
  0
POLYLINE
  5
3AE8
  8
0
 66
     1
 10
0.0
 20
0.0
 30
0.0
  0
VERTEX
  5
8872
  8
0
 10
94.129694426720107
 20
249.7581473272632
 30
0.0
  0
VERTEX
  5
8873
  8
0
 10
94.129587213132027
 20
249.73642802034701
 30
0.0
  0
VERTEX
  5
8874
  8
0
 10
94.128728826993552
 20
249.69297289658891
 30
0.0
  0
VERTEX
  5
8875
  8
0
 10
94.127011070844105
 20
249.64952152252329
 30
0.0
  0
VERTEX
  5
8876
  8
0
 10
94.125829981218544
 20
249.6278069027295
 30
0.0
  0
VERTEX
  5
8877
  8
0
 10
94.124434290657973
 20
249.60610480149481
 30
0.0
  0
VERTEX
  5
8878
  8
0
 10
94.121000069184547
 20
249.56275136695839
 30
0.0
  0
VERTEX
  5
8879
  8
0
 10
94.116710316005083
 20
249.51948124250299
 30
0.0
  0
VERTEX
  5
887A
  8
0
 10
94.111568653061227
 20
249.47632316146439
 30
0.0
  0
VERTEX
  5
887B
  8
0
 10
94.105580228155759
 20
249.43330739882009
 30
0.0
  0
VERTEX
  5
887C
  8
0
 10
94.098751638072031
 20
249.39046429273219
 30
0.0
  0
VERTEX
  5
887D
  8
0
 10
94.095024739776804
 20
249.3691169488126
 30
0.0
  0
VERTEX
  5
887E
  8
0
 10
94.091090931565077
 20
249.34782410242241
 30
0.0
  0
VERTEX
  5
887F
  8
0
 10
94.082607600095443
 20
249.30541686892559
 30
0.0
  0
VERTEX
  5
8880
  8
0
 10
94.073312556411111
 20
249.26327227832661
 30
0.0
  0
VERTEX
  5
8881
  8
0
 10
94.063218100949484
 20
249.2214195270677
 30
0.0
  0
VERTEX
  5
8882
  8
0
 10
94.052337875909302
 20
249.1798871889051
 30
0.0
  0
VERTEX
  5
8883
  8
0
 10
94.040686812560807
 20
249.13870310304091
 30
0.0
  0
VERTEX
  5
8884
  8
0
 10
94.034577244335196
 20
249.1182502073224
 30
0.0
  0
VERTEX
  5
8885
  8
0
 10
94.028281184103207
 20
249.09789463189861
 30
0.0
  0
VERTEX
  5
8886
  8
0
 10
94.015138753934593
 20
249.05748909524951
 30
0.0
  0
VERTEX
  5
8887
  8
0
 10
94.001278803239984
 20
249.01751369924031
 30
0.0
  0
VERTEX
  5
8888
  8
0
 10
93.994086196416788
 20
248.99769573695099
 30
0.0
  0
VERTEX
  5
8889
  8
0
 10
93.986722123154664
 20
248.9779953830236
 30
0.0
  0
VERTEX
  5
888A
  8
0
 10
93.971490994338183
 20
248.93896067181609
 30
0.0
  0
VERTEX
  5
888B
  8
0
 10
93.955609154250396
 20
248.90043553605611
 30
0.0
  0
VERTEX
  5
888C
  8
0
 10
93.947432022979214
 20
248.88137198965259
 30
0.0
  0
VERTEX
  5
888D
  8
0
 10
93.939101752247439
 20
248.86244525619449
 30
0.0
  0
VERTEX
  5
888E
  8
0
 10
93.921995292443512
 20
248.82501429256911
 30
0.0
  0
VERTEX
  5
888F
  8
0
 10
93.904315099274754
 20
248.78816114204221
 30
0.0
  0
VERTEX
  5
8890
  8
0
 10
93.885931432400866
 20
248.75160036978679
 30
0.0
  0
VERTEX
  5
8891
  8
0
 10
93.866758486228477
 20
248.715179049049
 30
0.0
  0
VERTEX
  5
8892
  8
0
 10
93.846798385485485
 20
248.6789289011391
 30
0.0
  0
VERTEX
  5
8893
  8
0
 10
93.836524168773167
 20
248.66087783674499
 30
0.0
  0
VERTEX
  5
8894
  8
0
 10
93.826054539873994
 20
248.6428812956643
 30
0.0
  0
VERTEX
  5
8895
  8
0
 10
93.804531594871492
 20
248.60706714199461
 30
0.0
  0
VERTEX
  5
8896
  8
0
 10
93.782235373727886
 20
248.571516786758
 30
0.0
  0
VERTEX
  5
8897
  8
0
 10
93.759172810496366
 20
248.53625991702631
 30
0.0
  0
VERTEX
  5
8898
  8
0
 10
93.735351873894828
 20
248.50132546897851
 30
0.0
  0
VERTEX
  5
8899
  8
0
 10
93.710781481772415
 20
248.46674154195591
 30
0.0
  0
VERTEX
  5
889A
  8
0
 10
93.698218263027002
 20
248.44958955612179
 30
0.0
  0
VERTEX
  5
889B
  8
0
 10
93.685471405937278
 20
248.4325353179444
 30
0.0
  0
VERTEX
  5
889C
  8
0
 10
93.659432169878755
 20
248.3987329901708
 30
0.0
  0
VERTEX
  5
889D
  8
0
 10
93.632675083145614
 20
248.36535987619951
 30
0.0
  0
VERTEX
  5
889E
  8
0
 10
93.605212526145806
 20
248.33244080118689
 30
0.0
  0
VERTEX
  5
889F
  8
0
 10
93.577057995886094
 20
248.3000001224226
 30
0.0
  0
VERTEX
  5
88A0
  8
0
 10
93.548226049333266
 20
248.2680616295259
 30
0.0
  0
VERTEX
  5
88A1
  8
0
 10
93.533560868148015
 20
248.25228795864319
 30
0.0
  0
VERTEX
  5
88A2
  8
0
 10
93.518732239103883
 20
248.23664845088689
 30
0.0
  0
VERTEX
  5
88A3
  8
0
 10
93.488593042186949
 20
248.20578296710309
 30
0.0
  0
VERTEX
  5
88A4
  8
0
 10
93.457825781608335
 20
248.17548673123889
 30
0.0
  0
VERTEX
  5
88A5
  8
0
 10
93.426448540908055
 20
248.14578039580471
 30
0.0
  0
VERTEX
  5
88A6
  8
0
 10
93.394480071265662
 20
248.11668364641821
 30
0.0
  0
VERTEX
  5
88A7
  8
0
 10
93.361939691086945
 20
248.0882151422035
 30
0.0
  0
VERTEX
  5
88A8
  8
0
 10
93.345460271880015
 20
248.07422123871959
 30
0.0
  0
VERTEX
  5
88A9
  8
0
 10
93.328842716671019
 20
248.0603887865021
 30
0.0
  0
VERTEX
  5
88AA
  8
0
 10
93.295203260314125
 20
248.0332167126077
 30
0.0
  0
VERTEX
  5
88AB
  8
0
 10
93.261042233137346
 20
248.00671562195799
 30
0.0
  0
VERTEX
  5
88AC
  8
0
 10
93.22638153073558
 20
247.98090154958359
 30
0.0
  0
VERTEX
  5
88AD
  8
0
 10
93.191243927977439
 20
247.95578974457399
 30
0.0
  0
VERTEX
  5
88AE
  8
0
 10
93.155653000367465
 20
247.93139458655071
 30
0.0
  0
VERTEX
  5
88AF
  8
0
 10
93.137695105339489
 20
247.91946998731069
 30
0.0
  0
VERTEX
  5
88B0
  8
0
 10
93.11963303955099
 20
247.90772951020301
 30
0.0
  0
VERTEX
  5
88B1
  8
0
 10
93.08320896288194
 20
247.88480693778149
 30
0.0
  0
VERTEX
  5
88B2
  8
0
 10
93.046406216909205
 20
247.8626382194897
 30
0.0
  0
VERTEX
  5
88B3
  8
0
 10
93.027870914517948
 20
247.85183979655139
 30
0.0
  0
VERTEX
  5
88B4
  8
0
 10
93.009250674582844
 20
247.84123358175989
 30
0.0
  0
VERTEX
  5
88B5
  8
0
 10
92.971768526063684
 20
247.82060208353931
 30
0.0
  0
VERTEX
  5
88B6
  8
0
 10
92.933986256873254
 20
247.8007516289214
 30
0.0
  0
VERTEX
  5
88B7
  8
0
 10
92.914991035415014
 20
247.7911215031078
 30
0.0
  0
VERTEX
  5
88B8
  8
0
 10
92.895931047558634
 20
247.78168918387891
 30
0.0
  0
VERTEX
  5
88B9
  8
0
 10
92.857630968255762
 20
247.76342083601611
 30
0.0
  0
VERTEX
  5
88BA
  8
0
 10
92.819114899223109
 20
247.74595170479199
 30
0.0
  0
VERTEX
  5
88BB
  8
0
 10
92.780412436090387
 20
247.72928585625701
 30
0.0
  0
VERTEX
  5
88BC
  8
0
 10
92.741553790704756
 20
247.71342622816169
 30
0.0
  0
VERTEX
  5
88BD
  8
0
 10
92.702569687588039
 20
247.6983745652484
 30
0.0
  0
VERTEX
  5
88BE
  8
0
 10
92.683040304486084
 20
247.69115192609439
 30
0.0
  0
VERTEX
  5
88BF
  8
0
 10
92.663491255899316
 20
247.68413136457471
 30
0.0
  0
VERTEX
  5
88C0
  8
0
 10
92.624349916680899
 20
247.6706958307567
 30
0.0
  0
VERTEX
  5
88C1
  8
0
 10
92.585177265050902
 20
247.65806584106949
 30
0.0
  0
VERTEX
  5
88C2
  8
0
 10
92.545886081850654
 20
247.64620323611251
 30
0.0
  0
VERTEX
  5
88C3
  8
0
 10
92.506160346089814
 20
247.63501590320939
 30
0.0
  0
VERTEX
  5
88C4
  8
0
 10
92.466003271608997
 20
247.6245183007232
 30
0.0
  0
VERTEX
  5
88C5
  8
0
 10
92.445770954075556
 20
247.61953445488251
 30
0.0
  0
VERTEX
  5
88C6
  8
0
 10
92.425440446155108
 20
247.61473045595369
 30
0.0
  0
VERTEX
  5
88C7
  8
0
 10
92.384498047350121
 20
247.60567115627751
 30
0.0
  0
VERTEX
  5
88C8
  8
0
 10
92.343202722184515
 20
247.59735791374271
 30
0.0
  0
VERTEX
  5
88C9
  8
0
 10
92.301581464222863
 20
247.58980694085329
 30
0.0
  0
VERTEX
  5
88CA
  8
0
 10
92.259661488191796
 20
247.58303313753811
 30
0.0
  0
VERTEX
  5
88CB
  8
0
 10
92.217470101699405
 20
247.5770500894285
 30
0.0
  0
VERTEX
  5
88CC
  8
0
 10
92.196281156304835
 20
247.57435898687629
 30
0.0
  0
VERTEX
  5
88CD
  8
0
 10
92.175034573929793
 20
247.57187007765211
 30
0.0
  0
VERTEX
  5
88CE
  8
0
 10
92.132382001302958
 20
247.56750410046669
 30
0.0
  0
VERTEX
  5
88CF
  8
0
 10
92.089539259345884
 20
247.56396191361151
 30
0.0
  0
VERTEX
  5
88D0
  8
0
 10
92.046533446512626
 20
247.5612520991163
 30
0.0
  0
VERTEX
  5
88D1
  8
0
 10
92.003392138279764
 20
247.5593820721007
 30
0.0
  0
VERTEX
  5
88D2
  8
0
 10
91.960143284577256
 20
247.55835804938789
 30
0.0
  0
VERTEX
  5
88D3
  8
0
 10
91.938487335272271
 20
247.55816489897899
 30
0.0
  0
VERTEX
  5
88D4
  8
0
 10
91.916815089355623
 20
247.55818502697969
 30
0.0
  0
VERTEX
  5
88D5
  8
0
 10
91.873435890483847
 20
247.5588667682847
 30
0.0
  0
VERTEX
  5
88D6
  8
0
 10
91.830034039801376
 20
247.56040580304369
 30
0.0
  0
VERTEX
  5
88D7
  8
0
 10
91.786637783169454
 20
247.56280343694979
 30
0.0
  0
VERTEX
  5
88D8
  8
0
 10
91.743275140396463
 20
247.56605977205771
 30
0.0
  0
VERTEX
  5
88D9
  8
0
 10
91.699973784954409
 20
247.57017373812951
 30
0.0
  0
VERTEX
  5
88DA
  8
0
 10
91.678354541840463
 20
247.5725516962581
 30
0.0
  0
VERTEX
  5
88DB
  8
0
 10
91.65675835450304
 20
247.57514345633609
 30
0.0
  0
VERTEX
  5
88DC
  8
0
 10
91.613645195670415
 20
247.5809672971433
 30
0.0
  0
VERTEX
  5
88DD
  8
0
 10
91.57066030436215
 20
247.58764174123431
 30
0.0
  0
VERTEX
  5
88DE
  8
0
 10
91.549224496515308
 20
247.591296471249
 30
0.0
  0
VERTEX
  5
88DF
  8
0
 10
91.527831013527233
 20
247.59516193731329
 30
0.0
  0
VERTEX
  5
88E0
  8
0
 10
91.485184722702115
 20
247.60352180921299
 30
0.0
  0
VERTEX
  5
88E1
  8
0
 10
91.442748774373854
 20
247.61271405361879
 30
0.0
  0
VERTEX
  5
88E2
  8
0
 10
91.421618177643495
 20
247.6176196995217
 30
0.0
  0
VERTEX
  5
88E3
  8
0
 10
91.400550332534507
 20
247.62273014844581
 30
0.0
  0
VERTEX
  5
88E4
  8
0
 10
91.358616263318254
 20
247.63356037180901
 30
0.0
  0
VERTEX
  5
88E5
  8
0
 10
91.316973017595956
 20
247.64519383160831
 30
0.0
  0
VERTEX
  5
88E6
  8
0
 10
91.275646515397852
 20
247.65761850582439
 30
0.0
  0
VERTEX
  5
88E7
  8
0
 10
91.234662032038841
 20
247.67082129371141
 30
0.0
  0
VERTEX
  5
88E8
  8
0
 10
91.194044128510427
 20
247.6847880629908
 30
0.0
  0
VERTEX
  5
88E9
  8
0
 10
91.173880207437605
 20
247.69205321858121
 30
0.0
  0
VERTEX
  5
88EA
  8
0
 10
91.153817005919805
 20
247.6995035436299
 30
0.0
  0
VERTEX
  5
88EB
  8
0
 10
91.114004836915569
 20
247.71495118076029
 30
0.0
  0
VERTEX
  5
88EC
  8
0
 10
91.074631665994715
 20
247.73111312054121
 30
0.0
  0
VERTEX
  5
88ED
  8
0
 10
91.035721273144873
 20
247.74797022046721
 30
0.0
  0
VERTEX
  5
88EE
  8
0
 10
90.997297042709178
 20
247.7655020707538
 30
0.0
  0
VERTEX
  5
88EF
  8
0
 10
90.959381837371083
 20
247.78368702658611
 30
0.0
  0
VERTEX
  5
88F0
  8
0
 10
90.940622091167597
 20
247.7930173277351
 30
0.0
  0
VERTEX
  5
88F1
  8
0
 10
90.921997877080344
 20
247.80250225111979
 30
0.0
  0
VERTEX
  5
88F2
  8
0
 10
90.885166622684551
 20
247.82192376925229
 30
0.0
  0
VERTEX
  5
88F3
  8
0
 10
90.848908663979046
 20
247.84192653229829
 30
0.0
  0
VERTEX
  5
88F4
  8
0
 10
90.831000840021716
 20
247.8521377778255
 30
0.0
  0
SEQEND
  5
88F5
  8
0
  0
POLYLINE
  5
3AEC
  8
0
 66
     1
 10
0.0
 20
0.0
 30
0.0
  0
VERTEX
  5
88F6
  8
0
 10
124.92838821174389
 20
247.8521378921474
 30
0.0
  0
VERTEX
  5
88F7
  8
0
 10
124.9104803875551
 20
247.84192664402701
 30
0.0
  0
VERTEX
  5
88F8
  8
0
 10
124.8742224212062
 20
247.82192387199399
 30
0.0
  0
VERTEX
  5
88F9
  8
0
 10
124.83739115105099
 20
247.80250234113379
 30
0.0
  0
VERTEX
  5
88FA
  8
0
 10
124.8187669266171
 20
247.7930174104518
 30
0.0
  0
VERTEX
  5
88FB
  8
0
 10
124.8000071687447
 20
247.78368710161561
 30
0.0
  0
VERTEX
  5
88FC
  8
0
 10
124.7620919371079
 20
247.76550212988801
 30
0.0
  0
VERTEX
  5
88FD
  8
0
 10
124.7236676781647
 20
247.74797026399219
 30
0.0
  0
VERTEX
  5
88FE
  8
0
 10
124.684757256759
 20
247.7311131497799
 30
0.0
  0
VERTEX
  5
88FF
  8
0
 10
124.6453840594675
 20
247.71495119790421
 30
0.0
  0
VERTEX
  5
8900
  8
0
 10
124.6055718685673
 20
247.69950355156209
 30
0.0
  0
VERTEX
  5
8901
  8
0
 10
124.5855086585061
 20
247.69205322315531
 30
0.0
  0
VERTEX
  5
8902
  8
0
 10
124.56534473088399
 20
247.68478806510359
 30
0.0
  0
VERTEX
  5
8903
  8
0
 10
124.5247268214159
 20
247.6708212937161
 30
0.0
  0
VERTEX
  5
8904
  8
0
 10
124.4837423380423
 20
247.65761850582439
 30
0.0
  0
VERTEX
  5
8905
  8
0
 10
124.4424158358441
 20
247.64519383160831
 30
0.0
  0
VERTEX
  5
8906
  8
0
 10
124.4007725901218
 20
247.63356037180901
 30
0.0
  0
VERTEX
  5
8907
  8
0
 10
124.35883852090571
 20
247.62273014844581
 30
0.0
  0
VERTEX
  5
8908
  8
0
 10
124.33777067579661
 20
247.6176196995217
 30
0.0
  0
VERTEX
  5
8909
  8
0
 10
124.3166400790663
 20
247.61271405361879
 30
0.0
  0
VERTEX
  5
890A
  8
0
 10
124.2742041307381
 20
247.60352180921299
 30
0.0
  0
VERTEX
  5
890B
  8
0
 10
124.2315578399129
 20
247.59516193731329
 30
0.0
  0
VERTEX
  5
890C
  8
0
 10
124.21016435692481
 20
247.591296471249
 30
0.0
  0
VERTEX
  5
890D
  8
0
 10
124.18872854907789
 20
247.58764174123431
 30
0.0
  0
VERTEX
  5
890E
  8
0
 10
124.1457436577698
 20
247.5809672971433
 30
0.0
  0
VERTEX
  5
890F
  8
0
 10
124.1026304989371
 20
247.57514345633609
 30
0.0
  0
VERTEX
  5
8910
  8
0
 10
124.08103431159959
 20
247.5725516962581
 30
0.0
  0
VERTEX
  5
8911
  8
0
 10
124.05941506848581
 20
247.57017373812951
 30
0.0
  0
VERTEX
  5
8912
  8
0
 10
124.01611371304359
 20
247.56605977205771
 30
0.0
  0
VERTEX
  5
8913
  8
0
 10
123.9727510702707
 20
247.56280343694979
 30
0.0
  0
VERTEX
  5
8914
  8
0
 10
123.9293548136388
 20
247.56040580304369
 30
0.0
  0
VERTEX
  5
8915
  8
0
 10
123.8859529629562
 20
247.5588667682847
 30
0.0
  0
VERTEX
  5
8916
  8
0
 10
123.84257376408441
 20
247.55818502697969
 30
0.0
  0
VERTEX
  5
8917
  8
0
 10
123.8209015181678
 20
247.55816489897899
 30
0.0
  0
VERTEX
  5
8918
  8
0
 10
123.7992455688629
 20
247.55835804938789
 30
0.0
  0
VERTEX
  5
8919
  8
0
 10
123.75599671516029
 20
247.5593820721007
 30
0.0
  0
VERTEX
  5
891A
  8
0
 10
123.7128554069276
 20
247.5612520991163
 30
0.0
  0
VERTEX
  5
891B
  8
0
 10
123.6698495940942
 20
247.56396191361151
 30
0.0
  0
VERTEX
  5
891C
  8
0
 10
123.6270068521371
 20
247.56750410046669
 30
0.0
  0
VERTEX
  5
891D
  8
0
 10
123.58435427951029
 20
247.57187007765211
 30
0.0
  0
VERTEX
  5
891E
  8
0
 10
123.56310769713519
 20
247.57435898687629
 30
0.0
  0
VERTEX
  5
891F
  8
0
 10
123.5419187517407
 20
247.5770500894285
 30
0.0
  0
VERTEX
  5
8920
  8
0
 10
123.4997273652483
 20
247.58303313753811
 30
0.0
  0
VERTEX
  5
8921
  8
0
 10
123.45780738921719
 20
247.58980694085329
 30
0.0
  0
VERTEX
  5
8922
  8
0
 10
123.4161861312557
 20
247.59735791374271
 30
0.0
  0
VERTEX
  5
8923
  8
0
 10
123.37489080608999
 20
247.60567115627751
 30
0.0
  0
VERTEX
  5
8924
  8
0
 10
123.33394840728501
 20
247.61473045595369
 30
0.0
  0
VERTEX
  5
8925
  8
0
 10
123.3136178993645
 20
247.61953445488251
 30
0.0
  0
VERTEX
  5
8926
  8
0
 10
123.2933855818312
 20
247.6245183007232
 30
0.0
  0
VERTEX
  5
8927
  8
0
 10
123.2532285073503
 20
247.63501590320939
 30
0.0
  0
VERTEX
  5
8928
  8
0
 10
123.2135027715895
 20
247.64620323611251
 30
0.0
  0
VERTEX
  5
8929
  8
0
 10
123.1742115883893
 20
247.65806584106949
 30
0.0
  0
VERTEX
  5
892A
  8
0
 10
123.1350389367593
 20
247.6706958307567
 30
0.0
  0
VERTEX
  5
892B
  8
0
 10
123.0958975975409
 20
247.68413136457471
 30
0.0
  0
VERTEX
  5
892C
  8
0
 10
123.076348548954
 20
247.69115192609439
 30
0.0
  0
VERTEX
  5
892D
  8
0
 10
123.0568191658522
 20
247.6983745652484
 30
0.0
  0
VERTEX
  5
892E
  8
0
 10
123.0178350627354
 20
247.71342622816169
 30
0.0
  0
VERTEX
  5
892F
  8
0
 10
122.9789764173498
 20
247.72928585625701
 30
0.0
  0
VERTEX
  5
8930
  8
0
 10
122.9402739542171
 20
247.74595170479199
 30
0.0
  0
VERTEX
  5
8931
  8
0
 10
122.9017578851844
 20
247.76342083601611
 30
0.0
  0
VERTEX
  5
8932
  8
0
 10
122.86345780588159
 20
247.78168918387891
 30
0.0
  0
VERTEX
  5
8933
  8
0
 10
122.844397818025
 20
247.7911215031078
 30
0.0
  0
VERTEX
  5
8934
  8
0
 10
122.8254025965669
 20
247.8007516289214
 30
0.0
  0
VERTEX
  5
8935
  8
0
 10
122.7876203273764
 20
247.82060208353931
 30
0.0
  0
VERTEX
  5
8936
  8
0
 10
122.7501381788572
 20
247.84123358175989
 30
0.0
  0
VERTEX
  5
8937
  8
0
 10
122.7315179389222
 20
247.85183979655139
 30
0.0
  0
VERTEX
  5
8938
  8
0
 10
122.7129826365309
 20
247.8626382194897
 30
0.0
  0
VERTEX
  5
8939
  8
0
 10
122.6761798905581
 20
247.88480693778149
 30
0.0
  0
VERTEX
  5
893A
  8
0
 10
122.6397558138892
 20
247.90772951020301
 30
0.0
  0
VERTEX
  5
893B
  8
0
 10
122.6216937481006
 20
247.91946998731069
 30
0.0
  0
VERTEX
  5
893C
  8
0
 10
122.60373585307271
 20
247.93139458655071
 30
0.0
  0
VERTEX
  5
893D
  8
0
 10
122.5681449254626
 20
247.95578974457399
 30
0.0
  0
VERTEX
  5
893E
  8
0
 10
122.53300732270461
 20
247.98090154958359
 30
0.0
  0
VERTEX
  5
893F
  8
0
 10
122.4983466203029
 20
248.00671562195799
 30
0.0
  0
VERTEX
  5
8940
  8
0
 10
122.4641855931261
 20
248.0332167126077
 30
0.0
  0
VERTEX
  5
8941
  8
0
 10
122.430546136769
 20
248.0603887865021
 30
0.0
  0
VERTEX
  5
8942
  8
0
 10
122.4139285815601
 20
248.07422123871959
 30
0.0
  0
VERTEX
  5
8943
  8
0
 10
122.3974491623531
 20
248.0882151422035
 30
0.0
  0
VERTEX
  5
8944
  8
0
 10
122.3649087821744
 20
248.11668364641821
 30
0.0
  0
VERTEX
  5
8945
  8
0
 10
122.332940312532
 20
248.14578039580471
 30
0.0
  0
VERTEX
  5
8946
  8
0
 10
122.30156307183189
 20
248.17548673123889
 30
0.0
  0
VERTEX
  5
8947
  8
0
 10
122.27079581125319
 20
248.20578296710309
 30
0.0
  0
VERTEX
  5
8948
  8
0
 10
122.2406566143362
 20
248.23664845088689
 30
0.0
  0
VERTEX
  5
8949
  8
0
 10
122.2258279852921
 20
248.252287958643
 30
0.0
  0
VERTEX
  5
894A
  8
0
 10
122.21116280410691
 20
248.2680616295259
 30
0.0
  0
VERTEX
  5
894B
  8
0
 10
122.18233085755401
 20
248.3000001224226
 30
0.0
  0
VERTEX
  5
894C
  8
0
 10
122.15417632729439
 20
248.33244080118689
 30
0.0
  0
VERTEX
  5
894D
  8
0
 10
122.1267137702946
 20
248.36535987619951
 30
0.0
  0
VERTEX
  5
894E
  8
0
 10
122.0999566835614
 20
248.3987329901708
 30
0.0
  0
VERTEX
  5
894F
  8
0
 10
122.07391744750279
 20
248.4325353179444
 30
0.0
  0
VERTEX
  5
8950
  8
0
 10
122.0611705904132
 20
248.44958955612179
 30
0.0
  0
VERTEX
  5
8951
  8
0
 10
122.0486073716678
 20
248.46674154195591
 30
0.0
  0
VERTEX
  5
8952
  8
0
 10
122.0240369795452
 20
248.50132546897851
 30
0.0
  0
VERTEX
  5
8953
  8
0
 10
122.0002160429438
 20
248.53625991702631
 30
0.0
  0
VERTEX
  5
8954
  8
0
 10
121.9771534797123
 20
248.571516786758
 30
0.0
  0
VERTEX
  5
8955
  8
0
 10
121.95485725856869
 20
248.60706714199461
 30
0.0
  0
VERTEX
  5
8956
  8
0
 10
121.93333431356611
 20
248.6428812956643
 30
0.0
  0
VERTEX
  5
8957
  8
0
 10
121.922864684667
 20
248.66087783674499
 30
0.0
  0
VERTEX
  5
8958
  8
0
 10
121.9125904679547
 20
248.6789289011391
 30
0.0
  0
VERTEX
  5
8959
  8
0
 10
121.89263036721169
 20
248.715179049049
 30
0.0
  0
VERTEX
  5
895A
  8
0
 10
121.87345742103921
 20
248.75160036978679
 30
0.0
  0
VERTEX
  5
895B
  8
0
 10
121.8550737541654
 20
248.78816114204221
 30
0.0
  0
VERTEX
  5
895C
  8
0
 10
121.8373935609966
 20
248.82501429256911
 30
0.0
  0
VERTEX
  5
895D
  8
0
 10
121.8202871011926
 20
248.86244525619449
 30
0.0
  0
VERTEX
  5
895E
  8
0
 10
121.8119568304608
 20
248.88137198965259
 30
0.0
  0
VERTEX
  5
895F
  8
0
 10
121.8037796991898
 20
248.90043553605611
 30
0.0
  0
VERTEX
  5
8960
  8
0
 10
121.787897859102
 20
248.93896067181609
 30
0.0
  0
VERTEX
  5
8961
  8
0
 10
121.77266673028549
 20
248.9779953830236
 30
0.0
  0
VERTEX
  5
8962
  8
0
 10
121.7653026570234
 20
248.99769573695099
 30
0.0
  0
VERTEX
  5
8963
  8
0
 10
121.7581100502001
 20
249.01751369924031
 30
0.0
  0
VERTEX
  5
8964
  8
0
 10
121.74425009950551
 20
249.05748909524951
 30
0.0
  0
VERTEX
  5
8965
  8
0
 10
121.73110766933701
 20
249.09789463189841
 30
0.0
  0
VERTEX
  5
8966
  8
0
 10
121.724811609105
 20
249.1182502073224
 30
0.0
  0
VERTEX
  5
8967
  8
0
 10
121.71870204087941
 20
249.13870310304091
 30
0.0
  0
VERTEX
  5
8968
  8
0
 10
121.7070509775309
 20
249.1798871889051
 30
0.0
  0
VERTEX
  5
8969
  8
0
 10
121.6961707524907
 20
249.2214195270677
 30
0.0
  0
VERTEX
  5
896A
  8
0
 10
121.6860762970291
 20
249.26327227832661
 30
0.0
  0
VERTEX
  5
896B
  8
0
 10
121.6767812533446
 20
249.30541686892559
 30
0.0
  0
VERTEX
  5
896C
  8
0
 10
121.66829792187509
 20
249.34782410242241
 30
0.0
  0
VERTEX
  5
896D
  8
0
 10
121.6643641136633
 20
249.3691169488126
 30
0.0
  0
VERTEX
  5
896E
  8
0
 10
121.660637215368
 20
249.39046429273219
 30
0.0
  0
VERTEX
  5
896F
  8
0
 10
121.6538086252844
 20
249.43330739882009
 30
0.0
  0
VERTEX
  5
8970
  8
0
 10
121.647820200379
 20
249.47632316146439
 30
0.0
  0
VERTEX
  5
8971
  8
0
 10
121.642678537435
 20
249.51948124250299
 30
0.0
  0
VERTEX
  5
8972
  8
0
 10
121.6383887842556
 20
249.56275136695839
 30
0.0
  0
VERTEX
  5
8973
  8
0
 10
121.6349545627822
 20
249.60610480149481
 30
0.0
  0
VERTEX
  5
8974
  8
0
 10
121.6335588722215
 20
249.6278069027295
 30
0.0
  0
VERTEX
  5
8975
  8
0
 10
121.632377782596
 20
249.64952152252329
 30
0.0
  0
VERTEX
  5
8976
  8
0
 10
121.63066002644651
 20
249.69297289658891
 30
0.0
  0
VERTEX
  5
8977
  8
0
 10
121.6298016403082
 20
249.73642802034701
 30
0.0
  0
VERTEX
  5
8978
  8
0
 10
121.62969442672011
 20
249.7581473272632
 30
0.0
  0
SEQEND
  5
8979
  8
0
  0
POLYLINE
  5
3AEE
  8
0
 66
     1
 10
0.0
 20
0.0
 30
0.0
  0
VERTEX
  5
897A
  8
0
 10
121.62969442672011
 20
305.09814872818032
 30
0.0
  0
VERTEX
  5
897B
  8
0
 10
121.6298016403082
 20
305.11986803509677
 30
0.0
  0
VERTEX
  5
897C
  8
0
 10
121.63066002644651
 20
305.16332315885472
 30
0.0
  0
VERTEX
  5
897D
  8
0
 10
121.632377782596
 20
305.20677453292041
 30
0.0
  0
VERTEX
  5
897E
  8
0
 10
121.6335588722215
 20
305.22848915271408
 30
0.0
  0
VERTEX
  5
897F
  8
0
 10
121.6349545627822
 20
305.25019125394891
 30
0.0
  0
VERTEX
  5
8980
  8
0
 10
121.6383887842556
 20
305.29354468848521
 30
0.0
  0
VERTEX
  5
8981
  8
0
 10
121.642678537435
 20
305.33681481294042
 30
0.0
  0
VERTEX
  5
8982
  8
0
 10
121.647820200379
 20
305.37997289397953
 30
0.0
  0
VERTEX
  5
8983
  8
0
 10
121.6538086252844
 20
305.42298865662332
 30
0.0
  0
VERTEX
  5
8984
  8
0
 10
121.660637215368
 20
305.4658317627115
 30
0.0
  0
VERTEX
  5
8985
  8
0
 10
121.6643641136633
 20
305.48717910663078
 30
0.0
  0
VERTEX
  5
8986
  8
0
 10
121.66829792187509
 20
305.50847195302151
 30
0.0
  0
VERTEX
  5
8987
  8
0
 10
121.6767812533446
 20
305.5508791865181
 30
0.0
  0
VERTEX
  5
8988
  8
0
 10
121.6860762970291
 20
305.59302377711691
 30
0.0
  0
VERTEX
  5
8989
  8
0
 10
121.6961707524907
 20
305.63487652837608
 30
0.0
  0
VERTEX
  5
898A
  8
0
 10
121.7070509775309
 20
305.67640886653868
 30
0.0
  0
VERTEX
  5
898B
  8
0
 10
121.71870204087941
 20
305.71759295240292
 30
0.0
  0
VERTEX
  5
898C
  8
0
 10
121.724811609105
 20
305.73804584812132
 30
0.0
  0
VERTEX
  5
898D
  8
0
 10
121.73110766933701
 20
305.75840142354502
 30
0.0
  0
VERTEX
  5
898E
  8
0
 10
121.74425009950551
 20
305.7988069601941
 30
0.0
  0
VERTEX
  5
898F
  8
0
 10
121.7581100502001
 20
305.83878235620352
 30
0.0
  0
VERTEX
  5
8990
  8
0
 10
121.7653026570234
 20
305.85860031849268
 30
0.0
  0
VERTEX
  5
8991
  8
0
 10
121.77266673028549
 20
305.8783006724201
 30
0.0
  0
VERTEX
  5
8992
  8
0
 10
121.787897859102
 20
305.9173353836278
 30
0.0
  0
VERTEX
  5
8993
  8
0
 10
121.8037796991898
 20
305.9558605193875
 30
0.0
  0
VERTEX
  5
8994
  8
0
 10
121.8119568304608
 20
305.97492406579079
 30
0.0
  0
VERTEX
  5
8995
  8
0
 10
121.8202871011926
 20
305.99385079924912
 30
0.0
  0
VERTEX
  5
8996
  8
0
 10
121.8373935609966
 20
306.0312817628747
 30
0.0
  0
VERTEX
  5
8997
  8
0
 10
121.8550737541654
 20
306.06813491340171
 30
0.0
  0
VERTEX
  5
8998
  8
0
 10
121.87345742103921
 20
306.10469568565679
 30
0.0
  0
VERTEX
  5
8999
  8
0
 10
121.89263036721169
 20
306.14111700639438
 30
0.0
  0
VERTEX
  5
899A
  8
0
 10
121.9125904679547
 20
306.17736715430448
 30
0.0
  0
VERTEX
  5
899B
  8
0
 10
121.922864684667
 20
306.19541821869842
 30
0.0
  0
VERTEX
  5
899C
  8
0
 10
121.93333431356611
 20
306.2134147597796
 30
0.0
  0
VERTEX
  5
899D
  8
0
 10
121.95485725856869
 20
306.24922891344897
 30
0.0
  0
VERTEX
  5
899E
  8
0
 10
121.9771534797123
 20
306.28477926868538
 30
0.0
  0
VERTEX
  5
899F
  8
0
 10
122.0002160429438
 20
306.32003613841732
 30
0.0
  0
VERTEX
  5
89A0
  8
0
 10
122.0240369795452
 20
306.3549705864649
 30
0.0
  0
VERTEX
  5
89A1
  8
0
 10
122.0486073716678
 20
306.3895545134875
 30
0.0
  0
VERTEX
  5
89A2
  8
0
 10
122.0611705904132
 20
306.40670649932161
 30
0.0
  0
VERTEX
  5
89A3
  8
0
 10
122.07391744750279
 20
306.42376073749949
 30
0.0
  0
VERTEX
  5
89A4
  8
0
 10
122.0999566835614
 20
306.45756306527261
 30
0.0
  0
VERTEX
  5
89A5
  8
0
 10
122.1267137702946
 20
306.4909361792441
 30
0.0
  0
VERTEX
  5
89A6
  8
0
 10
122.15417632729439
 20
306.52385525425677
 30
0.0
  0
VERTEX
  5
89A7
  8
0
 10
122.18233085755401
 20
306.55629593302098
 30
0.0
  0
VERTEX
  5
89A8
  8
0
 10
122.21116280410691
 20
306.58823442591768
 30
0.0
  0
VERTEX
  5
89A9
  8
0
 10
122.2258279852921
 20
306.60400809680061
 30
0.0
  0
VERTEX
  5
89AA
  8
0
 10
122.2406566143363
 20
306.61964760455669
 30
0.0
  0
VERTEX
  5
89AB
  8
0
 10
122.27079581125319
 20
306.65051308834052
 30
0.0
  0
VERTEX
  5
89AC
  8
0
 10
122.30156307183189
 20
306.68080932420452
 30
0.0
  0
VERTEX
  5
89AD
  8
0
 10
122.3329403125321
 20
306.7105156596391
 30
0.0
  0
VERTEX
  5
89AE
  8
0
 10
122.3649087821744
 20
306.7396124090252
 30
0.0
  0
VERTEX
  5
89AF
  8
0
 10
122.3974491623531
 20
306.76808091324023
 30
0.0
  0
VERTEX
  5
89B0
  8
0
 10
122.4139285815601
 20
306.78207481672428
 30
0.0
  0
VERTEX
  5
89B1
  8
0
 10
122.430546136769
 20
306.79590726894151
 30
0.0
  0
VERTEX
  5
89B2
  8
0
 10
122.4641855931261
 20
306.82307934283619
 30
0.0
  0
VERTEX
  5
89B3
  8
0
 10
122.4983466203029
 20
306.84958043348541
 30
0.0
  0
VERTEX
  5
89B4
  8
0
 10
122.53300732270461
 20
306.87539450585979
 30
0.0
  0
VERTEX
  5
89B5
  8
0
 10
122.5681449254626
 20
306.90050631086939
 30
0.0
  0
VERTEX
  5
89B6
  8
0
 10
122.60373585307271
 20
306.9249014688927
 30
0.0
  0
VERTEX
  5
89B7
  8
0
 10
122.6216937481006
 20
306.93682606813297
 30
0.0
  0
VERTEX
  5
89B8
  8
0
 10
122.6397558138892
 20
306.94856654524062
 30
0.0
  0
VERTEX
  5
89B9
  8
0
 10
122.6761798905581
 20
306.97148911766192
 30
0.0
  0
VERTEX
  5
89BA
  8
0
 10
122.712982636531
 20
306.99365783595402
 30
0.0
  0
VERTEX
  5
89BB
  8
0
 10
122.7315179389222
 20
307.00445625889199
 30
0.0
  0
VERTEX
  5
89BC
  8
0
 10
122.7501381788573
 20
307.015062473684
 30
0.0
  0
VERTEX
  5
89BD
  8
0
 10
122.7876203273764
 20
307.0356939719041
 30
0.0
  0
VERTEX
  5
89BE
  8
0
 10
122.8254025965669
 20
307.05554442652249
 30
0.0
  0
VERTEX
  5
89BF
  8
0
 10
122.844397818025
 20
307.06517455233569
 30
0.0
  0
VERTEX
  5
89C0
  8
0
 10
122.86345780588159
 20
307.07460687156492
 30
0.0
  0
VERTEX
  5
89C1
  8
0
 10
122.9017578851844
 20
307.0928752194273
 30
0.0
  0
VERTEX
  5
89C2
  8
0
 10
122.9402739542171
 20
307.11034435065159
 30
0.0
  0
VERTEX
  5
89C3
  8
0
 10
122.9789764173498
 20
307.12701019918637
 30
0.0
  0
VERTEX
  5
89C4
  8
0
 10
123.0178350627354
 20
307.14286982728169
 30
0.0
  0
VERTEX
  5
89C5
  8
0
 10
123.0568191658522
 20
307.15792149019518
 30
0.0
  0
VERTEX
  5
89C6
  8
0
 10
123.076348548954
 20
307.16514412934919
 30
0.0
  0
VERTEX
  5
89C7
  8
0
 10
123.0958975975409
 20
307.17216469086873
 30
0.0
  0
VERTEX
  5
89C8
  8
0
 10
123.1350389367593
 20
307.18560022468688
 30
0.0
  0
VERTEX
  5
89C9
  8
0
 10
123.1742115883893
 20
307.19823021437412
 30
0.0
  0
VERTEX
  5
89CA
  8
0
 10
123.2135027715895
 20
307.21009281933141
 30
0.0
  0
VERTEX
  5
89CB
  8
0
 10
123.2532285073503
 20
307.22128015223433
 30
0.0
  0
VERTEX
  5
89CC
  8
0
 10
123.2933855818312
 20
307.23177775472038
 30
0.0
  0
VERTEX
  5
89CD
  8
0
 10
123.3136178993645
 20
307.23676160056118
 30
0.0
  0
VERTEX
  5
89CE
  8
0
 10
123.33394840728501
 20
307.24156559949
 30
0.0
  0
VERTEX
  5
89CF
  8
0
 10
123.37489080608999
 20
307.25062489916621
 30
0.0
  0
VERTEX
  5
89D0
  8
0
 10
123.4161861312557
 20
307.2589381417007
 30
0.0
  0
VERTEX
  5
89D1
  8
0
 10
123.45780738921719
 20
307.26648911459063
 30
0.0
  0
VERTEX
  5
89D2
  8
0
 10
123.4997273652483
 20
307.27326291790553
 30
0.0
  0
VERTEX
  5
89D3
  8
0
 10
123.54191875174079
 20
307.27924596601508
 30
0.0
  0
VERTEX
  5
89D4
  8
0
 10
123.56310769713519
 20
307.28193706856712
 30
0.0
  0
VERTEX
  5
89D5
  8
0
 10
123.58435427951029
 20
307.28442597779127
 30
0.0
  0
VERTEX
  5
89D6
  8
0
 10
123.6270068521371
 20
307.28879195497677
 30
0.0
  0
VERTEX
  5
89D7
  8
0
 10
123.6698495940942
 20
307.29233414183238
 30
0.0
  0
VERTEX
  5
89D8
  8
0
 10
123.7128554069276
 20
307.29504395632711
 30
0.0
  0
VERTEX
  5
89D9
  8
0
 10
123.75599671516029
 20
307.29691398334319
 30
0.0
  0
VERTEX
  5
89DA
  8
0
 10
123.7992455688629
 20
307.29793800605569
 30
0.0
  0
VERTEX
  5
89DB
  8
0
 10
123.8209015181679
 20
307.29813115646459
 30
0.0
  0
VERTEX
  5
89DC
  8
0
 10
123.84257376408441
 20
307.29811102846401
 30
0.0
  0
VERTEX
  5
89DD
  8
0
 10
123.8859529629563
 20
307.29742928715871
 30
0.0
  0
VERTEX
  5
89DE
  8
0
 10
123.9293548136388
 20
307.2958902524
 30
0.0
  0
VERTEX
  5
89DF
  8
0
 10
123.9727510702707
 20
307.29349261849359
 30
0.0
  0
VERTEX
  5
89E0
  8
0
 10
124.01611371304359
 20
307.29023628338581
 30
0.0
  0
VERTEX
  5
89E1
  8
0
 10
124.05941506848581
 20
307.28612231731421
 30
0.0
  0
VERTEX
  5
89E2
  8
0
 10
124.08103431159969
 20
307.28374435918528
 30
0.0
  0
VERTEX
  5
89E3
  8
0
 10
124.1026304989371
 20
307.28115259910749
 30
0.0
  0
VERTEX
  5
89E4
  8
0
 10
124.1457436577698
 20
307.27532875830008
 30
0.0
  0
VERTEX
  5
89E5
  8
0
 10
124.18872854907789
 20
307.26865431420907
 30
0.0
  0
VERTEX
  5
89E6
  8
0
 10
124.21016435692481
 20
307.2649995841947
 30
0.0
  0
VERTEX
  5
89E7
  8
0
 10
124.2315578399129
 20
307.26113411813043
 30
0.0
  0
VERTEX
  5
89E8
  8
0
 10
124.2742041307381
 20
307.25277424623079
 30
0.0
  0
VERTEX
  5
89E9
  8
0
 10
124.3166400790663
 20
307.24358200182479
 30
0.0
  0
VERTEX
  5
89EA
  8
0
 10
124.33777067579661
 20
307.23867635592171
 30
0.0
  0
VERTEX
  5
89EB
  8
0
 10
124.35883852090571
 20
307.2335659069978
 30
0.0
  0
VERTEX
  5
89EC
  8
0
 10
124.4007725901219
 20
307.22273568363443
 30
0.0
  0
VERTEX
  5
89ED
  8
0
 10
124.4424158358442
 20
307.21110222383561
 30
0.0
  0
VERTEX
  5
89EE
  8
0
 10
124.4837423380423
 20
307.19867754961899
 30
0.0
  0
VERTEX
  5
89EF
  8
0
 10
124.5247268214013
 20
307.18547476173228
 30
0.0
  0
VERTEX
  5
89F0
  8
0
 10
124.5653447249298
 20
307.17150799245258
 30
0.0
  0
VERTEX
  5
89F1
  8
0
 10
124.58550864600259
 20
307.1642428368624
 30
0.0
  0
VERTEX
  5
89F2
  8
0
 10
124.60557184752039
 20
307.15679251181371
 30
0.0
  0
VERTEX
  5
89F3
  8
0
 10
124.6453840165245
 20
307.1413448746834
 30
0.0
  0
VERTEX
  5
89F4
  8
0
 10
124.6847571874454
 20
307.12518293490223
 30
0.0
  0
VERTEX
  5
89F5
  8
0
 10
124.7236675802953
 20
307.10832583497643
 30
0.0
  0
VERTEX
  5
89F6
  8
0
 10
124.76209181073099
 20
307.09079398468992
 30
0.0
  0
VERTEX
  5
89F7
  8
0
 10
124.8000070160691
 20
307.07260902885781
 30
0.0
  0
VERTEX
  5
89F8
  8
0
 10
124.8187667622725
 20
307.06327872770828
 30
0.0
  0
VERTEX
  5
89F9
  8
0
 10
124.8373909763597
 20
307.05379380432379
 30
0.0
  0
VERTEX
  5
89FA
  8
0
 10
124.87422223075551
 20
307.0343722861914
 30
0.0
  0
VERTEX
  5
89FB
  8
0
 10
124.910480189461
 20
307.01436952314549
 30
0.0
  0
VERTEX
  5
89FC
  8
0
 10
124.9283880134184
 20
307.0041582776181
 30
0.0
  0
SEQEND
  5
89FD
  8
0
  0
ARC
  5
3AEF
  8
0
 10
107.87969442672011
 20
277.42814802772187
 30
0.0
 40
34.137931034482762
 50
299.96072105990731
 51
60.039279324287548
  0
LINE
  5
3AFC
  8
1
 10
107.87969442671999
 20
220.94444985272571
 30
0.0
 11
107.87969442672011
 21
333.9118462027181
 31
0.0
  0
LINE
  5
3AFD
  8
1
 10
164.36339260171621
 20
277.42814802772187
 30
0.0
 11
51.39599625172383
 21
277.42814802772187
 31
0.0
  0
LINE
  5
3B0A
  8
0
 10
102.44219442672011
 20
120.7214234152728
 30
0.0
 11
102.44219442672011
 21
120.4214234152726
 31
0.0
  0
LINE
  5
3B0B
  8
0
 10
113.31719442672011
 20
120.4214234152726
 30
0.0
 11
113.31719442672011
 21
120.7214234152728
 31
0.0
  0
LINE
  5
3B0C
  8
0
 10
100.62969442672011
 20
139.4214234152727
 30
0.0
 11
100.62969442672011
 21
120.7214234152728
 31
0.0
  0
LINE
  5
3B0D
  8
0
 10
115.12969442672011
 20
120.7214234152728
 30
0.0
 11
115.12969442672011
 21
139.4214234152727
 31
0.0
  0
ARC
  5
3B0E
  8
0
 10
115.12969442672011
 20
141.17142341527261
 30
0.0
 40
1.7499999999999849
 50
270.0
 51
0.0
  0
ARC
  5
3B0F
  8
0
 10
100.62969442672011
 20
141.17142341527261
 30
0.0
 40
1.74999999999999
 50
180.0
 51
270.0
  0
LINE
  5
3B10
  8
0
 10
98.879694426720107
 20
171.42142341527261
 30
0.0
 11
98.879694426720107
 21
141.17142341527261
 31
0.0
  0
LINE
  5
3B11
  8
0
 10
116.87969442672011
 20
141.17142341527261
 30
0.0
 11
116.87969442672011
 21
171.42142341527261
 31
0.0
  0
ARC
  5
3B12
  8
0
 10
107.87969442672011
 20
171.42142341527261
 30
0.0
 40
9.0000000000000178
 50
0.0
 51
180.0
  0
LINE
  5
3B15
  8
0
 10
115.12969442672011
 20
120.7214234152728
 30
0.0
 11
100.62969442672011
 21
120.7214234152728
 31
0.0
  0
LINE
  5
3B16
  8
0
 10
115.12969442672011
 20
139.4214234152727
 30
0.0
 11
100.62969442672011
 21
139.4214234152727
 31
0.0
  0
LINE
  5
3B17
  8
0
 10
116.87969442672011
 20
141.17142341527261
 30
0.0
 11
98.879694426720107
 21
141.17142341527261
 31
0.0
  0
LINE
  5
3B18
  8
0
 10
116.87969442672011
 20
171.42142341527261
 30
0.0
 11
98.879694426720107
 21
171.42142341527261
 31
0.0
  0
LINE
  5
3B22
  8
1
 10
107.87969442672011
 20
76.43772524027645
 30
0.0
 11
107.87969442672011
 21
187.40512159026889
 31
0.0
  0
LINE
  5
3B26
  8
2
 10
102.87969442672011
 20
100.4214234152726
 30
0.0
 11
102.87969442672011
 21
83.42142341527267
 31
0.0
  0
LINE
  5
3B27
  8
2
 10
112.87969442672011
 20
83.42142341527267
 30
0.0
 11
112.87969442672011
 21
100.4214234152726
 31
0.0
  0
LINE
  5
3B2A
  8
0
 10
98.879694426720107
 20
83.621423415272716
 30
0.0
 11
98.879694426720107
 21
83.42142341527267
 31
0.0
  0
LINE
  5
3B2B
  8
0
 10
116.87969442672011
 20
83.42142341527267
 30
0.0
 11
116.87969442672011
 21
83.621423415272716
 31
0.0
  0
ARC
  5
3B2C
  8
0
 10
120.12969442672011
 20
84.121423415272673
 30
0.0
 40
0.4999999999999999
 50
270.0
 51
0.0
  0
ARC
  5
3B2D
  8
0
 10
95.629694426720107
 20
84.121423415272673
 30
0.0
 40
0.4999999999999983
 50
180.0
 51
270.0
  0
LINE
  5
3B2E
  8
0
 10
95.129694426720107
 20
85.421423415272628
 30
0.0
 11
95.129694426720107
 21
84.121423415272673
 31
0.0
  0
LINE
  5
3B2F
  8
0
 10
120.62969442672011
 20
84.121423415272673
 30
0.0
 11
120.62969442672011
 21
85.421423415272628
 31
0.0
  0
ARC
  5
3B30
  8
0
 10
150.71302776005331
 20
107.0880900819394
 30
0.0
 40
6.6666666666666918
 50
270.0
 51
0.0
  0
ARC
  5
3B31
  8
0
 10
65.046361093386849
 20
107.0880900819394
 30
0.0
 40
6.6666666666666847
 50
180.0
 51
270.0
  0
LINE
  5
3B32
  8
0
 10
58.379694426720107
 20
111.12170679685811
 30
0.0
 11
58.379694426720107
 21
107.0880900819394
 31
0.0
  0
LINE
  5
3B33
  8
0
 10
157.37969442672011
 20
107.0880900819394
 30
0.0
 11
157.37969442672011
 21
111.12170679685811
 31
0.0
  0
ARC
  5
3B34
  8
0
 10
137.3796944267196
 20
111.12170679685811
 30
0.0
 40
20.000000000000419
 50
0.0
 51
14.999999999994451
  0
ARC
  5
3B35
  8
0
 10
78.379694426720434
 20
111.12170679685811
 30
0.0
 40
20.000000000000309
 50
165.00000000000551
 51
180.0
  0
LINE
  5
3B36
  8
0
 10
59.768824699640732
 20
118.9390615054777
 30
0.0
 11
59.061177900938787
 21
116.2980876989087
 31
0.0
  0
LINE
  5
3B37
  8
0
 10
156.6982109525014
 20
116.2980876989087
 30
0.0
 11
155.99056415379951
 21
118.9390615054777
 31
0.0
  0
ARC
  5
3B38
  8
0
 10
154.05871250122141
 20
118.4214234152726
 30
0.0
 40
2.0000000000000031
 50
14.999999999994451
 51
90.0
  0
ARC
  5
3B39
  8
0
 10
61.7006763522188
 20
118.4214234152726
 30
0.0
 40
2.0
 50
90.0
 51
165.00000000000551
  0
ARC
  5
3B47
  8
0
 10
142.5443665128866
 20
96.421423415272685
 30
0.0
 40
4.000000000000143
 50
90.0
 51
97.566988078149066
  0
LINE
  5
3B59
  8
0
 10
116.87969442672011
 20
83.42142341527267
 30
0.0
 11
98.879694426720107
 21
83.42142341527267
 31
0.0
  0
LINE
  5
3B5A
  8
0
 10
120.12969442672011
 20
83.621423415272673
 30
0.0
 11
95.629694426720107
 21
83.621423415272673
 31
0.0
  0
LINE
  5
3B5C
  8
0
 10
150.71302776005331
 20
100.4214234152726
 30
0.0
 11
65.046361093386849
 21
100.4214234152726
 31
0.0
  0
LINE
  5
3B61
  8
0
 10
154.05871250122141
 20
120.4214234152726
 30
0.0
 11
61.7006763522188
 21
120.4214234152726
 31
0.0
  0
LINE
  5
3B66
  8
0
 10
120.87969442671999
 20
85.421423415276408
 30
0.0
 11
94.879694426720107
 21
85.421423415272784
 31
0.0
  0
POLYLINE
  5
3B71
  8
0
 66
     1
 10
0.0
 20
0.0
 30
0.0
  0
VERTEX
  5
89FE
  8
0
 10
123.4865326041342
 20
100.3694603748461
 30
0.0
  0
VERTEX
  5
89FF
  8
0
 10
123.45647025966559
 20
100.36787417574421
 30
0.0
  0
VERTEX
  5
8A00
  8
0
 10
123.396181001038
 20
100.3644390475431
 30
0.0
  0
VERTEX
  5
8A01
  8
0
 10
123.33570362259491
 20
100.3606355041286
 30
0.0
  0
VERTEX
  5
8A02
  8
0
 10
123.3054061536497
 20
100.3585884311851
 30
0.0
  0
SEQEND
  5
8A03
  8
0
  0
POLYLINE
  5
3B73
  8
0
 66
     1
 10
0.0
 20
0.0
 30
0.0
  0
VERTEX
  5
8A04
  8
0
 10
122.93575026704561
 20
100.32462942695381
 30
0.0
  0
VERTEX
  5
8A05
  8
0
 10
122.8751736177198
 20
100.3171925301756
 30
0.0
  0
VERTEX
  5
8A06
  8
0
 10
122.75513680391759
 20
100.30055151936899
 30
0.0
  0
VERTEX
  5
8A07
  8
0
 10
122.6368023082336
 20
100.281363383152
 30
0.0
  0
VERTEX
  5
8A08
  8
0
 10
122.5783519479365
 20
100.27074009653229
 30
0.0
  0
SEQEND
  5
8A09
  8
0
  0
LINE
  5
3B75
  8
0
 10
124.1783878923122
 20
100.38658972508711
 30
0.0
 11
142.0176254612029
 21
100.3865897250852
 31
0.0
  0
POLYLINE
  5
3B76
  8
0
 66
     1
 10
0.0
 20
0.0
 30
0.0
  0
VERTEX
  5
8A0A
  8
0
 10
120.8796944267194
 20
98.816415077305706
 30
0.0
  0
VERTEX
  5
8A0B
  8
0
 10
120.8802675125678
 20
98.843813332365698
 30
0.0
  0
VERTEX
  5
8A0C
  8
0
 10
120.8848346562016
 20
98.89937446443264
 30
0.0
  0
VERTEX
  5
8A0D
  8
0
 10
120.89391092485999
 20
98.955799707718143
 30
0.0
  0
VERTEX
  5
8A0E
  8
0
 10
120.9001147555329
 20
98.984278380753494
 30
0.0
  0
VERTEX
  5
8A0F
  8
0
 10
120.9074116496072
 20
99.01289974658107
 30
0.0
  0
VERTEX
  5
8A10
  8
0
 10
120.9252207498014
 20
99.070464495107672
 30
0.0
  0
VERTEX
  5
8A11
  8
0
 10
120.9471911459591
 20
99.128280018275291
 30
0.0
  0
VERTEX
  5
8A12
  8
0
 10
120.9731455545387
 20
99.186131625716143
 30
0.0
  0
VERTEX
  5
8A13
  8
0
 10
121.0028767322806
 20
99.243804344363284
 30
0.0
  0
VERTEX
  5
8A14
  8
0
 10
121.036145072225
 20
99.301079346234715
 30
0.0
  0
VERTEX
  5
8A15
  8
0
 10
121.05402174120729
 20
99.329498559421836
 30
0.0
  0
VERTEX
  5
8A16
  8
0
 10
121.0726779070073
 20
99.35773534156192
 30
0.0
  0
VERTEX
  5
8A17
  8
0
 10
121.1122109529807
 20
99.413606547335803
 30
0.0
  0
VERTEX
  5
8A18
  8
0
 10
121.1554787309378
 20
99.469799449980655
 30
0.0
  0
VERTEX
  5
8A19
  8
0
 10
121.2028650464356
 20
99.526672374412314
 30
0.0
  0
VERTEX
  5
8A1A
  8
0
 10
121.2543430851654
 20
99.584021031053226
 30
0.0
  0
VERTEX
  5
8A1B
  8
0
 10
121.3098582452492
 20
99.641643085249598
 30
0.0
  0
VERTEX
  5
8A1C
  8
0
 10
121.3391059880874
 20
99.670494693050614
 30
0.0
  0
VERTEX
  5
8A1D
  8
0
 10
121.3693319658753
 20
99.699341281744651
 30
0.0
  0
VERTEX
  5
8A1E
  8
0
 10
121.4326622734804
 20
99.756922762832815
 30
0.0
  0
VERTEX
  5
8A1F
  8
0
 10
121.4997199824509
 20
99.814195203204704
 30
0.0
  0
VERTEX
  5
8A20
  8
0
 10
121.5345997873778
 20
99.842656523733467
 30
0.0
  0
VERTEX
  5
8A21
  8
0
 10
121.54313192506849
 20
99.849464949119692
 30
0.0
  0
VERTEX
  5
8A22
  8
0
 10
121.560368337524
 20
99.862920609366938
 30
0.0
  0
VERTEX
  5
8A23
  8
0
 10
121.57783407718669
 20
99.876162422707253
 30
0.0
  0
VERTEX
  5
8A24
  8
0
 10
121.5866528710294
 20
99.882703542538366
 30
0.0
  0
VERTEX
  5
8A25
  8
0
 10
121.5955289068642
 20
99.889191689247596
 30
0.0
  0
VERTEX
  5
8A26
  8
0
 10
121.61345257882741
 20
99.902009722914272
 30
0.0
  0
VERTEX
  5
8A27
  8
0
 10
121.6316048364985
 20
99.914617852042966
 30
0.0
  0
VERTEX
  5
8A28
  8
0
 10
121.6499854161698
 20
99.927017419878894
 30
0.0
  0
VERTEX
  5
8A29
  8
0
 10
121.6685940487382
 20
99.939209784978857
 30
0.0
  0
VERTEX
  5
8A2A
  8
0
 10
121.687430461448
 20
99.951196321520229
 30
0.0
  0
VERTEX
  5
8A2B
  8
0
 10
121.69693399954831
 20
99.957112837838622
 30
0.0
  0
VERTEX
  5
8A2C
  8
0
 10
121.70649437962651
 20
99.962978419517853
 30
0.0
  0
VERTEX
  5
8A2D
  8
0
 10
121.7257855284024
 20
99.974557484948036
 30
0.0
  0
VERTEX
  5
8A2E
  8
0
 10
121.7453036343915
 20
99.985934939783192
 30
0.0
  0
VERTEX
  5
8A2F
  8
0
 10
121.76504842733721
 20
99.997112221941066
 30
0.0
  0
VERTEX
  5
8A30
  8
0
 10
121.7850196416897
 20
100.00809078514951
 30
0.0
  0
VERTEX
  5
8A31
  8
0
 10
121.80521701811131
 20
100.01887209873161
 30
0.0
  0
VERTEX
  5
8A32
  8
0
 10
121.81540043810359
 20
100.02418925027111
 30
0.0
  0
VERTEX
  5
8A33
  8
0
 10
121.8256403048904
 20
100.0294576473172
 30
0.0
  0
VERTEX
  5
8A34
  8
0
 10
121.84628925925
 20
100.0398489304812
 30
0.0
  0
VERTEX
  5
8A35
  8
0
 10
121.86716364853559
 20
100.0500474623197
 30
0.0
  0
VERTEX
  5
8A36
  8
0
 10
121.8776853116007
 20
100.0550749234996
 30
0.0
  0
VERTEX
  5
8A37
  8
0
 10
121.8882632512662
 20
100.06005477096571
 30
0.0
  0
VERTEX
  5
8A38
  8
0
 10
121.9095878580334
 20
100.0698723980508
 30
0.0
  0
VERTEX
  5
8A39
  8
0
 10
121.9311372722335
 20
100.07950189812141
 30
0.0
  0
VERTEX
  5
8A3A
  8
0
 10
121.94199622432301
 20
100.0842465897005
 30
0.0
  0
VERTEX
  5
8A3B
  8
0
 10
121.95291131061821
 20
100.0889448380148
 30
0.0
  0
VERTEX
  5
8A3C
  8
0
 10
121.9749098036493
 20
100.0982027962025
 30
0.0
  0
VERTEX
  5
8A3D
  8
0
 10
121.9971325956428
 20
100.1072773621074
 30
0.0
  0
VERTEX
  5
8A3E
  8
0
 10
122.0195795446909
 20
100.11617013540329
 30
0.0
  0
VERTEX
  5
8A3F
  8
0
 10
122.0422505223482
 20
100.1248827253046
 30
0.0
  0
VERTEX
  5
8A40
  8
0
 10
122.06514541307121
 20
100.1334167498507
 30
0.0
  0
VERTEX
  5
8A41
  8
0
 10
122.076676793057
 20
100.13761730799111
 30
0.0
  0
VERTEX
  5
8A42
  8
0
 10
122.0882641134003
 20
100.1417738351963
 30
0.0
  0
VERTEX
  5
8A43
  8
0
 10
122.11160653087479
 20
100.1499556149124
 30
0.0
  0
VERTEX
  5
8A44
  8
0
 10
122.13517258267279
 20
100.1579637293062
 30
0.0
  0
VERTEX
  5
8A45
  8
0
 10
122.15896219396861
 20
100.1657998247658
 30
0.0
  0
VERTEX
  5
8A46
  8
0
 10
122.1829412121067
 20
100.17345484221801
 30
0.0
  0
VERTEX
  5
8A47
  8
0
 10
122.2070684692943
 20
100.1809189204091
 30
0.0
  0
VERTEX
  5
8A48
  8
0
 10
122.2191867979771
 20
100.1845802811342
 30
0.0
  0
VERTEX
  5
8A49
  8
0
 10
122.2313411274378
 20
100.1881950175123
 30
0.0
  0
VERTEX
  5
8A4A
  8
0
 10
122.2557563869572
 20
100.19528609679401
 30
0.0
  0
VERTEX
  5
8A4B
  8
0
 10
122.2803114384435
 20
100.2021951104027
 30
0.0
  0
VERTEX
  5
8A4C
  8
0
 10
122.3050034637522
 20
100.20892499913241
 30
0.0
  0
VERTEX
  5
8A4D
  8
0
 10
122.32982963708849
 20
100.21547869213011
 30
0.0
  0
VERTEX
  5
8A4E
  8
0
 10
122.35478712607841
 20
100.22185910655109
 30
0.0
  0
VERTEX
  5
8A4F
  8
0
 10
122.3673142272867
 20
100.2249852425316
 30
0.0
  0
VERTEX
  5
8A50
  8
0
 10
122.37987309281959
 20
100.2280691471651
 30
0.0
  0
VERTEX
  5
8A51
  8
0
 10
122.4050846949081
 20
100.234111705912
 30
0.0
  0
VERTEX
  5
8A52
  8
0
 10
122.4304190864342
 20
100.23998966141259
 30
0.0
  0
VERTEX
  5
8A53
  8
0
 10
122.4558734189409
 20
100.24570587843679
 30
0.0
  0
VERTEX
  5
8A54
  8
0
 10
122.48144484234309
 20
100.2512632073289
 30
0.0
  0
VERTEX
  5
8A55
  8
0
 10
122.5071305057982
 20
100.2566644833955
 30
0.0
  0
VERTEX
  5
8A56
  8
0
 10
122.52001528665321
 20
100.25930748338121
 30
0.0
  0
VERTEX
  5
8A57
  8
0
 10
122.5329275585264
 20
100.2619125262552
 30
0.0
  0
VERTEX
  5
8A58
  8
0
 10
122.55883315057361
 20
100.2670101391561
 30
0.0
  0
VERTEX
  5
8A59
  8
0
 10
122.5848444335128
 20
100.27196010825899
 30
0.0
  0
VERTEX
  5
8A5A
  8
0
 10
122.6109585610797
 20
100.27676520189191
 30
0.0
  0
VERTEX
  5
8A5B
  8
0
 10
122.6371726897378
 20
100.2814281697747
 30
0.0
  0
VERTEX
  5
8A5C
  8
0
 10
122.6634839791667
 20
100.2859517422193
 30
0.0
  0
VERTEX
  5
8A5D
  8
0
 10
122.67667517255229
 20
100.288162102865
 30
0.0
  0
VERTEX
  5
8A5E
  8
0
 10
122.6898895926729
 20
100.29033862930351
 30
0.0
  0
VERTEX
  5
8A5F
  8
0
 10
122.7163866975156
 20
100.2945915200216
 30
0.0
  0
VERTEX
  5
8A60
  8
0
 10
122.7429724651448
 20
100.2987130814151
 30
0.0
  0
VERTEX
  5
8A61
  8
0
 10
122.7562977147663
 20
100.30072544084371
 30
0.0
  0
VERTEX
  5
8A62
  8
0
 10
122.7696440713476
 20
100.3027059576804
 30
0.0
  0
VERTEX
  5
8A63
  8
0
 10
122.7963986962999
 20
100.3065727692574
 30
0.0
  0
VERTEX
  5
8A64
  8
0
 10
122.8232335245164
 20
100.3103161119015
 30
0.0
  0
VERTEX
  5
8A65
  8
0
 10
122.83668013616141
 20
100.31214228656449
 30
0.0
  0
VERTEX
  5
8A66
  8
0
 10
122.8501457447008
 20
100.31393855573469
 30
0.0
  0
VERTEX
  5
8A67
  8
0
 10
122.8771325494867
 20
100.3174426442808
 30
0.0
  0
VERTEX
  5
8A68
  8
0
 10
122.90419113507021
 20
100.32083089348311
 30
0.0
  0
VERTEX
  5
8A69
  8
0
 10
122.93131870072919
 20
100.3241057907053
 30
0.0
  0
VERTEX
  5
8A6A
  8
0
 10
122.95850037545981
 20
100.3272684149171
 30
0.0
  0
VERTEX
  5
8A6B
  8
0
 10
122.98570067768409
 20
100.33031774880961
 30
0.0
  0
VERTEX
  5
8A6C
  8
0
 10
122.9993060690433
 20
100.331800758124
 30
0.0
  0
VERTEX
  5
8A6D
  8
0
 10
123.0129143771705
 20
100.33325647147009
 30
0.0
  0
VERTEX
  5
8A6E
  8
0
 10
123.0401380168306
 20
100.33608741743321
 30
0.0
  0
VERTEX
  5
8A6F
  8
0
 10
123.06736814808551
 20
100.3388133672108
 30
0.0
  0
VERTEX
  5
8A70
  8
0
 10
123.0946013303473
 20
100.34143704688761
 30
0.0
  0
VERTEX
  5
8A71
  8
0
 10
123.121834130534
 20
100.343961127711
 30
0.0
  0
VERTEX
  5
8A72
  8
0
 10
123.1490631226186
 20
100.34638822567059
 30
0.0
  0
VERTEX
  5
8A73
  8
0
 10
123.1626751218156
 20
100.3475662083578
 30
0.0
  0
VERTEX
  5
8A74
  8
0
 10
123.1762848872149
 20
100.34872090106769
 30
0.0
  0
VERTEX
  5
8A75
  8
0
 10
123.2034960111981
 20
100.3509616580743
 30
0.0
  0
VERTEX
  5
8A76
  8
0
 10
123.2306930873612
 20
100.35311294427849
 30
0.0
  0
VERTEX
  5
8A77
  8
0
 10
123.25787271410699
 20
100.3551771502177
 30
0.0
  0
VERTEX
  5
8A78
  8
0
 10
123.28503149517481
 20
100.3571566088951
 30
0.0
  0
VERTEX
  5
8A79
  8
0
 10
123.31216603940121
 20
100.3590535952835
 30
0.0
  0
VERTEX
  5
8A7A
  8
0
 10
123.3257231643025
 20
100.3599718563041
 30
0.0
  0
VERTEX
  5
8A7B
  8
0
 10
123.3392729605132
 20
100.3608703258105
 30
0.0
  0
VERTEX
  5
8A7C
  8
0
 10
123.3663488769532
 20
100.3626089578292
 30
0.0
  0
VERTEX
  5
8A7D
  8
0
 10
123.3933904117325
 20
100.36427158906869
 30
0.0
  0
VERTEX
  5
8A7E
  8
0
 10
123.4203941923127
 20
100.3658602570676
 30
0.0
  0
VERTEX
  5
8A7F
  8
0
 10
123.4473568505116
 20
100.3673769385898
 30
0.0
  0
VERTEX
  5
8A80
  8
0
 10
123.4742750224316
 20
100.36882354901709
 30
0.0
  0
VERTEX
  5
8A81
  8
0
 10
123.4877163759772
 20
100.36952115919
 30
0.0
  0
VERTEX
  5
8A82
  8
0
 10
123.50114534840711
 20
100.37020194172619
 30
0.0
  0
VERTEX
  5
8A83
  8
0
 10
123.52796447296851
 20
100.3715139074406
 30
0.0
  0
VERTEX
  5
8A84
  8
0
 10
123.55472904481729
 20
100.3727611735651
 30
0.0
  0
VERTEX
  5
8A85
  8
0
 10
123.5814357168119
 20
100.3739454034946
 30
0.0
  0
VERTEX
  5
8A86
  8
0
 10
123.60808114595611
 20
100.3750681959027
 30
0.0
  0
VERTEX
  5
8A87
  8
0
 10
123.63465686099499
 20
100.3761308842126
 30
0.0
  0
VERTEX
  5
8A88
  8
0
 10
123.64791107611779
 20
100.3766399157994
 30
0.0
  0
VERTEX
  5
8A89
  8
0
 10
123.6611418224574
 20
100.3771343149624
 30
0.0
  0
VERTEX
  5
8A8A
  8
0
 10
123.687531295935
 20
100.3780799776893
 30
0.0
  0
VERTEX
  5
8A8B
  8
0
 10
123.71382205971879
 20
100.37896934897999
 30
0.0
  0
VERTEX
  5
8A8C
  8
0
 10
123.7269294203892
 20
100.3793933663012
 30
0.0
  0
VERTEX
  5
8A8D
  8
0
 10
123.74001089827961
 20
100.3798038305533
 30
0.0
  0
VERTEX
  5
8A8E
  8
0
 10
123.76609460198959
 20
100.3805847491592
 30
0.0
  0
VERTEX
  5
8A8F
  8
0
 10
123.7920699668782
 20
100.3813133564622
 30
0.0
  0
VERTEX
  5
8A90
  8
0
 10
123.80501602251771
 20
100.3816584139565
 30
0.0
  0
VERTEX
  5
8A91
  8
0
 10
123.8179337944199
 20
100.3819908289074
 30
0.0
  0
VERTEX
  5
8A92
  8
0
 10
123.84368289135099
 20
100.38261826756749
 30
0.0
  0
VERTEX
  5
8A93
  8
0
 10
123.86931406951381
 20
100.38319669797581
 30
0.0
  0
VERTEX
  5
8A94
  8
0
 10
123.8948241457236
 20
100.38372706994021
 30
0.0
  0
VERTEX
  5
8A95
  8
0
 10
123.9202099416561
 20
100.3842102573423
 30
0.0
  0
VERTEX
  5
8A96
  8
0
 10
123.9454682837524
 20
100.3846470579176
 30
0.0
  0
VERTEX
  5
8A97
  8
0
 10
123.95804866915761
 20
100.38484829155909
 30
0.0
  0
VERTEX
  5
8A98
  8
0
 10
123.9705960031377
 20
100.3850381930212
 30
0.0
  0
VERTEX
  5
8A99
  8
0
 10
123.9955899355511
 20
100.3853843073757
 30
0.0
  0
VERTEX
  5
8A9A
  8
0
 10
124.02044692128131
 20
100.385685968801
 30
0.0
  0
VERTEX
  5
8A9B
  8
0
 10
124.04516380510699
 20
100.3859436679293
 30
0.0
  0
VERTEX
  5
8A9C
  8
0
 10
124.069737436236
 20
100.3861578178989
 30
0.0
  0
VERTEX
  5
8A9D
  8
0
 10
124.0941646682405
 20
100.3863287540341
 30
0.0
  0
VERTEX
  5
8A9E
  8
0
 10
124.10632239156681
 20
100.3863981002839
 30
0.0
  0
VERTEX
  5
8A9F
  8
0
 10
124.1184400158813
 20
100.38645672318459
 30
0.0
  0
VERTEX
  5
8AA0
  8
0
 10
124.1425482757772
 20
100.3865418842385
 30
0.0
  0
VERTEX
  5
8AA1
  8
0
 10
124.16648486069251
 20
100.38658441215919
 30
0.0
  0
VERTEX
  5
8AA2
  8
0
 10
124.1783878923122
 20
100.38658972508711
 30
0.0
  0
SEQEND
  5
8AA3
  8
0
  0
POINT
  5
3B9C
  8
0
 10
107.87969442672011
 20
180.4214234152727
 30
37.0
210
0.0
220
1.0
230
0.0
  0
LINE
  5
3BA5
  8
0
 10
277.01799430571663
 20
308.9906480277217
 30
0.0
 11
277.31799430571658
 21
308.9906480277217
 31
0.0
  0
LINE
  5
3BA6
  8
0
 10
277.31799430571658
 20
319.8656480277217
 30
0.0
 11
277.01799430571663
 21
319.8656480277217
 31
0.0
  0
LINE
  5
3BA7
  8
0
 10
258.31799430571658
 20
307.1781480277217
 30
0.0
 11
277.01799430571663
 21
307.1781480277217
 31
0.0
  0
LINE
  5
3BA8
  8
0
 10
277.01799430571663
 20
321.6781480277217
 30
0.0
 11
258.31799430571658
 21
321.6781480277217
 31
0.0
  0
ARC
  5
3BAA
  8
0
 10
256.56799430571658
 20
321.6781480277217
 30
0.0
 40
1.7499999999999849
 50
0.0
 51
90.0
  0
ARC
  5
3BAB
  8
0
 10
256.56799430571658
 20
307.1781480277217
 30
0.0
 40
1.7499999999999889
 50
270.0
 51
0.0
  0
LINE
  5
3BAC
  8
0
 10
226.3179943057167
 20
305.4281480277217
 30
0.0
 11
256.56799430571658
 21
305.4281480277217
 31
0.0
  0
LINE
  5
3BAD
  8
0
 10
256.56799430571658
 20
323.4281480277217
 30
0.0
 11
226.3179943057167
 21
323.4281480277217
 31
0.0
  0
ARC
  5
3BAE
  8
0
 10
226.3179943057167
 20
314.4281480277217
 30
0.0
 40
9.0000000000000142
 50
90.0
 51
270.0
  0
LINE
  5
3BB1
  8
0
 10
277.01799430571663
 20
321.6781480277217
 30
0.0
 11
277.01799430571663
 21
307.1781480277217
 31
0.0
  0
LINE
  5
3BB2
  8
0
 10
258.31799430571658
 20
321.6781480277217
 30
0.0
 11
258.31799430571658
 21
307.1781480277217
 31
0.0
  0
LINE
  5
3BB3
  8
0
 10
256.56799430571658
 20
323.4281480277217
 30
0.0
 11
256.56799430571658
 21
305.4281480277217
 31
0.0
  0
LINE
  5
3BB4
  8
0
 10
226.3179943057167
 20
323.4281480277217
 30
0.0
 11
226.3179943057167
 21
305.4281480277217
 31
0.0
  0
LINE
  5
3BBD
  8
1
 10
289.69746007920179
 20
314.4281480277217
 30
0.0
 11
210.3342961307205
 21
314.4281480277217
 31
0.0
  0
LINE
  5
3BC5
  8
0
 10
314.11799430571659
 20
268.4281480277217
 30
0.0
 11
314.31799430571658
 21
268.4281480277217
 31
0.0
  0
LINE
  5
3BC6
  8
0
 10
314.31799430571658
 20
286.4281480277217
 30
0.0
 11
314.11799430571659
 21
286.4281480277217
 31
0.0
  0
ARC
  5
3BC7
  8
0
 10
313.61799430571659
 20
289.6781480277217
 30
0.0
 40
0.4999999999999999
 50
0.0
 51
90.0
  0
LINE
  5
3BCA
  8
0
 10
313.61799430571659
 20
290.1781480277217
 30
0.0
 11
312.31799430571471
 21
290.1781480277217
 31
0.0
  0
ARC
  5
3BCB
  8
0
 10
290.6513276390499
 20
320.26148136105502
 30
0.0
 40
6.6666666666666918
 50
0.0
 51
90.0
  0
ARC
  5
3BCC
  8
0
 10
290.6513276390499
 20
234.59481469438839
 30
0.0
 40
6.6666666666666847
 50
270.0
 51
0.0
  0
LINE
  5
3BCD
  8
0
 10
286.61771092413119
 20
227.9281480277217
 30
0.0
 11
290.6513276390499
 21
227.9281480277217
 31
0.0
  0
LINE
  5
3BCE
  8
0
 10
290.6513276390499
 20
326.9281480277217
 30
0.0
 11
286.61771092413119
 21
326.9281480277217
 31
0.0
  0
ARC
  5
3BCF
  8
0
 10
286.61771092413119
 20
306.92814802772119
 30
0.0
 40
20.000000000000419
 50
90.0
 51
104.9999999999944
  0
ARC
  5
3BD0
  8
0
 10
286.61771092413119
 20
247.92814802772219
 30
0.0
 40
20.000000000000309
 50
255.0000000000056
 51
270.0
  0
LINE
  5
3BD1
  8
0
 10
278.80035621551161
 20
229.31727830064241
 30
0.0
 11
281.44133002208082
 21
228.6096315019405
 31
0.0
  0
LINE
  5
3BD2
  8
0
 10
281.44133002208082
 20
326.24666455350308
 30
0.0
 11
278.80035621551161
 21
325.53901775480119
 31
0.0
  0
ARC
  5
3BD3
  8
0
 10
279.31799430571658
 20
323.607166102223
 30
0.0
 40
2.0000000000000031
 50
104.9999999999944
 51
180.0
  0
ARC
  5
3BD4
  8
0
 10
279.31799430571658
 20
231.2491299532204
 30
0.0
 40
2.0
 50
180.0
 51
255.0000000000056
  0
LINE
  5
3BDA
  8
0
 10
297.31799430571658
 20
243.88052898010289
 30
0.0
 11
312.31799430571471
 21
264.6781480277217
 31
0.0
  0
LINE
  5
3BDB
  8
0
 10
312.31799430571471
 20
290.1781480277217
 30
0.0
 11
297.31799430571658
 21
310.97576707534063
 31
0.0
  0
LINE
  5
3BED
  8
0
 10
314.31799430571658
 20
286.4281480277217
 30
0.0
 11
314.31799430571658
 21
268.4281480277217
 31
0.0
  0
LINE
  5
3BEE
  8
0
 10
314.11799430571659
 20
289.6781480277217
 30
0.0
 11
314.11799430571659
 21
265.1781480277217
 31
0.0
  0
LINE
  5
3BF0
  8
0
 10
297.31799430571658
 20
320.26148136105502
 30
0.0
 11
297.31799430571658
 21
234.59481469438839
 31
0.0
  0
LINE
  5
3BF5
  8
0
 10
277.31799430571658
 20
323.607166102223
 30
0.0
 11
277.31799430571658
 21
231.2491299532204
 31
0.0
  0
LINE
  5
3BFA
  8
0
 10
312.31799430571471
 20
290.1781480277217
 30
0.0
 11
312.31799430571471
 21
264.6781480277217
 31
0.0
  0
POLYLINE
  5
3C12
  8
0
 66
     1
 10
0.0
 20
0.0
 30
0.0
  0
VERTEX
  5
8AA4
  8
0
 10
297.31799430571658
 20
308.09440877463169
 30
0.0
  0
VERTEX
  5
8AA5
  8
0
 10
300.62988947419689
 20
301.91169997704958
 30
0.0
  0
VERTEX
  5
8AA6
  8
0
 10
303.25153981308449
 20
296.79620412344758
 30
0.0
  0
VERTEX
  5
8AA7
  8
0
 10
305.13742472586779
 20
292.82036653228749
 30
0.0
  0
VERTEX
  5
8AA8
  8
0
 10
305.88185941845092
 20
291.1286177625301
 30
0.0
  0
VERTEX
  5
8AA9
  8
0
 10
306.52124443420598
 20
289.58716810009849
 30
0.0
  0
VERTEX
  5
8AAA
  8
0
 10
307.54135484852048
 20
286.8546224367584
 30
0.0
  0
VERTEX
  5
8AAB
  8
0
 10
308.28349531047547
 20
284.46458613905372
 30
0.0
  0
VERTEX
  5
8AAC
  8
0
 10
308.61058234026717
 20
283.1834021438039
 30
0.0
  0
VERTEX
  5
8AAD
  8
0
 10
308.69121007361042
 20
282.8293262291885
 30
0.0
  0
VERTEX
  5
8AAE
  8
0
 10
308.76641377575902
 20
282.47989816804801
 30
0.0
  0
VERTEX
  5
8AAF
  8
0
 10
308.80202318658729
 20
282.3068189303977
 30
0.0
  0
VERTEX
  5
8AB0
  8
0
 10
308.83632510742149
 20
282.13477350948699
 30
0.0
  0
VERTEX
  5
8AB1
  8
0
 10
308.90106495554568
 20
281.7936205356454
 30
0.0
  0
VERTEX
  5
8AB2
  8
0
 10
308.96074397578241
 20
281.45611911266212
 30
0.0
  0
VERTEX
  5
8AB3
  8
0
 10
309.01546308115297
 20
281.1219596150255
 30
0.0
  0
VERTEX
  5
8AB4
  8
0
 10
309.06531388107283
 20
280.790841915344
 30
0.0
  0
VERTEX
  5
8AB5
  8
0
 10
309.11037907439072
 20
280.46247443230271
 30
0.0
  0
VERTEX
  5
8AB6
  8
0
 10
309.13114056251379
 20
280.29923301711699
 30
0.0
  0
VERTEX
  5
8AB7
  8
0
 10
309.15073279967152
 20
280.13657323017821
 30
0.0
  0
VERTEX
  5
8AB8
  8
0
 10
309.18644094554151
 20
279.81286116384979
 30
0.0
  0
VERTEX
  5
8AB9
  8
0
 10
309.21756142357088
 20
279.49106706370009
 30
0.0
  0
VERTEX
  5
8ABA
  8
0
 10
309.24414440582518
 20
279.17092495521649
 30
0.0
  0
VERTEX
  5
8ABB
  8
0
 10
309.26623252893251
 20
278.85217330845069
 30
0.0
  0
VERTEX
  5
8ABC
  8
0
 10
309.28386106622702
 20
278.53455431279201
 30
0.0
  0
VERTEX
  5
8ABD
  8
0
 10
309.29101203514938
 20
278.3760898366528
 30
0.0
  0
VERTEX
  5
8ABE
  8
0
 10
309.29705806927518
 20
278.21781317275929
 30
0.0
  0
VERTEX
  5
8ABF
  8
0
 10
309.30584447985098
 20
277.90169742071919
 30
0.0
  0
VERTEX
  5
8AC0
  8
0
 10
309.3102342131985
 20
277.5859562426055
 30
0.0
  0
VERTEX
  5
8AC1
  8
0
 10
309.31078276725378
 20
277.4281480277217
 30
0.0
  0
VERTEX
  5
8AC2
  8
0
 10
309.3102342131985
 20
277.27033981283819
 30
0.0
  0
VERTEX
  5
8AC3
  8
0
 10
309.30584447985098
 20
276.9545986347245
 30
0.0
  0
VERTEX
  5
8AC4
  8
0
 10
309.29705806927518
 20
276.6384828826844
 30
0.0
  0
VERTEX
  5
8AC5
  8
0
 10
309.29101203514938
 20
276.4802062187909
 30
0.0
  0
VERTEX
  5
8AC6
  8
0
 10
309.28386106622702
 20
276.3217417426514
 30
0.0
  0
VERTEX
  5
8AC7
  8
0
 10
309.26623252893251
 20
276.004122746993
 30
0.0
  0
VERTEX
  5
8AC8
  8
0
 10
309.24414440582518
 20
275.68537110022709
 30
0.0
  0
VERTEX
  5
8AC9
  8
0
 10
309.21756142357088
 20
275.36522899174349
 30
0.0
  0
VERTEX
  5
8ACA
  8
0
 10
309.18644094554151
 20
275.0434348915939
 30
0.0
  0
VERTEX
  5
8ACB
  8
0
 10
309.15073279967152
 20
274.71972282526542
 30
0.0
  0
VERTEX
  5
8ACC
  8
0
 10
309.13114056251379
 20
274.55706303832659
 30
0.0
  0
VERTEX
  5
8ACD
  8
0
 10
309.11037907439072
 20
274.39382162314098
 30
0.0
  0
VERTEX
  5
8ACE
  8
0
 10
309.06531388107283
 20
274.0654541400994
 30
0.0
  0
VERTEX
  5
8ACF
  8
0
 10
309.01546308115297
 20
273.73433644041819
 30
0.0
  0
VERTEX
  5
8AD0
  8
0
 10
308.96074397578241
 20
273.40017694278129
 30
0.0
  0
VERTEX
  5
8AD1
  8
0
 10
308.90106495554568
 20
273.06267551979829
 30
0.0
  0
VERTEX
  5
8AD2
  8
0
 10
308.83632510742149
 20
272.72152254595659
 30
0.0
  0
VERTEX
  5
8AD3
  8
0
 10
308.80202318658729
 20
272.54947712504588
 30
0.0
  0
VERTEX
  5
8AD4
  8
0
 10
308.76641377575902
 20
272.37639788739568
 30
0.0
  0
VERTEX
  5
8AD5
  8
0
 10
308.69121007361042
 20
272.02696982625508
 30
0.0
  0
VERTEX
  5
8AD6
  8
0
 10
308.61058234026717
 20
271.67289391163979
 30
0.0
  0
VERTEX
  5
8AD7
  8
0
 10
308.28349531047547
 20
270.39170991638991
 30
0.0
  0
VERTEX
  5
8AD8
  8
0
 10
307.54135484852048
 20
268.001673618685
 30
0.0
  0
VERTEX
  5
8AD9
  8
0
 10
306.52124443420598
 20
265.26912795534503
 30
0.0
  0
VERTEX
  5
8ADA
  8
0
 10
305.88185941845092
 20
263.72767829291348
 30
0.0
  0
VERTEX
  5
8ADB
  8
0
 10
305.13742472586779
 20
262.03592952315608
 30
0.0
  0
VERTEX
  5
8ADC
  8
0
 10
303.25153981308449
 20
258.06009193199583
 30
0.0
  0
VERTEX
  5
8ADD
  8
0
 10
300.62988947419689
 20
252.9445960783938
 30
0.0
  0
VERTEX
  5
8ADE
  8
0
 10
297.31799430571658
 20
246.76188728081169
 30
0.0
  0
SEQEND
  5
8ADF
  8
0
  0
LINE
  5
3C31
  8
1
 10
270.33429613072047
 20
277.4281480277217
 30
0.0
 11
321.30169248071269
 21
277.4281480277217
 31
0.0
  0
POINT
  5
3C34
  8
0
 10
217.31799430571661
 20
314.4281480277217
 30
-0.0000000000000089
210
-1.0
220
0.0000000000000001
230
0.0
  0
LINE
  5
4625
  8
0
 10
120.8796944267194
 20
98.816415077305706
 30
0.0
 11
120.87969442671999
 21
85.421423415274603
 31
0.0
  0
ARC
  5
5CF2
  8
0
 10
73.21502234055356
 20
96.421423415272685
 30
0.0
 40
4.000000000000143
 50
82.433011921850948
 51
90.0
  0
POLYLINE
  5
5CF3
  8
0
 66
     1
 10
0.0
 20
0.0
 30
0.0
  0
VERTEX
  5
8AE0
  8
0
 10
92.27285624930596
 20
100.3694603748461
 30
0.0
  0
VERTEX
  5
8AE1
  8
0
 10
92.302918593774621
 20
100.36787417574421
 30
0.0
  0
VERTEX
  5
8AE2
  8
0
 10
92.363207852402184
 20
100.3644390475431
 30
0.0
  0
VERTEX
  5
8AE3
  8
0
 10
92.423685230845308
 20
100.3606355041286
 30
0.0
  0
VERTEX
  5
8AE4
  8
0
 10
92.453982699790458
 20
100.3585884311851
 30
0.0
  0
SEQEND
  5
8AE5
  8
0
  0
POLYLINE
  5
5CF4
  8
0
 66
     1
 10
0.0
 20
0.0
 30
0.0
  0
VERTEX
  5
8AE6
  8
0
 10
92.823638586394608
 20
100.32462942695381
 30
0.0
  0
VERTEX
  5
8AE7
  8
0
 10
92.884215235720376
 20
100.3171925301756
 30
0.0
  0
VERTEX
  5
8AE8
  8
0
 10
93.004252049522606
 20
100.30055151936899
 30
0.0
  0
VERTEX
  5
8AE9
  8
0
 10
93.122586545206559
 20
100.281363383152
 30
0.0
  0
VERTEX
  5
8AEA
  8
0
 10
93.181036905503674
 20
100.27074009653229
 30
0.0
  0
SEQEND
  5
8AEB
  8
0
  0
LINE
  5
5CF5
  8
0
 10
91.581000961127984
 20
100.38658972508711
 30
0.0
 11
73.741763392237317
 21
100.3865897250852
 31
0.0
  0
POLYLINE
  5
5CF6
  8
0
 66
     1
 10
0.0
 20
0.0
 30
0.0
  0
VERTEX
  5
8AEC
  8
0
 10
94.879694426720789
 20
98.816415077305706
 30
0.0
  0
VERTEX
  5
8AED
  8
0
 10
94.879121340872416
 20
98.843813332365698
 30
0.0
  0
VERTEX
  5
8AEE
  8
0
 10
94.874554197238581
 20
98.89937446443264
 30
0.0
  0
VERTEX
  5
8AEF
  8
0
 10
94.865477928580177
 20
98.955799707718143
 30
0.0
  0
VERTEX
  5
8AF0
  8
0
 10
94.859274097907246
 20
98.984278380753494
 30
0.0
  0
VERTEX
  5
8AF1
  8
0
 10
94.851977203833016
 20
99.01289974658107
 30
0.0
  0
VERTEX
  5
8AF2
  8
0
 10
94.834168103638817
 20
99.070464495107672
 30
0.0
  0
VERTEX
  5
8AF3
  8
0
 10
94.812197707481104
 20
99.128280018275291
 30
0.0
  0
VERTEX
  5
8AF4
  8
0
 10
94.786243298901468
 20
99.186131625716143
 30
0.0
  0
VERTEX
  5
8AF5
  8
0
 10
94.756512121159631
 20
99.243804344363284
 30
0.0
  0
VERTEX
  5
8AF6
  8
0
 10
94.72324378121516
 20
99.301079346234715
 30
0.0
  0
VERTEX
  5
8AF7
  8
0
 10
94.705367112232921
 20
99.329498559421836
 30
0.0
  0
VERTEX
  5
8AF8
  8
0
 10
94.686710946432868
 20
99.35773534156192
 30
0.0
  0
VERTEX
  5
8AF9
  8
0
 10
94.647177900459496
 20
99.413606547335803
 30
0.0
  0
VERTEX
  5
8AFA
  8
0
 10
94.603910122502384
 20
99.469799449980655
 30
0.0
  0
VERTEX
  5
8AFB
  8
0
 10
94.556523807004609
 20
99.526672374412314
 30
0.0
  0
VERTEX
  5
8AFC
  8
0
 10
94.50504576827484
 20
99.584021031053226
 30
0.0
  0
VERTEX
  5
8AFD
  8
0
 10
94.449530608191026
 20
99.641643085249598
 30
0.0
  0
VERTEX
  5
8AFE
  8
0
 10
94.42028286535276
 20
99.670494693050614
 30
0.0
  0
VERTEX
  5
8AFF
  8
0
 10
94.390056887564924
 20
99.699341281744651
 30
0.0
  0
VERTEX
  5
8B00
  8
0
 10
94.326726579959768
 20
99.756922762832815
 30
0.0
  0
VERTEX
  5
8B01
  8
0
 10
94.259668870989344
 20
99.814195203204704
 30
0.0
  0
VERTEX
  5
8B02
  8
0
 10
94.224789066062385
 20
99.842656523733467
 30
0.0
  0
VERTEX
  5
8B03
  8
0
 10
94.216256928371649
 20
99.849464949119692
 30
0.0
  0
VERTEX
  5
8B04
  8
0
 10
94.199020515916231
 20
99.862920609366938
 30
0.0
  0
VERTEX
  5
8B05
  8
0
 10
94.181554776253506
 20
99.876162422707253
 30
0.0
  0
VERTEX
  5
8B06
  8
0
 10
94.172735982410813
 20
99.882703542538366
 30
0.0
  0
VERTEX
  5
8B07
  8
0
 10
94.163859946575926
 20
99.889191689247596
 30
0.0
  0
VERTEX
  5
8B08
  8
0
 10
94.145936274612836
 20
99.902009722914272
 30
0.0
  0
VERTEX
  5
8B09
  8
0
 10
94.127784016941632
 20
99.914617852042966
 30
0.0
  0
VERTEX
  5
8B0A
  8
0
 10
94.10940343727043
 20
99.927017419878894
 30
0.0
  0
VERTEX
  5
8B0B
  8
0
 10
94.090794804702
 20
99.939209784978857
 30
0.0
  0
VERTEX
  5
8B0C
  8
0
 10
94.071958391992212
 20
99.951196321520229
 30
0.0
  0
VERTEX
  5
8B0D
  8
0
 10
94.062454853891836
 20
99.957112837838622
 30
0.0
  0
VERTEX
  5
8B0E
  8
0
 10
94.052894473813694
 20
99.962978419517853
 30
0.0
  0
VERTEX
  5
8B0F
  8
0
 10
94.033603325037802
 20
99.974557484948036
 30
0.0
  0
VERTEX
  5
8B10
  8
0
 10
94.014085219048638
 20
99.985934939783192
 30
0.0
  0
VERTEX
  5
8B11
  8
0
 10
93.994340426102994
 20
99.997112221941066
 30
0.0
  0
VERTEX
  5
8B12
  8
0
 10
93.974369211750513
 20
100.00809078514951
 30
0.0
  0
VERTEX
  5
8B13
  8
0
 10
93.954171835328907
 20
100.01887209873161
 30
0.0
  0
VERTEX
  5
8B14
  8
0
 10
93.943988415336548
 20
100.02418925027111
 30
0.0
  0
VERTEX
  5
8B15
  8
0
 10
93.933748548549815
 20
100.0294576473172
 30
0.0
  0
VERTEX
  5
8B16
  8
0
 10
93.913099594190157
 20
100.0398489304812
 30
0.0
  0
VERTEX
  5
8B17
  8
0
 10
93.892225204904534
 20
100.0500474623197
 30
0.0
  0
VERTEX
  5
8B18
  8
0
 10
93.881703541839443
 20
100.0550749234996
 30
0.0
  0
VERTEX
  5
8B19
  8
0
 10
93.871125602173933
 20
100.06005477096571
 30
0.0
  0
VERTEX
  5
8B1A
  8
0
 10
93.849800995406781
 20
100.0698723980508
 30
0.0
  0
VERTEX
  5
8B1B
  8
0
 10
93.8282515812067
 20
100.07950189812141
 30
0.0
  0
VERTEX
  5
8B1C
  8
0
 10
93.817392629117194
 20
100.0842465897005
 30
0.0
  0
VERTEX
  5
8B1D
  8
0
 10
93.806477542821995
 20
100.0889448380148
 30
0.0
  0
VERTEX
  5
8B1E
  8
0
 10
93.784479049790875
 20
100.0982027962025
 30
0.0
  0
VERTEX
  5
8B1F
  8
0
 10
93.762256257797375
 20
100.1072773621074
 30
0.0
  0
VERTEX
  5
8B20
  8
0
 10
93.739809308749258
 20
100.11617013540329
 30
0.0
  0
VERTEX
  5
8B21
  8
0
 10
93.717138331091974
 20
100.1248827253046
 30
0.0
  0
VERTEX
  5
8B22
  8
0
 10
93.69424344036895
 20
100.1334167498507
 30
0.0
  0
VERTEX
  5
8B23
  8
0
 10
93.682712060383196
 20
100.13761730799111
 30
0.0
  0
VERTEX
  5
8B24
  8
0
 10
93.671124740039886
 20
100.1417738351963
 30
0.0
  0
VERTEX
  5
8B25
  8
0
 10
93.647782322565376
 20
100.1499556149124
 30
0.0
  0
VERTEX
  5
8B26
  8
0
 10
93.624216270767405
 20
100.1579637293062
 30
0.0
  0
VERTEX
  5
8B27
  8
0
 10
93.600426659471623
 20
100.1657998247658
 30
0.0
  0
VERTEX
  5
8B28
  8
0
 10
93.576447641333516
 20
100.17345484221801
 30
0.0
  0
VERTEX
  5
8B29
  8
0
 10
93.552320384145887
 20
100.1809189204091
 30
0.0
  0
VERTEX
  5
8B2A
  8
0
 10
93.540202055463055
 20
100.1845802811342
 30
0.0
  0
VERTEX
  5
8B2B
  8
0
 10
93.528047726002356
 20
100.1881950175123
 30
0.0
  0
VERTEX
  5
8B2C
  8
0
 10
93.503632466482941
 20
100.19528609679401
 30
0.0
  0
VERTEX
  5
8B2D
  8
0
 10
93.479077414996709
 20
100.2021951104027
 30
0.0
  0
VERTEX
  5
8B2E
  8
0
 10
93.454385389688014
 20
100.20892499913241
 30
0.0
  0
VERTEX
  5
8B2F
  8
0
 10
93.429559216351663
 20
100.21547869213011
 30
0.0
  0
VERTEX
  5
8B30
  8
0
 10
93.404601727361751
 20
100.22185910655109
 30
0.0
  0
VERTEX
  5
8B31
  8
0
 10
93.392074626153544
 20
100.2249852425316
 30
0.0
  0
VERTEX
  5
8B32
  8
0
 10
93.37951576062062
 20
100.2280691471651
 30
0.0
  0
VERTEX
  5
8B33
  8
0
 10
93.354304158532045
 20
100.234111705912
 30
0.0
  0
VERTEX
  5
8B34
  8
0
 10
93.328969767006015
 20
100.23998966141259
 30
0.0
  0
VERTEX
  5
8B35
  8
0
 10
93.303515434499346
 20
100.24570587843679
 30
0.0
  0
VERTEX
  5
8B36
  8
0
 10
93.277944011097134
 20
100.2512632073289
 30
0.0
  0
VERTEX
  5
8B37
  8
0
 10
93.252258347641956
 20
100.2566644833955
 30
0.0
  0
VERTEX
  5
8B38
  8
0
 10
93.239373566786981
 20
100.25930748338121
 30
0.0
  0
VERTEX
  5
8B39
  8
0
 10
93.226461294913733
 20
100.2619125262552
 30
0.0
  0
VERTEX
  5
8B3A
  8
0
 10
93.200555702866595
 20
100.2670101391561
 30
0.0
  0
VERTEX
  5
8B3B
  8
0
 10
93.174544419927415
 20
100.27196010825899
 30
0.0
  0
VERTEX
  5
8B3C
  8
0
 10
93.148430292360445
 20
100.27676520189191
 30
0.0
  0
VERTEX
  5
8B3D
  8
0
 10
93.122216163702419
 20
100.2814281697747
 30
0.0
  0
VERTEX
  5
8B3E
  8
0
 10
93.095904874273515
 20
100.2859517422193
 30
0.0
  0
VERTEX
  5
8B3F
  8
0
 10
93.082713680887863
 20
100.288162102865
 30
0.0
  0
VERTEX
  5
8B40
  8
0
 10
93.069499260767316
 20
100.29033862930351
 30
0.0
  0
VERTEX
  5
8B41
  8
0
 10
93.043002155924569
 20
100.2945915200216
 30
0.0
  0
VERTEX
  5
8B42
  8
0
 10
93.016416388295397
 20
100.2987130814151
 30
0.0
  0
VERTEX
  5
8B43
  8
0
 10
93.003091138673881
 20
100.30072544084371
 30
0.0
  0
VERTEX
  5
8B44
  8
0
 10
92.989744782092544
 20
100.3027059576804
 30
0.0
  0
VERTEX
  5
8B45
  8
0
 10
92.962990157140325
 20
100.3065727692574
 30
0.0
  0
VERTEX
  5
8B46
  8
0
 10
92.936155328923746
 20
100.3103161119015
 30
0.0
  0
VERTEX
  5
8B47
  8
0
 10
92.922708717278738
 20
100.31214228656449
 30
0.0
  0
VERTEX
  5
8B48
  8
0
 10
92.909243108739361
 20
100.31393855573469
 30
0.0
  0
VERTEX
  5
8B49
  8
0
 10
92.882256303953454
 20
100.3174426442808
 30
0.0
  0
VERTEX
  5
8B4A
  8
0
 10
92.855197718369936
 20
100.32083089348311
 30
0.0
  0
VERTEX
  5
8B4B
  8
0
 10
92.828070152711007
 20
100.3241057907053
 30
0.0
  0
VERTEX
  5
8B4C
  8
0
 10
92.800888477980379
 20
100.3272684149171
 30
0.0
  0
VERTEX
  5
8B4D
  8
0
 10
92.773688175756092
 20
100.33031774880961
 30
0.0
  0
VERTEX
  5
8B4E
  8
0
 10
92.7600827843969
 20
100.331800758124
 30
0.0
  0
VERTEX
  5
8B4F
  8
0
 10
92.746474476269654
 20
100.33325647147009
 30
0.0
  0
VERTEX
  5
8B50
  8
0
 10
92.719250836609604
 20
100.33608741743321
 30
0.0
  0
VERTEX
  5
8B51
  8
0
 10
92.692020705354693
 20
100.3388133672108
 30
0.0
  0
VERTEX
  5
8B52
  8
0
 10
92.664787523092855
 20
100.34143704688761
 30
0.0
  0
VERTEX
  5
8B53
  8
0
 10
92.637554722906202
 20
100.343961127711
 30
0.0
  0
VERTEX
  5
8B54
  8
0
 10
92.610325730821614
 20
100.34638822567059
 30
0.0
  0
VERTEX
  5
8B55
  8
0
 10
92.596713731624604
 20
100.3475662083578
 30
0.0
  0
VERTEX
  5
8B56
  8
0
 10
92.583103966225281
 20
100.34872090106769
 30
0.0
  0
VERTEX
  5
8B57
  8
0
 10
92.555892842242088
 20
100.3509616580743
 30
0.0
  0
VERTEX
  5
8B58
  8
0
 10
92.528695766078954
 20
100.35311294427849
 30
0.0
  0
VERTEX
  5
8B59
  8
0
 10
92.501516139333148
 20
100.3551771502177
 30
0.0
  0
VERTEX
  5
8B5A
  8
0
 10
92.474357358265365
 20
100.3571566088951
 30
0.0
  0
VERTEX
  5
8B5B
  8
0
 10
92.447222814039037
 20
100.3590535952835
 30
0.0
  0
VERTEX
  5
8B5C
  8
0
 10
92.433665689137683
 20
100.3599718563041
 30
0.0
  0
VERTEX
  5
8B5D
  8
0
 10
92.420115892927015
 20
100.3608703258105
 30
0.0
  0
VERTEX
  5
8B5E
  8
0
 10
92.393039976486989
 20
100.3626089578292
 30
0.0
  0
VERTEX
  5
8B5F
  8
0
 10
92.365998441707674
 20
100.36427158906869
 30
0.0
  0
VERTEX
  5
8B60
  8
0
 10
92.338994661127444
 20
100.3658602570676
 30
0.0
  0
VERTEX
  5
8B61
  8
0
 10
92.312032002928618
 20
100.3673769385898
 30
0.0
  0
VERTEX
  5
8B62
  8
0
 10
92.285113831008644
 20
100.36882354901709
 30
0.0
  0
VERTEX
  5
8B63
  8
0
 10
92.271672477462971
 20
100.36952115919
 30
0.0
  0
VERTEX
  5
8B64
  8
0
 10
92.258243505033064
 20
100.37020194172619
 30
0.0
  0
VERTEX
  5
8B65
  8
0
 10
92.231424380471708
 20
100.3715139074406
 30
0.0
  0
VERTEX
  5
8B66
  8
0
 10
92.204659808622864
 20
100.3727611735651
 30
0.0
  0
VERTEX
  5
8B67
  8
0
 10
92.177953136628275
 20
100.3739454034946
 30
0.0
  0
VERTEX
  5
8B68
  8
0
 10
92.151307707484065
 20
100.3750681959027
 30
0.0
  0
VERTEX
  5
8B69
  8
0
 10
92.124731992445163
 20
100.3761308842126
 30
0.0
  0
VERTEX
  5
8B6A
  8
0
 10
92.111477777322406
 20
100.3766399157994
 30
0.0
  0
VERTEX
  5
8B6B
  8
0
 10
92.098247030982748
 20
100.3771343149624
 30
0.0
  0
VERTEX
  5
8B6C
  8
0
 10
92.071857557505155
 20
100.3780799776893
 30
0.0
  0
VERTEX
  5
8B6D
  8
0
 10
92.045566793721363
 20
100.37896934897999
 30
0.0
  0
VERTEX
  5
8B6E
  8
0
 10
92.032459433051045
 20
100.3793933663012
 30
0.0
  0
VERTEX
  5
8B6F
  8
0
 10
92.019377955160621
 20
100.3798038305533
 30
0.0
  0
VERTEX
  5
8B70
  8
0
 10
91.993294251450607
 20
100.3805847491592
 30
0.0
  0
VERTEX
  5
8B71
  8
0
 10
91.967318886561998
 20
100.3813133564622
 30
0.0
  0
VERTEX
  5
8B72
  8
0
 10
91.954372830922466
 20
100.3816584139565
 30
0.0
  0
VERTEX
  5
8B73
  8
0
 10
91.941455059020313
 20
100.3819908289074
 30
0.0
  0
VERTEX
  5
8B74
  8
0
 10
91.915705962089191
 20
100.38261826756749
 30
0.0
  0
VERTEX
  5
8B75
  8
0
 10
91.890074783926366
 20
100.38319669797581
 30
0.0
  0
VERTEX
  5
8B76
  8
0
 10
91.864564707716568
 20
100.38372706994021
 30
0.0
  0
VERTEX
  5
8B77
  8
0
 10
91.839178911784074
 20
100.3842102573423
 30
0.0
  0
VERTEX
  5
8B78
  8
0
 10
91.813920569687753
 20
100.3846470579176
 30
0.0
  0
VERTEX
  5
8B79
  8
0
 10
91.801340184282594
 20
100.38484829155909
 30
0.0
  0
VERTEX
  5
8B7A
  8
0
 10
91.788792850302457
 20
100.3850381930212
 30
0.0
  0
VERTEX
  5
8B7B
  8
0
 10
91.763798917889062
 20
100.3853843073757
 30
0.0
  0
VERTEX
  5
8B7C
  8
0
 10
91.738941932158909
 20
100.385685968801
 30
0.0
  0
VERTEX
  5
8B7D
  8
0
 10
91.714225048333205
 20
100.3859436679293
 30
0.0
  0
VERTEX
  5
8B7E
  8
0
 10
91.689651417204232
 20
100.3861578178989
 30
0.0
  0
VERTEX
  5
8B7F
  8
0
 10
91.665224185199691
 20
100.3863287540341
 30
0.0
  0
VERTEX
  5
8B80
  8
0
 10
91.653066461873436
 20
100.3863981002839
 30
0.0
  0
VERTEX
  5
8B81
  8
0
 10
91.640948837558881
 20
100.38645672318459
 30
0.0
  0
VERTEX
  5
8B82
  8
0
 10
91.61684057766297
 20
100.3865418842385
 30
0.0
  0
VERTEX
  5
8B83
  8
0
 10
91.592903992747665
 20
100.38658441215919
 30
0.0
  0
VERTEX
  5
8B84
  8
0
 10
91.581000961127984
 20
100.38658972508711
 30
0.0
  0
SEQEND
  5
8B85
  8
0
  0
LINE
  5
5CF7
  8
0
 10
94.879694426720789
 20
98.816415077305706
 30
0.0
 11
94.879694426720164
 21
85.421423415274603
 31
0.0
  0
LINE
  5
5D3F
  8
2
 10
116.87969442672011
 20
83.621423415272716
 30
0.0
 11
116.87969442672011
 21
99.42142341527267
 31
0.0
  0
LINE
  5
5D43
  8
2
 10
118.12969442672011
 20
103.4214234152726
 30
0.0
 11
118.12969442672011
 21
100.4214234152726
 31
0.0
  0
LINE
  5
5D44
  8
2
 10
97.629694426720107
 20
103.4214234152726
 30
0.0
 11
97.629694426720107
 21
100.4214234152726
 31
0.0
  0
LINE
  5
5D75
  8
2
 10
118.12969442672011
 20
103.4214234152726
 30
0.0
 11
97.629694426720107
 21
103.4214234152726
 31
0.0
  0
LINE
  5
5D7D
  8
2
 10
115.87969442672011
 20
99.42142341527267
 30
0.0
 11
116.87969442672011
 21
99.42142341527267
 31
0.0
  0
LINE
  5
5D7F
  8
2
 10
115.87969442672011
 20
100.4214234152726
 30
0.0
 11
115.87969442672011
 21
99.42142341527267
 31
0.0
  0
LINE
  5
5D81
  8
2
 10
98.879694426720107
 20
83.621423415272716
 30
0.0
 11
98.879694426720107
 21
99.42142341527267
 31
0.0
  0
LINE
  5
5D82
  8
2
 10
99.879694426720107
 20
99.42142341527267
 30
0.0
 11
98.879694426720107
 21
99.42142341527267
 31
0.0
  0
LINE
  5
5D83
  8
2
 10
99.87969442672005
 20
100.4214234152726
 30
0.0
 11
99.879694426720107
 21
99.42142341527267
 31
0.0
  0
LINE
  5
5D84
  8
2
 10
118.12969442671999
 20
100.4214234152726
 30
0.0
 11
97.629694426720107
 21
100.4214234152726
 31
0.0
  0
LINE
  5
5EAB
  8
2
 10
297.31799430571658
 20
272.4281480277217
 30
0.0
 11
314.31799430571658
 21
272.4281480277217
 31
0.0
  0
LINE
  5
5EAC
  8
2
 10
314.31799430571658
 20
282.4281480277217
 30
0.0
 11
297.31799430571658
 21
282.4281480277217
 31
0.0
  0
LINE
  5
5EAD
  8
2
 10
314.11799430571659
 20
286.4281480277217
 30
0.0
 11
298.31799430571658
 21
286.4281480277217
 31
0.0
  0
LINE
  5
5EAE
  8
2
 10
294.31799430571658
 20
287.6781480277217
 30
0.0
 11
297.31799430571658
 21
287.6781480277217
 31
0.0
  0
LINE
  5
5EAF
  8
2
 10
294.31799430571658
 20
267.1781480277217
 30
0.0
 11
297.31799430571658
 21
267.1781480277217
 31
0.0
  0
LINE
  5
5EB0
  8
2
 10
294.31799430571658
 20
287.6781480277217
 30
0.0
 11
294.31799430571658
 21
267.1781480277217
 31
0.0
  0
LINE
  5
5EB1
  8
2
 10
298.31799430571658
 20
285.4281480277217
 30
0.0
 11
298.31799430571658
 21
286.4281480277217
 31
0.0
  0
LINE
  5
5EB2
  8
2
 10
297.31799430571658
 20
285.4281480277217
 30
0.0
 11
298.31799430571658
 21
285.4281480277217
 31
0.0
  0
LINE
  5
5EB3
  8
2
 10
297.31799430571658
 20
285.4281480277217
 30
0.0
 11
297.31799430571658
 21
287.6781480277217
 31
0.0
  0
LINE
  5
5EB4
  8
2
 10
314.11799430571659
 20
268.4281480277217
 30
0.0
 11
298.31799430571658
 21
268.4281480277217
 31
0.0
  0
LINE
  5
5EB5
  8
2
 10
298.31799430571658
 20
269.4281480277217
 30
0.0
 11
298.31799430571658
 21
268.4281480277217
 31
0.0
  0
LINE
  5
5EB6
  8
2
 10
297.31799430571658
 20
269.4281480277217
 30
0.0
 11
298.31799430571658
 21
269.4281480277217
 31
0.0
  0
LINE
  5
5EB7
  8
2
 10
297.31799430571658
 20
269.4281480277217
 30
0.0
 11
297.31799430571658
 21
267.1781480277217
 31
0.0
  0
LINE
  5
5EFF
  8
0
 10
116.87969442671999
 20
100.4214234152726
 30
0.0
 11
116.87969442671999
 21
85.421423415274404
 31
0.0
  0
LINE
  5
5F00
  8
0
 10
98.879694426720164
 20
100.4214234152726
 30
0.0
 11
98.879694426720164
 21
85.421423415274404
 31
0.0
  0
LINE
  5
869E
  8
0
 10
121.62969442672011
 20
305.09814872818032
 30
0.0
 11
121.62969442672011
 21
249.7581473272632
 31
0.0
  0
LINE
  5
869F
  8
0
 10
94.129694426720107
 20
305.09814872818032
 30
0.0
 11
94.129694426720135
 21
249.6988556724117
 31
0.0
  0
ARC
  5
872D
  8
0
 10
313.61799430571659
 20
265.1781480277217
 30
0.0
 40
0.4999999999999999
 50
270.0
 51
0.0
  0
LINE
  5
872E
  8
0
 10
313.61799430571659
 20
264.6781480277217
 30
0.0
 11
312.31799430571471
 21
264.6781480277217
 31
0.0
  0
TEXT
  5
878C
  8
0
 62
     3
 10
0.0
 20
0.0
 30
0.0
 40
10.0
  1
TWN100
  7
STANDARD1
  0
ENDSEC
  0
EOF
