  0
SECTION
  2
HEADER
  9
$ACADVER
  1
AC1009
  9
$INSBASE
 10
0.0
 20
0.0
 30
0.0
  9
$EXTMIN
 10
0.0
 20
-2.960436562073669
 30
0.0
  9
$EXTMAX
 10
216.9999997317791
 20
229.00000317022199
 30
0.0
  9
$LIMMIN
 10
0.0
 20
0.0
  9
$LIMMAX
 10
375.0
 20
270.0
  9
$ORTHOMODE
 70
     1
  9
$REGENMODE
 70
     1
  9
$FILLMODE
 70
     1
  9
$QTEXTMODE
 70
     0
  9
$MIRRTEXT
 70
     0
  9
$DRAGMODE
 70
     2
  9
$LTSCALE
 40
10.0
  9
$OSMODE
 70
    37
  9
$ATTMODE
 70
     1
  9
$TEXTSIZE
 40
0.2
  9
$TRACEWID
 40
0.05
  9
$TEXTSTYLE
  7
STANDARD
  9
$CLAYER
  8
0
  9
$CELTYPE
  6
BYLAYER
  9
$CECOLOR
 62
   256
  9
$DIMSCALE
 40
1.0
  9
$DIMASZ
 40
3.0
  9
$DIMEXO
 40
2.0
  9
$DIMDLI
 40
0.38
  9
$DIMRND
 40
0.0
  9
$DIMDLE
 40
0.0
  9
$DIMEXE
 40
2.0
  9
$DIMTP
 40
0.0
  9
$DIMTM
 40
0.0
  9
$DIMTXT
 40
3.2000000000000002
  9
$DIMCEN
 40
0.0
  9
$DIMTSZ
 40
0.0
  9
$DIMTOL
 70
     0
  9
$DIMLIM
 70
     0
  9
$DIMTIH
 70
     0
  9
$DIMTOH
 70
     0
  9
$DIMSE1
 70
     0
  9
$DIMSE2
 70
     0
  9
$DIMTAD
 70
     1
  9
$DIMZIN
 70
     0
  9
$DIMBLK
  1

  9
$DIMASO
 70
     0
  9
$DIMSHO
 70
     0
  9
$DIMPOST
  1

  9
$DIMAPOST
  1

  9
$DIMALT
 70
     0
  9
$DIMALTD
 70
     2
  9
$DIMALTF
 40
25.399999999999999
  9
$DIMLFAC
 40
1.0
  9
$DIMTOFL
 70
     0
  9
$DIMTVP
 40
1.6000000000000001
  9
$DIMTIX
 70
     1
  9
$DIMSOXD
 70
     0
  9
$DIMSAH
 70
     0
  9
$DIMBLK1
  1

  9
$DIMBLK2
  1

  9
$DIMSTYLE
  2
STANDARD
  9
$DIMCLRD
 70
     4
  9
$DIMCLRE
 70
     4
  9
$DIMCLRT
 70
     4
  9
$DIMTFAC
 40
1.0
  9
$DIMGAP
 40
0.09
  9
$LUNITS
 70
     2
  9
$LUPREC
 70
     1
  9
$SKETCHINC
 40
0.1
  9
$FILLETRAD
 40
0.0
  9
$AUNITS
 70
     0
  9
$AUPREC
 70
     1
  9
$MENU
  1
E:\r13\win\SUPPORT\ACAD
  9
$ELEVATION
 40
0.0
  9
$PELEVATION
 40
0.0
  9
$THICKNESS
 40
0.0
  9
$LIMCHECK
 70
     0
  9
$BLIPMODE
 70
     0
  9
$CHAMFERA
 40
0.0
  9
$CHAMFERB
 40
0.0
  9
$SKPOLY
 70
     0
  9
$TDCREATE
 40
2449840.6508564819
  9
$TDUPDATE
 40
2457968.4256117358
  9
$TDINDWG
 40
0.1999045023
  9
$TDUSRTIMER
 40
0.1999045023
  9
$USRTIMER
 70
     1
  9
$ANGBASE
 50
0.0
  9
$ANGDIR
 70
     0
  9
$PDMODE
 70
     0
  9
$PDSIZE
 40
0.0
  9
$PLINEWID
 40
0.0
  9
$COORDS
 70
     1
  9
$SPLFRAME
 70
     0
  9
$SPLINETYPE
 70
     6
  9
$SPLINESEGS
 70
     8
  9
$ATTDIA
 70
     0
  9
$ATTREQ
 70
     1
  9
$HANDLING
 70
     1
  9
$HANDSEED
  5
1622
  9
$SURFTAB1
 70
     6
  9
$SURFTAB2
 70
     6
  9
$SURFTYPE
 70
     6
  9
$SURFU
 70
     6
  9
$SURFV
 70
     6
  9
$UCSNAME
  2

  9
$UCSORG
 10
0.0
 20
0.0
 30
0.0
  9
$UCSXDIR
 10
1.0
 20
0.0
 30
0.0
  9
$UCSYDIR
 10
0.0
 20
1.0
 30
0.0
  9
$PUCSNAME
  2

  9
$PUCSORG
 10
0.0
 20
0.0
 30
0.0
  9
$PUCSXDIR
 10
1.0
 20
0.0
 30
0.0
  9
$PUCSYDIR
 10
0.0
 20
1.0
 30
0.0
  9
$USERI1
 70
     0
  9
$USERI2
 70
     1
  9
$USERI3
 70
     1
  9
$USERI4
 70
     0
  9
$USERI5
 70
     0
  9
$USERR1
 40
0.0
  9
$USERR2
 40
0.0
  9
$USERR3
 40
0.0
  9
$USERR4
 40
0.0
  9
$USERR5
 40
0.0
  9
$WORLDVIEW
 70
     1
  9
$SHADEDGE
 70
     3
  9
$SHADEDIF
 70
    70
  9
$TILEMODE
 70
     1
  9
$MAXACTVP
 70
    16
  9
$PLIMCHECK
 70
     0
  9
$PEXTMIN
 10
1.0000000000000000E+020
 20
1.0000000000000000E+020
 30
1.0000000000000000E+020
  9
$PEXTMAX
 10
-1.0000000000000000E+020
 20
-1.0000000000000000E+020
 30
-1.0000000000000000E+020
  9
$PLIMMIN
 10
0.0
 20
0.0
  9
$PLIMMAX
 10
12.0
 20
9.0
  9
$UNITMODE
 70
     0
  9
$VISRETAIN
 70
     0
  9
$PLINEGEN
 70
     0
  9
$PSLTSCALE
 70
     0
  0
ENDSEC
  0
SECTION
  2
TABLES
  0
TABLE
  2
VPORT
 70
     1
  0
VPORT
  2
*ACTIVE
 70
     0
 10
0.0
 20
0.0
 11
1.0
 21
1.0
 12
272.4358974358974
 22
150.0
 13
0.0
 23
0.0
 14
10.0
 24
10.0
 15
10.0
 25
10.0
 16
0.0
 26
0.0
 36
1.0
 17
0.0
 27
0.0
 37
0.0
 40
300.0
 41
1.816239316239316
 42
50.0
 43
0.0
 44
0.0
 50
0.0
 51
0.0
 71
     0
 72
   500
 73
     1
 74
     0
 75
     0
 76
     0
 77
     0
 78
     2
  0
ENDTAB
  0
TABLE
  2
LTYPE
 70
     3
  0
LTYPE
  2
CONTINUOUS
 70
     0
  3
Solid Line
 72
    65
 73
     0
 40
0.0
  0
LTYPE
  2
CENTER
 70
     0
  3
____ _ ____ _ ____ _ ____ _ ____ _ ____ _ ____
 72
    65
 73
     4
 40
2.0
 49
1.25
 49
-0.25
 49
0.25
 49
-0.25
  0
LTYPE
  2
PHANTOM2
 70
     0
  3
___ _ _ ___ _ _ ___ _ _ ___ _ _
 72
    65
 73
     6
 40
1.25
 49
0.625
 49
-0.125
 49
0.125
 49
-0.125
 49
0.125
 49
-0.125
  0
ENDTAB
  0
TABLE
  2
LAYER
 70
     3
  0
LAYER
  2
0
 70
     0
 62
     7
  6
CONTINUOUS
  0
LAYER
  2
1
 70
     0
 62
     1
  6
CENTER
  0
LAYER
  2
3
 70
     0
 62
     3
  6
CONTINUOUS
  0
ENDTAB
  0
TABLE
  2
STYLE
 70
     2
  0
STYLE
  2
STANDARD
 70
     0
 40
0.0
 41
1.0
 50
0.0
 71
     0
 42
0.2
  3
TXT
  4
BIGFONT
  0
STYLE
  2
STANDARD1
 70
     0
 40
0.0
 41
1.0
 50
0.0
 71
     0
 42
3.0
  3
txt
  4

  0
ENDTAB
  0
TABLE
  2
VIEW
 70
     1
  0
VIEW
  2
ALL
 70
     0
 40
270.0
 10
220.99159663865549
 20
135.0
 41
0.0
 11
0.0
 21
0.0
 31
1.0
 12
0.0
 22
0.0
 32
0.0
 42
0.0
 43
0.0
 44
0.0
 50
0.0
 71
     0
  0
ENDTAB
  0
TABLE
  2
UCS
 70
     0
  0
ENDTAB
  0
TABLE
  2
APPID
 70
    13
  0
APPID
  2
ACAD
 70
     0
  0
APPID
  2
GENIUS_GENODEF_13
 70
     0
  0
APPID
  2
GENIUS_GENOENT_13
 70
     0
  0
APPID
  2
GENIUS_GENOBJ_13
 70
     0
  0
APPID
  2
GENIUS_GENOLIS_13
 70
     0
  0
APPID
  2
GENIUS_GENOREF_13
 70
     0
  0
APPID
  2
GENIUS_GENOBJ-N-FIL_13
 70
     0
  0
APPID
  2
ACAD_MLEADERVER
 70
     0
  0
APPID
  2
ACAD_DSTYLE_DIMJAG
 70
     0
  0
APPID
  2
ACAD_DSTYLE_DIMTALN
 70
     0
  0
APPID
  2
ACAD_NAV_VCDISPLAY
 70
     0
  0
APPID
  2
ACAD_EXEMPT_FROM_CAD_STANDARDS
 70
     0
  0
APPID
  2
ACADANNOTATIVE
 70
     0
  0
ENDTAB
  0
TABLE
  2
DIMSTYLE
 70
     1
  0
DIMSTYLE
  2
STANDARD
 70
     0
  3

  4

  5

  6

  7

 40
1.0
 41
0.18
 42
0.0625
 43
0.38
 44
0.18
 45
0.0
 46
0.0
 47
0.0
 48
0.0
140
0.18
141
0.09
142
0.0
143
25.399999999999999
144
1.0
145
0.0
146
1.0
147
0.09
 71
     0
 72
     0
 73
     1
 74
     1
 75
     0
 76
     0
 77
     0
 78
     0
170
     0
171
     2
172
     0
173
     0
174
     0
175
     0
176
     0
177
     0
178
     0
  0
ENDTAB
  0
ENDSEC
  0
SECTION
  2
BLOCKS
  0
BLOCK
  8
0
  2
$MODEL_SPACE
 70
     0
 10
0.0
 20
0.0
 30
0.0
  3
$MODEL_SPACE
  1

  0
ENDBLK
  5
DC
  8
0
  0
BLOCK
 67
     1
  8
0
  2
$PAPER_SPACE
 70
     0
 10
0.0
 20
0.0
 30
0.0
  3
$PAPER_SPACE
  1

  0
ENDBLK
  5
DA
 67
     1
  8
0
  0
ENDSEC
  0
SECTION
  2
ENTITIES
  0
TEXT
  5
452
  8
0
 62
     3
 10
0.0
 20
0.0
 30
0.0
 40
10.0
  1
TSLIDE8040
  7
STANDARD1
  0
LINE
  5
115C
  8
0
 10
132.00000151991841
 20
143.9000016267527
 30
0.0
 11
211.9999997317791
 21
143.90000162675281
 31
0.0
  0
LINE
  5
115D
  8
0
 10
132.00000151991841
 20
142.90000163018701
 30
0.0
 11
211.9999997317791
 21
142.90000163018701
 31
0.0
  0
LINE
  5
1165
  8
0
 10
211.9999997317791
 20
138.10000140219921
 30
0.0
 11
132.00000151991841
 21
138.10000140219921
 31
0.0
  0
LINE
  5
1166
  8
0
 10
211.9999997317791
 20
137.1000017039477
 30
0.0
 11
132.00000151991841
 21
137.1000017039477
 31
0.0
  0
ARC
  5
1171
  8
0
 10
211.02880474381681
 20
141.51043169912771
 30
0.0
 40
5.2185290029613958
 50
96.038880809321952
 51
107.0350478442993
  0
LINE
  5
1176
  8
0
 10
134.49999913573259
 20
146.50000156834719
 30
0.0
 11
209.50000211596489
 21
146.50000156834719
 31
0.0
  0
ARC
  5
1177
  8
0
 10
133.0883374129188
 20
142.0843023192416
 30
0.0
 40
4.6358590011139906
 50
72.271361260435285
 51
84.654710085942469
  0
LINE
  5
117B
  8
0
 10
132.00000151991841
 20
146.700001694262
 30
0.0
 11
133.5202030837537
 21
146.700001694262
 31
0.0
  0
LINE
  5
117C
  8
0
 10
132.00000151991841
 20
144.00000162422651
 30
0.0
 11
211.9999997317791
 21
144.00000162422651
 31
0.0
  0
ARC
  5
117D
  8
0
 10
209.5000006157488
 20
132.9000016141265
 30
0.0
 40
2.500000010100023
 50
0.000000116049433
 51
90.0
  0
LINE
  5
1181
  8
0
 10
211.9999997317791
 20
132.00000151991841
 30
0.0
 11
204.00000214576721
 21
132.00000151991841
 31
0.0
  0
ARC
  5
1183
  8
0
 10
206.50000063594871
 20
132.9000016141265
 30
0.0
 40
2.5000000101000381
 50
90.000000116049435
 51
179.9999998842616
  0
LINE
  5
1184
  8
0
 10
206.49999976158139
 20
135.40000133216381
 30
0.0
 11
209.50000211596489
 21
135.40000133216381
 31
0.0
  0
LINE
  5
1185
  8
0
 10
211.9999997317791
 20
132.00000151991841
 30
0.0
 11
211.9999997317791
 21
147.0000016503036
 31
0.0
  0
LINE
  5
1188
  8
0
 10
204.00000214576721
 20
137.0000014081597
 30
0.0
 11
204.00000214576721
 21
132.00000151991841
 31
0.0
  0
LINE
  5
118A
  8
0
 10
198.810214549303
 20
132.00000151991841
 30
0.0
 11
197.56891243159771
 21
134.1500015929341
 31
0.0
  0
LINE
  5
118C
  8
0
 10
146.4310888200998
 20
134.1500015929341
 30
0.0
 11
145.18978670239451
 21
132.00000151991841
 31
0.0
  0
ARC
  5
118D
  8
0
 10
148.5961530445488
 20
132.9000016255265
 30
0.0
 40
2.4999999987000332
 50
89.99999998539937
 51
149.99999999735721
  0
LINE
  5
118E
  8
0
 10
148.5961530357599
 20
135.40000133216381
 30
0.0
 11
195.40384821593759
 21
135.40000133216381
 31
0.0
  0
ARC
  5
118F
  8
0
 10
195.4038482071488
 20
132.9000016255265
 30
0.0
 40
2.499999998700019
 50
30.00000000274154
 51
90.0
  0
LINE
  5
1198
  8
0
 10
139.9999991059303
 20
132.00000151991841
 30
0.0
 11
132.00000151991841
 21
132.00000151991841
 31
0.0
  0
ARC
  5
1199
  8
0
 10
134.50000063594871
 20
132.9000016141265
 30
0.0
 40
2.5000000101000381
 50
90.0
 51
179.9999998842616
  0
LINE
  5
119A
  8
0
 10
134.49999913573259
 20
135.40000133216381
 30
0.0
 11
137.50000149011609
 21
135.40000133216381
 31
0.0
  0
ARC
  5
119B
  8
0
 10
137.5000006157488
 20
132.9000016141265
 30
0.0
 40
2.5000000101000088
 50
0.0000001160510614
 51
90.0
  0
LINE
  5
119C
  8
0
 10
132.00000151991841
 20
147.0000016503036
 30
0.0
 11
132.00000151991841
 21
132.00000151991841
 31
0.0
  0
LINE
  5
119D
  8
0
 10
139.9999991059303
 20
132.00000151991841
 30
0.0
 11
139.9999991059303
 21
137.0000014081597
 31
0.0
  0
LINE
  5
11A2
  8
0
 10
132.00000151991841
 20
137.0000014081597
 30
0.0
 11
211.9999997317791
 21
137.0000014081597
 31
0.0
  0
LINE
  5
11A8
  8
0
 10
211.9999997317791
 20
147.0000016503036
 30
0.0
 11
132.00000151991841
 21
147.0000016503036
 31
0.0
  0
LINE
  5
11B9
  8
0
 10
143.40000078082079
 20
137.0000014081597
 30
0.0
 11
143.40000078082079
 21
132.00000151991841
 31
0.0
  0
LINE
  5
11BB
  8
0
 10
200.60000047087669
 20
132.00000151991841
 30
0.0
 11
200.60000047087669
 21
137.0000014081597
 31
0.0
  0
LINE
  5
11BC
  8
0
 10
200.60000047087669
 20
132.00000151991841
 30
0.0
 11
143.40000078082079
 21
132.00000151991841
 31
0.0
  0
LINE
  5
11BE
  8
0
 10
132.00000151991841
 20
220.5000022426247
 30
0.0
 11
211.9999997317791
 21
220.5000022426247
 31
0.0
  0
LINE
  5
11C4
  8
0
 10
132.00000151991841
 20
218.5000023804605
 30
0.0
 11
211.9999997317791
 21
218.5000023804605
 31
0.0
  0
LINE
  5
11C8
  8
0
 10
211.9999997317791
 20
207.50000244006509
 30
0.0
 11
132.00000151991841
 21
207.50000244006509
 31
0.0
  0
LINE
  5
11CE
  8
0
 10
211.9999997317791
 20
205.5000025779008
 30
0.0
 11
132.00000151991841
 21
205.5000025779008
 31
0.0
  0
LINE
  5
11D7
  8
0
 10
175.40000067092481
 20
204.5000019483268
 30
0.0
 11
177.40000076591971
 21
204.5000019483268
 31
0.0
  0
LINE
  5
11D8
  8
0
 10
175.40000067092481
 20
199.50000206008551
 30
0.0
 11
175.40000067092481
 21
204.5000019483268
 31
0.0
  0
LINE
  5
11D9
  8
0
 10
177.40000076591971
 20
199.50000206008551
 30
0.0
 11
175.40000067092481
 21
199.50000206008551
 31
0.0
  0
LINE
  5
11DA
  8
0
 10
177.40000076591971
 20
204.5000019483268
 30
0.0
 11
177.40000076591971
 21
199.50000206008551
 31
0.0
  0
LINE
  5
11DB
  8
0
 10
166.6000004857778
 20
204.5000019483268
 30
0.0
 11
168.60000058077279
 21
204.5000019483268
 31
0.0
  0
LINE
  5
11DC
  8
0
 10
166.6000004857778
 20
199.50000206008551
 30
0.0
 11
166.6000004857778
 21
204.5000019483268
 31
0.0
  0
LINE
  5
11DD
  8
0
 10
168.60000058077279
 20
199.50000206008551
 30
0.0
 11
166.6000004857778
 21
199.50000206008551
 31
0.0
  0
LINE
  5
11DE
  8
0
 10
168.60000058077279
 20
204.5000019483268
 30
0.0
 11
168.60000058077279
 21
199.50000206008551
 31
0.0
  0
LINE
  5
11DF
  8
0
 10
195.3999999910593
 20
204.5000019483268
 30
0.0
 11
197.40000031888479
 21
204.5000019483268
 31
0.0
  0
LINE
  5
11E0
  8
0
 10
195.3999999910593
 20
199.50000206008551
 30
0.0
 11
195.3999999910593
 21
204.5000019483268
 31
0.0
  0
LINE
  5
11E1
  8
0
 10
197.40000031888479
 20
199.50000206008551
 30
0.0
 11
195.3999999910593
 21
199.50000206008551
 31
0.0
  0
LINE
  5
11E2
  8
0
 10
197.40000031888479
 20
204.5000019483268
 30
0.0
 11
197.40000031888479
 21
199.50000206008551
 31
0.0
  0
LINE
  5
11E3
  8
0
 10
146.60000093281269
 20
204.5000019483268
 30
0.0
 11
148.60000126063821
 21
204.5000019483268
 31
0.0
  0
LINE
  5
11E4
  8
0
 10
146.60000093281269
 20
199.50000206008551
 30
0.0
 11
146.60000093281269
 21
204.5000019483268
 31
0.0
  0
LINE
  5
11E5
  8
0
 10
148.60000126063821
 20
199.50000206008551
 30
0.0
 11
146.60000093281269
 21
199.50000206008551
 31
0.0
  0
LINE
  5
11E6
  8
0
 10
148.60000126063821
 20
204.5000019483268
 30
0.0
 11
148.60000126063821
 21
199.50000206008551
 31
0.0
  0
ARC
  5
11E7
  8
0
 10
209.50000062574881
 20
199.50000241036281
 30
0.0
 40
2.5000000001000151
 50
293.073918062514
 51
359.99999999885029
  0
ARC
  5
11E9
  8
0
 10
134.50000062594879
 20
199.50000241036281
 30
0.0
 40
2.5000000001000009
 50
180.00000000114969
 51
246.9260819374976
  0
LINE
  5
11EA
  8
0
 10
211.9999997317791
 20
199.50000206008551
 30
0.0
 11
211.9999997317791
 21
226.5021167298022
 31
0.0
  0
LINE
  5
11EB
  8
0
 10
132.00000151991841
 20
199.50000206008551
 30
0.0
 11
132.00000151991841
 21
226.5021167297854
 31
0.0
  0
ARC
  5
11EC
  8
0
 10
209.49998246546869
 20
199.50008116244669
 30
0.0
 40
2.5000795122203412
 50
270.00045034187849
 51
293.07363515990568
  0
LINE
  5
11ED
  8
0
 10
134.49999913573259
 20
197.00000165030349
 30
0.0
 11
209.50000211596489
 21
197.00000165030349
 31
0.0
  0
ARC
  5
11EE
  8
0
 10
134.50000556945091
 20
199.50001641420519
 30
0.0
 40
2.500014763909999
 50
246.9260619473109
 51
269.99985255090979
  0
LINE
  5
11F0
  8
0
 10
134.49999913573259
 20
229.00000317022199
 30
0.0
 11
209.50000211596489
 21
229.00000317022199
 31
0.0
  0
ARC
  5
11F1
  8
0
 10
209.49998246546869
 20
226.4999236580789
 30
0.0
 40
2.5000795122203279
 50
66.926364840095815
 51
89.999549658123144
  0
ARC
  5
11F2
  8
0
 10
134.50001878622891
 20
226.4999236580789
 30
0.0
 40
2.5000795122203141
 50
90.000450341876856
 51
113.0736351599042
  0
LINE
  5
11F3
  8
0
 10
177.40000076591971
 20
226.50000276044011
 30
0.0
 11
175.40000067092481
 21
226.50000276044011
 31
0.0
  0
LINE
  5
11F4
  8
0
 10
175.40000067092481
 20
226.50000276044011
 30
0.0
 11
175.40000067092481
 21
221.50000287219879
 31
0.0
  0
LINE
  5
11F5
  8
0
 10
175.40000067092481
 20
221.50000287219879
 30
0.0
 11
177.40000076591971
 21
221.50000287219879
 31
0.0
  0
LINE
  5
11F6
  8
0
 10
177.40000076591971
 20
221.50000287219879
 30
0.0
 11
177.40000076591971
 21
226.50000276044011
 31
0.0
  0
LINE
  5
11F7
  8
0
 10
168.60000058077279
 20
226.50000276044011
 30
0.0
 11
166.6000004857778
 21
226.50000276044011
 31
0.0
  0
LINE
  5
11F8
  8
0
 10
166.6000004857778
 20
226.50000276044011
 30
0.0
 11
166.6000004857778
 21
221.50000287219879
 31
0.0
  0
LINE
  5
11F9
  8
0
 10
166.6000004857778
 20
221.50000287219879
 30
0.0
 11
168.60000058077279
 21
221.50000287219879
 31
0.0
  0
LINE
  5
11FA
  8
0
 10
168.60000058077279
 20
221.50000287219879
 30
0.0
 11
168.60000058077279
 21
226.50000276044011
 31
0.0
  0
LINE
  5
11FB
  8
0
 10
197.40000031888479
 20
226.50000276044011
 30
0.0
 11
195.3999999910593
 21
226.50000276044011
 31
0.0
  0
LINE
  5
11FC
  8
0
 10
195.3999999910593
 20
226.50000276044011
 30
0.0
 11
195.3999999910593
 21
221.50000287219879
 31
0.0
  0
LINE
  5
11FD
  8
0
 10
195.3999999910593
 20
221.50000287219879
 30
0.0
 11
197.40000031888479
 21
221.50000287219879
 31
0.0
  0
LINE
  5
11FE
  8
0
 10
197.40000031888479
 20
221.50000287219879
 30
0.0
 11
197.40000031888479
 21
226.50000276044011
 31
0.0
  0
LINE
  5
11FF
  8
0
 10
148.60000126063821
 20
226.50000276044011
 30
0.0
 11
146.60000093281269
 21
226.50000276044011
 31
0.0
  0
LINE
  5
1200
  8
0
 10
146.60000093281269
 20
226.50000276044011
 30
0.0
 11
146.60000093281269
 21
221.50000287219879
 31
0.0
  0
LINE
  5
1201
  8
0
 10
146.60000093281269
 20
221.50000287219879
 30
0.0
 11
148.60000126063821
 21
221.50000287219879
 31
0.0
  0
LINE
  5
1202
  8
0
 10
148.60000126063821
 20
221.50000287219879
 30
0.0
 11
148.60000126063821
 21
226.50000276044011
 31
0.0
  0
ARC
  5
1203
  8
0
 10
209.50000062574881
 20
226.50000241016281
 30
0.0
 40
2.5000000001000151
 50
0.0000000011464246
 51
66.926081940216889
  0
ARC
  5
1204
  8
0
 10
134.50000062594879
 20
226.50000241016281
 30
0.0
 40
2.5000000001000009
 50
113.0739180597831
 51
179.99999999884869
  0
LINE
  5
1207
  8
0
 10
135.93384101986879
 20
207.50000244006509
 30
0.0
 11
135.93384101986879
 21
218.5000023804605
 31
0.0
  0
LINE
  5
1209
  8
0
 10
208.06616023182869
 20
218.5000023804605
 30
0.0
 11
208.06616023182869
 21
207.50000244006509
 31
0.0
  0
LINE
  5
120F
  8
0
 10
206.53384029865259
 20
218.5000023804605
 30
0.0
 11
206.53384029865259
 21
207.50000244006509
 31
0.0
  0
LINE
  5
1210
  8
0
 10
137.46616095304489
 20
207.50000244006509
 30
0.0
 11
137.46616095304489
 21
218.5000023804605
 31
0.0
  0
LINE
  5
1213
  8
0
 10
211.53383925557139
 20
218.5000023804605
 30
0.0
 11
211.53383925557139
 21
207.50000244006509
 31
0.0
  0
LINE
  5
1214
  8
0
 10
132.46616199612609
 20
207.50000244006509
 30
0.0
 11
132.46616199612609
 21
218.5000023804605
 31
0.0
  0
LINE
  5
1218
  8
0
 10
201.5338413417339
 20
207.50000244006509
 30
0.0
 11
201.5338413417339
 21
218.5000023804605
 31
0.0
  0
LINE
  5
1219
  8
0
 10
140.93383997678751
 20
207.50000244006509
 30
0.0
 11
140.93383997678751
 21
218.5000023804605
 31
0.0
  0
LINE
  5
121A
  8
0
 10
142.46615990996361
 20
218.5000023804605
 30
0.0
 11
142.46615990996361
 21
207.50000244006509
 31
0.0
  0
LINE
  5
121B
  8
0
 10
203.06616127491
 20
218.5000023804605
 30
0.0
 11
203.06616127491
 21
207.50000244006509
 31
0.0
  0
LINE
  5
121C
  8
0
 10
198.06616045534611
 20
207.50000244006509
 30
0.0
 11
198.06616045534611
 21
218.5000023804605
 31
0.0
  0
LINE
  5
121D
  8
0
 10
145.9338407963514
 20
218.5000023804605
 30
0.0
 11
145.9338407963514
 21
207.50000244006509
 31
0.0
  0
LINE
  5
122F
  8
0
 10
140.10000079870221
 20
218.5000023804605
 30
0.0
 11
140.10000079870221
 21
207.50000244006509
 31
0.0
  0
LINE
  5
1230
  8
0
 10
203.9000004529953
 20
207.50000244006509
 30
0.0
 11
203.9000004529953
 21
218.5000023804605
 31
0.0
  0
LINE
  5
1231
  8
0
 10
135.1000018417835
 20
218.5000023804605
 30
0.0
 11
135.1000018417835
 21
207.50000244006509
 31
0.0
  0
LINE
  5
1232
  8
0
 10
208.89999940991399
 20
207.50000244006509
 30
0.0
 11
208.89999940991399
 21
218.5000023804605
 31
0.0
  0
LINE
  5
1233
  8
0
 10
145.0999997556209
 20
218.5000023804605
 30
0.0
 11
145.0999997556209
 21
207.50000244006509
 31
0.0
  0
LINE
  5
1234
  8
0
 10
198.90000149607661
 20
207.50000244006509
 30
0.0
 11
198.90000149607661
 21
218.5000023804605
 31
0.0
  0
LINE
  5
1235
  8
0
 10
138.30000013113019
 20
207.50000244006509
 30
0.0
 11
138.30000013113019
 21
218.5000023804605
 31
0.0
  0
LINE
  5
1236
  8
0
 10
205.70000112056729
 20
218.5000023804605
 30
0.0
 11
205.70000112056729
 21
207.50000244006509
 31
0.0
  0
LINE
  5
1237
  8
0
 10
200.70000030100351
 20
218.5000023804605
 30
0.0
 11
200.70000030100351
 21
207.50000244006509
 31
0.0
  0
LINE
  5
1238
  8
0
 10
143.30000095069411
 20
207.50000244006509
 30
0.0
 11
143.30000095069411
 21
218.5000023804605
 31
0.0
  0
LINE
  5
1239
  8
0
 10
210.70000007748601
 20
207.50000244006509
 30
0.0
 11
210.70000007748601
 21
218.5000023804605
 31
0.0
  0
LINE
  5
123A
  8
0
 10
133.3000011742115
 20
218.5000023804605
 30
0.0
 11
133.3000011742115
 21
207.50000244006509
 31
0.0
  0
ARC
  5
123B
  8
0
 10
70.350000766059225
 20
142.40000161812651
 30
0.0
 40
1.5000000061000089
 50
90.00000011650215
 51
179.99999988349779
  0
LINE
  5
123D
  8
0
 10
70.351000595837831
 20
138.10000140219921
 30
0.0
 11
74.350000545382485
 21
138.10000140219921
 31
0.0
  0
LINE
  5
123F
  8
0
 10
81.850000843405724
 20
142.90000163018701
 30
0.0
 11
70.351000595837831
 21
142.90000163018701
 31
0.0
  0
ARC
  5
1241
  8
0
 10
70.350000766059225
 20
138.60000163032649
 30
0.0
 40
1.5000000061000089
 50
180.00000011650209
 51
269.99999988395058
  0
LINE
  5
1242
  8
0
 10
69.851000746712074
 20
142.40000166464591
 30
0.0
 11
69.851000746712074
 21
138.6000014841556
 31
0.0
  0
ARC
  5
1243
  8
0
 10
70.351000761959227
 20
142.40000162222651
 30
0.0
 40
0.5000000020000073
 50
90.000000116051069
 51
179.99999988540799
  0
LINE
  5
1244
  8
0
 10
70.350000821053982
 20
143.9000016267527
 30
0.0
 11
81.850000843405724
 21
143.9000016267527
 31
0.0
  0
LINE
  5
1245
  8
0
 10
74.350000545382485
 20
137.1000017039477
 30
0.0
 11
70.350000821053982
 21
137.1000017039477
 31
0.0
  0
ARC
  5
1246
  8
0
 10
70.351000761959227
 20
138.60000162622649
 30
0.0
 40
0.5000000020000073
 50
180.00000011604939
 51
269.9999998854064
  0
LINE
  5
1247
  8
0
 10
81.850000843405724
 20
142.90000163018701
 30
0.0
 11
81.850000843405724
 21
143.9000016267527
 31
0.0
  0
LINE
  5
124A
  8
0
 10
74.350000545382485
 20
137.1000017039477
 30
0.0
 11
74.350000545382485
 21
138.10000140219921
 31
0.0
  0
LINE
  5
124F
  8
0
 10
50.150000676512711
 20
143.9000016267527
 30
0.0
 11
50.150000676512711
 21
142.90000163018701
 31
0.0
  0
LINE
  5
1251
  8
0
 10
62.149000773206353
 20
142.40000166464591
 30
0.0
 11
62.149000773206353
 21
138.6000014841556
 31
0.0
  0
ARC
  5
1252
  8
0
 10
61.649000757959207
 20
142.40000162222651
 30
0.0
 40
0.5000000020000073
 50
0.0000001145919756
 51
89.999999883950565
  0
LINE
  5
1253
  8
0
 10
50.150000676512711
 20
143.9000016267527
 30
0.0
 11
61.650000698864453
 21
143.9000016267527
 31
0.0
  0
ARC
  5
1254
  8
0
 10
61.650000753859217
 20
142.40000161812651
 30
0.0
 40
1.500000006100016
 50
0.0000001165021404
 51
89.999999883497864
  0
ARC
  5
1255
  8
0
 10
61.650000753859217
 20
138.60000163032649
 30
0.0
 40
1.500000006100016
 50
270.0
 51
359.99999988349953
  0
LINE
  5
1256
  8
0
 10
61.650000698864453
 20
137.1000017039477
 30
0.0
 11
57.650000974535942
 21
137.1000017039477
 31
0.0
  0
LINE
  5
1258
  8
0
 10
57.650000974535942
 20
138.10000140219921
 30
0.0
 11
61.64900092408061
 21
138.10000140219921
 31
0.0
  0
ARC
  5
1259
  8
0
 10
61.649000757959207
 20
138.60000162622649
 30
0.0
 40
0.5000000020000073
 50
270.0
 51
359.99999988395058
  0
LINE
  5
125A
  8
0
 10
50.150000676512711
 20
142.90000163018701
 30
0.0
 11
61.64900092408061
 21
142.90000163018701
 31
0.0
  0
LINE
  5
125C
  8
0
 10
57.650000974535942
 20
138.10000140219921
 30
0.0
 11
57.650000974535942
 21
137.1000017039477
 31
0.0
  0
ARC
  5
125F
  8
0
 10
71.8000007748592
 20
146.70000160932651
 30
0.0
 40
0.3000000149000074
 50
90.00000142284479
 51
179.9999985797981
  0
LINE
  5
1260
  8
0
 10
71.800000686198473
 20
147.0000016503036
 30
0.0
 11
73.400000762194395
 21
147.0000016503036
 31
0.0
  0
ARC
  5
1261
  8
0
 10
73.400000766359199
 20
146.90000163062649
 30
0.0
 40
0.0999999936000081
 50
359.99999816652678
 51
90.000001840141707
  0
LINE
  5
1262
  8
0
 10
73.500000592321143
 20
146.90000158734611
 30
0.0
 11
73.500000592321143
 21
146.8000015243887
 31
0.0
  0
ARC
  5
1263
  8
0
 10
73.600000753559215
 20
146.8000016178265
 30
0.0
 40
0.0999999936000081
 50
179.99999815985009
 51
270.00000183346668
  0
LINE
  5
1264
  8
0
 10
81.799999997019754
 20
146.700001694262
 30
0.0
 11
73.600000888109193
 21
146.700001694262
 31
0.0
  0
LINE
  5
1266
  8
0
 10
68.850000808015466
 20
144.00000162422651
 30
0.0
 11
82.000001519918442
 21
144.00000162422651
 31
0.0
  0
LINE
  5
1267
  8
0
 10
68.850000808015466
 20
137.0000014081597
 30
0.0
 11
68.850000808015466
 21
144.00000162422651
 31
0.0
  0
LINE
  5
1268
  8
0
 10
74.500001221895204
 20
137.0000014081597
 30
0.0
 11
68.850000808015466
 21
137.0000014081597
 31
0.0
  0
LINE
  5
126A
  8
0
 10
72.000000812113285
 20
132.9000018537044
 30
0.0
 11
71.100000943988562
 21
132.00000151991841
 31
0.0
  0
LINE
  5
126B
  8
0
 10
60.90000057592988
 20
132.00000151991841
 30
0.0
 11
71.100000943988562
 21
132.00000151991841
 31
0.0
  0
LINE
  5
126C
  8
0
 10
60.90000057592988
 20
132.00000151991841
 30
0.0
 11
60.00000070780515
 21
132.9000018537044
 31
0.0
  0
LINE
  5
126E
  8
0
 10
63.150000711902969
 20
137.0000014081597
 30
0.0
 11
57.500000298023217
 21
137.0000014081597
 31
0.0
  0
LINE
  5
126F
  8
0
 10
63.150000711902969
 20
144.00000162422651
 30
0.0
 11
63.150000711902969
 21
137.0000014081597
 31
0.0
  0
LINE
  5
1270
  8
0
 10
63.150000711902969
 20
144.00000162422651
 30
0.0
 11
50.0
 21
144.00000162422651
 31
0.0
  0
LINE
  5
1272
  8
0
 10
58.400000631809228
 20
146.700001694262
 30
0.0
 11
50.200001522898667
 21
146.700001694262
 31
0.0
  0
ARC
  5
1273
  8
0
 10
58.400000766359227
 20
146.8000016178265
 30
0.0
 40
0.0999999936000081
 50
269.99999815985501
 51
0.0000018334650961
  0
LINE
  5
1274
  8
0
 10
58.500000927597277
 20
146.8000015243887
 30
0.0
 11
58.500000927597277
 21
146.90000158734611
 31
0.0
  0
ARC
  5
1275
  8
0
 10
58.600000753559208
 20
146.90000163062649
 30
0.0
 40
0.099999993600001
 50
89.999998166534894
 51
180.00000184014979
  0
LINE
  5
1276
  8
0
 10
58.60000075772404
 20
147.0000016503036
 30
0.0
 11
60.200000833719962
 21
147.0000016503036
 31
0.0
  0
ARC
  5
1277
  8
0
 10
60.200000745059207
 20
146.70000160932651
 30
0.0
 40
0.3000000149000074
 50
0.0000014228464285
 51
89.999998579799794
  0
LINE
  5
1278
  8
0
 10
60.500000789761543
 20
146.700001694262
 30
0.0
 11
60.500000789761543
 21
145.70000164676449
 31
0.0
  0
LINE
  5
1279
  8
0
 10
71.500000730156884
 20
145.70000164676449
 30
0.0
 11
60.500000789761543
 21
145.70000164676449
 31
0.0
  0
LINE
  5
127A
  8
0
 10
71.500000730156884
 20
145.70000164676449
 30
0.0
 11
71.500000730156884
 21
146.700001694262
 31
0.0
  0
LINE
  5
127B
  8
0
 10
74.500001221895204
 20
135.40000133216381
 30
0.0
 11
74.500001221895204
 21
137.0000014081597
 31
0.0
  0
POLYLINE
  5
127D
  8
0
 66
     1
 10
0.0
 20
0.0
 30
0.0
 70
   128
  0
VERTEX
  5
1601
  8
0
 10
72.000000812113285
 20
132.9000018537044
 30
0.0
  0
VERTEX
  5
1602
  8
0
 10
72.434120997786522
 20
133.3341220393776
 30
0.0
  0
VERTEX
  5
1603
  8
0
 10
72.855051327496767
 20
133.75505190342659
 30
0.0
  0
VERTEX
  5
1604
  8
0
 10
73.250000551342964
 20
134.1500015929341
 30
0.0
  0
VERTEX
  5
1605
  8
0
 10
73.606969974935055
 20
134.50697101652619
 30
0.0
  0
VERTEX
  5
1606
  8
0
 10
73.915112018585205
 20
134.81511306017629
 30
0.0
  0
VERTEX
  5
1607
  8
0
 10
74.165064096450806
 20
135.06506513804189
 30
0.0
  0
VERTEX
  5
1608
  8
0
 10
74.349232204258442
 20
135.24923324584961
 30
0.0
  0
VERTEX
  5
1609
  8
0
 10
74.462020024657235
 20
135.36202106624839
 30
0.0
  0
VERTEX
  5
160A
  8
0
 10
74.500001221895204
 20
135.40000133216381
 30
0.0
  0
SEQEND
  5
160B
  8
0
  0
LINE
  5
127E
  8
0
 10
57.500000298023217
 20
135.40000133216381
 30
0.0
 11
57.500000298023217
 21
137.0000014081597
 31
0.0
  0
POLYLINE
  5
1280
  8
0
 66
     1
 10
0.0
 20
0.0
 30
0.0
 70
   128
  0
VERTEX
  5
160C
  8
0
 10
57.500000298023217
 20
135.40000133216381
 30
0.0
  0
VERTEX
  5
160D
  8
0
 10
57.537981495261192
 20
135.36202106624839
 30
0.0
  0
VERTEX
  5
160E
  8
0
 10
57.650769315659993
 20
135.24923324584961
 30
0.0
  0
VERTEX
  5
160F
  8
0
 10
57.834937423467629
 20
135.06506513804189
 30
0.0
  0
VERTEX
  5
1610
  8
0
 10
58.08488950133323
 20
134.81511306017629
 30
0.0
  0
VERTEX
  5
1611
  8
0
 10
58.39303154498338
 20
134.50697101652619
 30
0.0
  0
VERTEX
  5
1612
  8
0
 10
58.75000096857547
 20
134.1500015929341
 30
0.0
  0
VERTEX
  5
1613
  8
0
 10
59.144950192421668
 20
133.75505190342659
 30
0.0
  0
VERTEX
  5
1614
  8
0
 10
59.565880522131913
 20
133.3341220393776
 30
0.0
  0
VERTEX
  5
1615
  8
0
 10
60.00000070780515
 20
132.9000018537044
 30
0.0
  0
SEQEND
  5
1616
  8
0
  0
LINE
  5
1281
  8
0
 10
71.500000730156884
 20
146.00000171922139
 30
0.0
 11
60.500000789761543
 21
146.00000171922139
 31
0.0
  0
LINE
  5
1282
  8
0
 10
50.0
 20
144.00000162422651
 30
0.0
 11
50.0
 21
146.50000156834719
 31
0.0
  0
POLYLINE
  5
1283
  8
0
 66
     1
 10
0.0
 20
0.0
 30
0.0
 70
   128
  0
VERTEX
  5
1617
  8
0
 10
50.200001522898667
 20
146.700001694262
 30
0.0
  0
VERTEX
  5
1618
  8
0
 10
50.072864815592759
 20
146.65439180098471
 30
0.0
  0
VERTEX
  5
1619
  8
0
 10
50.000018626451492
 20
146.5027233585715
 30
0.0
  0
VERTEX
  5
161A
  8
0
 10
50.0
 20
146.50000156834719
 30
0.0
  0
SEQEND
  5
161B
  8
0
  0
POLYLINE
  5
1287
  8
0
 66
     1
 10
0.0
 20
0.0
 30
0.0
 70
   128
  0
VERTEX
  5
161C
  8
0
 10
82.000001519918442
 20
146.50000156834719
 30
0.0
  0
VERTEX
  5
161D
  8
0
 10
81.999982893466935
 20
146.5027233585715
 30
0.0
  0
VERTEX
  5
161E
  8
0
 10
81.96851909160614
 20
146.6077134478837
 30
0.0
  0
VERTEX
  5
161F
  8
0
 10
81.821811571717262
 20
146.69880867004389
 30
0.0
  0
VERTEX
  5
1620
  8
0
 10
81.799999997019754
 20
146.700001694262
 30
0.0
  0
SEQEND
  5
1621
  8
0
  0
LINE
  5
1288
  8
0
 10
82.000001519918442
 20
144.00000162422651
 30
0.0
 11
82.000001519918442
 21
146.50000156834719
 31
0.0
  0
LINE
  5
128A
  8
0
 10
205.64706474542621
 20
74.350000545382485
 30
0.0
 11
196.25678509473801
 21
74.350000545382485
 31
0.0
  0
LINE
  5
128B
  8
0
 10
147.74321615695951
 20
74.350000545382485
 30
0.0
 11
138.35293650627131
 21
74.350000545382485
 31
0.0
  0
ARC
  5
128C
  8
0
 10
134.50000062594879
 20
79.350000759859213
 30
0.0
 40
2.5000000000999871
 50
90.000000001151321
 51
179.99999999885361
  0
LINE
  5
128D
  8
0
 10
209.50000211596489
 20
81.850000843405724
 30
0.0
 11
134.49999913573259
 21
81.850000843405724
 31
0.0
  0
ARC
  5
128E
  8
0
 10
209.50000062574881
 20
79.350000759859213
 30
0.0
 40
2.5000000001000151
 50
0.0000000011496815
 51
89.999999998853596
  0
LINE
  5
1291
  8
0
 10
138.35293650627131
 20
57.650000974535942
 30
0.0
 11
147.74321615695951
 21
57.650000974535942
 31
0.0
  0
LINE
  5
1292
  8
0
 10
196.25678509473801
 20
57.650000974535942
 30
0.0
 11
205.64706474542621
 21
57.650000974535942
 31
0.0
  0
ARC
  5
1293
  8
0
 10
209.50000062574881
 20
52.650000760059221
 30
0.0
 40
2.5000000001000009
 50
270.00000000115131
 51
359.99999999885517
  0
LINE
  5
1294
  8
0
 10
134.49999913573259
 20
50.150000676512711
 30
0.0
 11
209.50000211596489
 21
50.150000676512711
 31
0.0
  0
ARC
  5
1295
  8
0
 10
134.50000062594879
 20
52.650000760059221
 30
0.0
 40
2.5000000001000009
 50
180.00000000115131
 51
269.99999999885358
  0
LINE
  5
1296
  8
0
 10
132.00000151991841
 20
52.500000760009009
 30
0.0
 11
132.00000151991841
 21
79.500000759909369
 31
0.0
  0
LINE
  5
1297
  8
0
 10
211.9999997317791
 20
52.500000760009009
 30
0.0
 11
211.9999997317791
 21
79.500000759909369
 31
0.0
  0
ARC
  5
1298
  8
0
 10
195.4038482071488
 20
60.000000758659262
 30
0.0
 40
2.4999999987000332
 50
269.99999998540102
 51
329.9999999973374
  0
LINE
  5
1299
  8
0
 10
195.40384821593759
 20
57.500000298023217
 30
0.0
 11
148.5961530357599
 21
57.500000298023217
 31
0.0
  0
ARC
  5
129A
  8
0
 10
148.5961530445488
 20
60.00000075865924
 30
0.0
 40
2.4999999987000119
 50
210.0000000027415
 51
270.00000001460057
  0
LINE
  5
129B
  8
0
 10
143.4664873784985
 20
63.884844327408842
 30
0.0
 11
146.4310888200998
 21
58.75000096857547
 31
0.0
  0
LINE
  5
129C
  8
0
 10
145.18978670239451
 20
60.90000057592988
 30
0.0
 11
198.810214549303
 21
60.90000057592988
 31
0.0
  0
ARC
  5
12B0
  8
0
 10
200.10000055504889
 20
67.866026135059229
 30
0.0
 40
0.5000000807999074
 50
0.0000014278490085
 51
29.999998986193489
  0
LINE
  5
12B1
  8
0
 10
200.60000047087669
 20
64.133975375443697
 30
0.0
 11
200.60000047087669
 21
67.866026144474745
 31
0.0
  0
ARC
  5
12B2
  8
0
 10
200.10000055504869
 20
64.133975384859269
 30
0.0
 40
0.5000000808001064
 50
330.00000101204807
 51
359.9999985733333
  0
LINE
  5
12B3
  8
0
 10
197.56795263408739
 20
58.748341051388593
 30
0.0
 11
200.5330141633749
 21
63.883975334465497
 31
0.0
  0
ARC
  5
12B4
  8
0
 10
143.90000069664859
 20
64.133975384859212
 30
0.0
 40
0.5000000807998932
 50
180.00000142785061
 51
209.9999989861937
  0
LINE
  5
12B5
  8
0
 10
143.40000078082079
 20
67.866026144474745
 30
0.0
 11
143.40000078082079
 21
64.133975375443697
 31
0.0
  0
ARC
  5
12B6
  8
0
 10
143.90000069664879
 20
67.866026135059201
 30
0.0
 40
0.5000000808000922
 50
150.0000010120464
 51
179.99999857333481
  0
LINE
  5
12B8
  8
0
 10
198.810214549303
 20
71.100000943988562
 30
0.0
 11
145.18978670239451
 21
71.100000943988562
 31
0.0
  0
ARC
  5
12BB
  8
0
 10
134.50000063594871
 20
60.000000770059252
 30
0.0
 40
2.5000000101000022
 50
180.00000011605101
 51
269.99999988426322
  0
LINE
  5
12BC
  8
0
 10
132.00000151991841
 20
60.90000057592988
 30
0.0
 11
139.9999991059303
 21
60.90000057592988
 31
0.0
  0
ARC
  5
12BE
  8
0
 10
137.5000006157488
 20
60.000000770059252
 30
0.0
 40
2.500000010100031
 50
270.00000011605101
 51
359.99999988426322
  0
LINE
  5
12BF
  8
0
 10
134.49999913573259
 20
57.500000298023217
 30
0.0
 11
137.50000149011609
 21
57.500000298023217
 31
0.0
  0
LINE
  5
12C1
  8
0
 10
139.9999991059303
 20
71.100000943988562
 30
0.0
 11
132.00000151991841
 21
71.100000943988562
 31
0.0
  0
ARC
  5
12C4
  8
0
 10
134.50000063594871
 20
72.000000749859197
 30
0.0
 40
2.500000010100023
 50
90.0
 51
179.9999998842616
  0
LINE
  5
12C5
  8
0
 10
134.49999913573259
 20
74.500001221895204
 30
0.0
 11
137.50000149011609
 21
74.500001221895204
 31
0.0
  0
ARC
  5
12C6
  8
0
 10
137.5000006157488
 20
72.000000749859225
 30
0.0
 40
2.5000000101000088
 50
0.000000116049433
 51
90.0
  0
LINE
  5
12C7
  8
0
 10
139.9999991059303
 20
59.997244034668739
 30
0.0
 11
139.9999991059303
 21
72.000000812113285
 31
0.0
  0
LINE
  5
12C9
  8
0
 10
200.53351387320251
 20
68.115157192503489
 30
0.0
 11
197.56891243159771
 21
73.250000551342964
 31
0.0
  0
ARC
  5
12CA
  8
0
 10
148.5961530445488
 20
72.000000761259201
 30
0.0
 40
2.4999999987000332
 50
89.99999998539937
 51
149.99999999733541
  0
LINE
  5
12CB
  8
0
 10
148.5961530357599
 20
74.500001221895204
 30
0.0
 11
195.40384821593759
 21
74.500001221895204
 31
0.0
  0
ARC
  5
12CC
  8
0
 10
195.4038482071488
 20
72.000000761259201
 30
0.0
 40
2.4999999987000052
 50
30.000000002741551
 51
90.0
  0
LINE
  5
12CD
  8
0
 10
146.4310888200998
 20
73.250000551342964
 30
0.0
 11
143.46648737848889
 21
68.115157192492944
 31
0.0
  0
LINE
  5
12CE
  8
0
 10
204.00000214576721
 20
72.002757485271928
 30
0.0
 11
204.00000214576721
 21
60.00000070780515
 31
0.0
  0
LINE
  5
12CF
  8
0
 10
204.00000214576721
 20
60.90000057592988
 30
0.0
 11
211.9999997317791
 21
60.90000057592988
 31
0.0
  0
ARC
  5
12D0
  8
0
 10
209.5000006157488
 20
60.000000770059252
 30
0.0
 40
2.5000000101000519
 50
270.00000011605101
 51
359.99999988426322
  0
LINE
  5
12D1
  8
0
 10
209.50000211596489
 20
57.500000298023217
 30
0.0
 11
206.49999976158139
 21
57.500000298023217
 31
0.0
  0
ARC
  5
12D2
  8
0
 10
206.50000063594871
 20
60.000000770059252
 30
0.0
 40
2.5000000101000022
 50
180.00000011605101
 51
269.99999988426322
  0
LINE
  5
12D5
  8
0
 10
211.9999997317791
 20
71.100000943988562
 30
0.0
 11
204.00000214576721
 21
71.100000943988562
 31
0.0
  0
ARC
  5
12D7
  8
0
 10
209.5000006157488
 20
72.000000749859225
 30
0.0
 40
2.500000010100023
 50
0.000000116049433
 51
90.0
  0
ARC
  5
12D8
  8
0
 10
206.50000063594871
 20
72.000000749859197
 30
0.0
 40
2.500000010100023
 50
90.000000116049435
 51
179.9999998842616
  0
LINE
  5
12D9
  8
0
 10
206.49999976158139
 20
74.500001221895204
 30
0.0
 11
209.50000211596489
 21
74.500001221895204
 31
0.0
  0
LINE
  5
12DC
  8
0
 10
139.9999991059303
 20
68.850000808015466
 30
0.0
 11
143.8907481729984
 21
68.850000808015466
 31
0.0
  0
LINE
  5
12DD
  8
0
 10
143.8907481729984
 20
63.150000711902969
 30
0.0
 11
139.9999991059303
 21
63.150000711902969
 31
0.0
  0
LINE
  5
12DE
  8
0
 10
200.10925307869911
 20
68.850000808015466
 30
0.0
 11
204.00000214576721
 21
68.850000808015466
 31
0.0
  0
LINE
  5
12DF
  8
0
 10
204.00000214576721
 20
63.150000711902969
 30
0.0
 11
200.10925307869911
 21
63.150000711902969
 31
0.0
  0
ARC
  5
12E0
  8
0
 10
209.50000062574881
 20
52.500000760059237
 30
0.0
 40
2.5000000001000151
 50
270.00000000115131
 51
359.99999999885517
  0
LINE
  5
12E1
  8
0
 10
134.49999913573259
 20
50.0
 30
0.0
 11
209.50000211596489
 21
50.0
 31
0.0
  0
ARC
  5
12E2
  8
0
 10
134.50000062594879
 20
52.500000760059237
 30
0.0
 40
2.500000000100008
 50
180.00000000115131
 51
269.99999999885358
  0
ARC
  5
12E3
  8
0
 10
134.50000062594879
 20
79.500000759859205
 30
0.0
 40
2.5000000001000009
 50
90.0
 51
179.99999999884869
  0
LINE
  5
12E4
  8
0
 10
209.50000211596489
 20
82.000001519918442
 30
0.0
 11
134.49999913573259
 21
82.000001519918442
 31
0.0
  0
ARC
  5
12E5
  8
0
 10
209.50000062574881
 20
79.500000759859205
 30
0.0
 40
2.5000000001000151
 50
0.0000000011496815
 51
90.0
  0
LINE
  5
12F0
  8
1
 10
66.000000759959221
 20
127.0000015199184
 30
0.0
 11
66.000000759959221
 21
152.0000016503036
 31
0.0
  0
LINE
  5
12FD
  8
0
 10
210.47979816794381
 20
146.700001694262
 30
0.0
 11
211.9999997317791
 21
146.700001694262
 31
0.0
  0
LINE
  5
12FE
  8
1
 10
152.00000107288361
 20
152.0000016503036
 30
0.0
 11
152.00000107288361
 21
127.0000015199184
 31
0.0
  0
LINE
  5
12FF
  8
1
 10
172.0000006258488
 20
152.0000016503036
 30
0.0
 11
172.0000006258488
 21
127.0000015199184
 31
0.0
  0
LINE
  5
1300
  8
1
 10
192.00000017881391
 20
152.0000016503036
 30
0.0
 11
192.00000017881391
 21
127.0000015199184
 31
0.0
  0
LINE
  5
1305
  8
1
 10
216.9999997317791
 20
66.000000759959221
 30
0.0
 11
127.0000015199184
 21
66.000000759959221
 31
0.0
  0
LINE
  5
1306
  8
1
 10
152.00000107288361
 20
74.000000759959192
 30
0.0
 11
152.00000107288361
 21
58.000000759959192
 31
0.0
  0
LINE
  5
1307
  8
1
 10
172.0000006258488
 20
74.000000759959391
 30
0.0
 11
172.0000006258488
 21
58.000000759958603
 31
0.0
  0
LINE
  5
1308
  8
1
 10
192.00000017881391
 20
74.00000075995959
 30
0.0
 11
192.00000017881391
 21
58.000000759957999
 31
0.0
  0
LINE
  5
1318
  8
0
 10
149.11324972693541
 20
61.000000759959278
 30
0.0
 11
154.88675241883169
 21
61.000000759959107
 31
0.0
  0
LINE
  5
1319
  8
0
 10
154.88675241883169
 20
61.000000759959107
 30
0.0
 11
157.77350376477989
 21
66.000000759959221
 31
0.0
  0
LINE
  5
131A
  8
0
 10
157.77350376477989
 20
66.000000759959221
 30
0.0
 11
154.88675241883169
 21
71.000000759959221
 31
0.0
  0
LINE
  5
131B
  8
0
 10
154.88675241883169
 20
71.000000759959221
 30
0.0
 11
149.11324972693549
 21
71.000000759959164
 31
0.0
  0
LINE
  5
131C
  8
0
 10
149.11324972693549
 20
71.000000759959164
 30
0.0
 11
146.22649838098729
 21
66.000000759959221
 31
0.0
  0
LINE
  5
131D
  8
0
 10
146.22649838098729
 20
66.000000759959221
 30
0.0
 11
149.11324972693541
 21
61.000000759959278
 31
0.0
  0
CIRCLE
  5
131E
  8
0
 10
152.00000107288361
 20
66.000000759959221
 30
0.0
 40
4.9000000000000004
  0
CIRCLE
  5
131F
  8
3
 10
152.00000107288361
 20
66.000000759959221
 30
0.0
 40
3.0
  0
CIRCLE
  5
1320
  8
0
 10
152.00000107288361
 20
66.000000759959221
 30
0.0
 40
2.458499999999999
  0
LINE
  5
1323
  8
0
 10
169.1132492799006
 20
61.00000075995905
 30
0.0
 11
174.88675197179691
 21
61.00000075995888
 31
0.0
  0
LINE
  5
1324
  8
0
 10
174.88675197179691
 20
61.00000075995888
 30
0.0
 11
177.77350331774511
 21
66.000000759958994
 31
0.0
  0
LINE
  5
1325
  8
0
 10
177.77350331774511
 20
66.000000759958994
 30
0.0
 11
174.88675197179691
 21
71.000000759958994
 31
0.0
  0
LINE
  5
1326
  8
0
 10
174.88675197179691
 20
71.000000759958994
 30
0.0
 11
169.11324927990071
 21
71.000000759958937
 31
0.0
  0
LINE
  5
1327
  8
0
 10
169.11324927990071
 20
71.000000759958937
 30
0.0
 11
166.22649793395249
 21
66.000000759958994
 31
0.0
  0
LINE
  5
1328
  8
0
 10
166.22649793395249
 20
66.000000759958994
 30
0.0
 11
169.1132492799006
 21
61.00000075995905
 31
0.0
  0
CIRCLE
  5
1329
  8
0
 10
172.0000006258488
 20
66.000000759958994
 30
0.0
 40
4.9000000000000004
  0
CIRCLE
  5
132A
  8
3
 10
172.0000006258488
 20
66.000000759958994
 30
0.0
 40
3.0
  0
CIRCLE
  5
132B
  8
0
 10
172.0000006258488
 20
66.000000759958994
 30
0.0
 40
2.458499999999999
  0
LINE
  5
132C
  8
0
 10
189.11324883286571
 20
61.000000759958851
 30
0.0
 11
194.88675152476199
 21
61.000000759958681
 31
0.0
  0
LINE
  5
132D
  8
0
 10
194.88675152476199
 20
61.000000759958681
 30
0.0
 11
197.77350287071019
 21
66.000000759958795
 31
0.0
  0
LINE
  5
132E
  8
0
 10
197.77350287071019
 20
66.000000759958795
 30
0.0
 11
194.88675152476199
 21
71.000000759958795
 31
0.0
  0
LINE
  5
132F
  8
0
 10
194.88675152476199
 20
71.000000759958795
 30
0.0
 11
189.11324883286579
 21
71.000000759958738
 31
0.0
  0
LINE
  5
1330
  8
0
 10
189.11324883286579
 20
71.000000759958738
 30
0.0
 11
186.22649748691759
 21
66.000000759958795
 31
0.0
  0
LINE
  5
1331
  8
0
 10
186.22649748691759
 20
66.000000759958795
 30
0.0
 11
189.11324883286571
 21
61.000000759958851
 31
0.0
  0
CIRCLE
  5
1332
  8
0
 10
192.00000017881391
 20
66.000000759958795
 30
0.0
 40
4.9000000000000004
  0
CIRCLE
  5
1333
  8
3
 10
192.00000017881391
 20
66.000000759958795
 30
0.0
 40
3.0
  0
CIRCLE
  5
1334
  8
0
 10
192.00000017881391
 20
66.000000759958795
 30
0.0
 40
2.458499999999999
  0
LINE
  5
13EF
  8
1
 10
216.9999997317791
 20
213.00000241026279
 30
0.0
 11
127.0000015199184
 21
213.00000241026279
 31
0.0
  0
LINE
  5
13F0
  8
1
 10
152.00000107288361
 20
219.10000241026279
 30
0.0
 11
152.00000107288361
 21
206.9000024102628
 31
0.0
  0
LINE
  5
13F1
  8
1
 10
172.0000006258488
 20
219.10000241026279
 30
0.0
 11
172.0000006258488
 21
206.9000024102628
 31
0.0
  0
LINE
  5
13F2
  8
1
 10
192.00000017881391
 20
219.10000241026279
 30
0.0
 11
192.00000017881391
 21
206.9000024102628
 31
0.0
  0
CIRCLE
  5
13F3
  8
0
 10
152.00000107288361
 20
213.00000241026279
 30
0.0
 40
3.1000000000000001
  0
CIRCLE
  5
13F4
  8
0
 10
172.00000062584871
 20
213.00000241026279
 30
0.0
 40
3.1000000000000001
  0
CIRCLE
  5
13F5
  8
0
 10
192.00000017881391
 20
213.00000241026279
 30
0.0
 40
3.1000000000000001
  0
CIRCLE
  5
156E
  8
3
 10
152.00000107288361
 20
213.00000241026279
 30
0.0
 40
3.0
  0
CIRCLE
  5
156F
  8
0
 10
152.00000107288361
 20
213.00000241026279
 30
0.0
 40
2.458499999999999
  0
CIRCLE
  5
1570
  8
3
 10
172.00000062584871
 20
213.0000024102626
 30
0.0
 40
3.0
  0
CIRCLE
  5
1571
  8
0
 10
172.00000062584871
 20
213.0000024102626
 30
0.0
 40
2.458499999999999
  0
CIRCLE
  5
1572
  8
3
 10
192.00000017881391
 20
213.00000241026231
 30
0.0
 40
3.0
  0
CIRCLE
  5
1573
  8
0
 10
192.00000017881391
 20
213.00000241026231
 30
0.0
 40
2.458499999999999
  0
ENDSEC
  0
EOF
