  0
SECTION
  2
HEADER
  9
$ACADVER
  1
AC1009
  9
$INSBASE
 10
0.0
 20
0.0
 30
0.0
  9
$EXTMIN
 10
0.0
 20
-2.960436562073669
 30
0.0
  9
$EXTMAX
 10
227.80748000831429
 20
228.0385861867866
 30
0.0
  9
$LIMMIN
 10
0.0
 20
0.0
  9
$LIMMAX
 10
187.5
 20
135.0
  9
$ORTHOMODE
 70
     1
  9
$REGENMODE
 70
     1
  9
$FILLMODE
 70
     1
  9
$QTEXTMODE
 70
     0
  9
$MIRRTEXT
 70
     0
  9
$DRAGMODE
 70
     2
  9
$LTSCALE
 40
10.0
  9
$OSMODE
 70
    37
  9
$ATTMODE
 70
     1
  9
$TEXTSIZE
 40
4.000000000000048
  9
$TRACEWID
 40
0.05
  9
$TEXTSTYLE
  7
STANDARD
  9
$CLAYER
  8
0
  9
$CELTYPE
  6
BYLAYER
  9
$CECOLOR
 62
   256
  9
$DIMSCALE
 40
1.0
  9
$DIMASZ
 40
3.0
  9
$DIMEXO
 40
2.0
  9
$DIMDLI
 40
0.38
  9
$DIMRND
 40
0.0
  9
$DIMDLE
 40
0.0
  9
$DIMEXE
 40
2.0
  9
$DIMTP
 40
0.0
  9
$DIMTM
 40
0.0
  9
$DIMTXT
 40
3.2000000000000002
  9
$DIMCEN
 40
0.09
  9
$DIMTSZ
 40
0.0
  9
$DIMTOL
 70
     0
  9
$DIMLIM
 70
     0
  9
$DIMTIH
 70
     0
  9
$DIMTOH
 70
     0
  9
$DIMSE1
 70
     0
  9
$DIMSE2
 70
     0
  9
$DIMTAD
 70
     1
  9
$DIMZIN
 70
     8
  9
$DIMBLK
  1

  9
$DIMASO
 70
     1
  9
$DIMSHO
 70
     0
  9
$DIMPOST
  1

  9
$DIMAPOST
  1

  9
$DIMALT
 70
     0
  9
$DIMALTD
 70
     2
  9
$DIMALTF
 40
25.399999999999999
  9
$DIMLFAC
 40
1.0
  9
$DIMTOFL
 70
     0
  9
$DIMTVP
 40
1.6000000000000001
  9
$DIMTIX
 70
     1
  9
$DIMSOXD
 70
     0
  9
$DIMSAH
 70
     0
  9
$DIMBLK1
  1

  9
$DIMBLK2
  1

  9
$DIMSTYLE
  2
STANDARD
  9
$DIMCLRD
 70
     0
  9
$DIMCLRE
 70
     0
  9
$DIMCLRT
 70
     0
  9
$DIMTFAC
 40
1.0
  9
$DIMGAP
 40
0.09
  9
$LUNITS
 70
     2
  9
$LUPREC
 70
     1
  9
$SKETCHINC
 40
0.1
  9
$FILLETRAD
 40
1.8999999999999999
  9
$AUNITS
 70
     0
  9
$AUPREC
 70
     0
  9
$MENU
  1
E:\r13\win\SUPPORT\ACAD
  9
$ELEVATION
 40
0.0
  9
$PELEVATION
 40
0.0
  9
$THICKNESS
 40
0.0
  9
$LIMCHECK
 70
     0
  9
$BLIPMODE
 70
     0
  9
$CHAMFERA
 40
0.0
  9
$CHAMFERB
 40
0.0
  9
$SKPOLY
 70
     0
  9
$TDCREATE
 40
2451582.7089806711
  9
$TDUPDATE
 40
2458183.5885939011
  9
$TDINDWG
 40
0.2701366551
  9
$TDUSRTIMER
 40
0.2701366551
  9
$USRTIMER
 70
     1
  9
$ANGBASE
 50
0.0
  9
$ANGDIR
 70
     0
  9
$PDMODE
 70
     0
  9
$PDSIZE
 40
0.0
  9
$PLINEWID
 40
0.0
  9
$COORDS
 70
     1
  9
$SPLFRAME
 70
     0
  9
$SPLINETYPE
 70
     6
  9
$SPLINESEGS
 70
     8
  9
$ATTDIA
 70
     0
  9
$ATTREQ
 70
     1
  9
$HANDLING
 70
     1
  9
$HANDSEED
  5
2BBC
  9
$SURFTAB1
 70
     6
  9
$SURFTAB2
 70
     6
  9
$SURFTYPE
 70
     6
  9
$SURFU
 70
     6
  9
$SURFV
 70
     6
  9
$UCSNAME
  2

  9
$UCSORG
 10
0.0
 20
0.0
 30
0.0
  9
$UCSXDIR
 10
1.0
 20
0.0
 30
0.0
  9
$UCSYDIR
 10
0.0
 20
1.0
 30
0.0
  9
$PUCSNAME
  2

  9
$PUCSORG
 10
0.0
 20
0.0
 30
0.0
  9
$PUCSXDIR
 10
1.0
 20
0.0
 30
0.0
  9
$PUCSYDIR
 10
0.0
 20
1.0
 30
0.0
  9
$USERI1
 70
     0
  9
$USERI2
 70
     1
  9
$USERI3
 70
     1
  9
$USERI4
 70
     0
  9
$USERI5
 70
     0
  9
$USERR1
 40
0.0
  9
$USERR2
 40
0.0
  9
$USERR3
 40
0.0
  9
$USERR4
 40
0.0
  9
$USERR5
 40
0.0
  9
$WORLDVIEW
 70
     1
  9
$SHADEDGE
 70
     3
  9
$SHADEDIF
 70
    70
  9
$TILEMODE
 70
     1
  9
$MAXACTVP
 70
    16
  9
$PLIMCHECK
 70
     0
  9
$PEXTMIN
 10
1.0000000000000000E+020
 20
1.0000000000000000E+020
 30
1.0000000000000000E+020
  9
$PEXTMAX
 10
-1.0000000000000000E+020
 20
-1.0000000000000000E+020
 30
-1.0000000000000000E+020
  9
$PLIMMIN
 10
0.0
 20
0.0
  9
$PLIMMAX
 10
12.0
 20
9.0
  9
$UNITMODE
 70
     0
  9
$VISRETAIN
 70
     0
  9
$PLINEGEN
 70
     0
  9
$PSLTSCALE
 70
     0
  0
ENDSEC
  0
SECTION
  2
TABLES
  0
TABLE
  2
VPORT
 70
     1
  0
VPORT
  2
*ACTIVE
 70
     0
 10
0.0
 20
0.0
 11
1.0
 21
1.0
 12
227.02991452991449
 22
125.0
 13
0.0
 23
0.0
 14
5.0
 24
5.0
 15
5.0
 25
5.0
 16
0.0
 26
0.0
 36
1.0
 17
0.0
 27
0.0
 37
0.0
 40
250.0
 41
1.816239316239316
 42
50.0
 43
0.0
 44
0.0
 50
0.0
 51
0.0
 71
     0
 72
   500
 73
     1
 74
     0
 75
     0
 76
     0
 77
     0
 78
     2
  0
ENDTAB
  0
TABLE
  2
LTYPE
 70
     3
  0
LTYPE
  2
CONTINUOUS
 70
     0
  3
Solid Line
 72
    65
 73
     0
 40
0.0
  0
LTYPE
  2
CENTER
 70
     0
  3
____ _ ____ _ ____ _ ____ _ ____ _ ____ _ ____
 72
    65
 73
     4
 40
2.0
 49
1.25
 49
-0.25
 49
0.25
 49
-0.25
  0
LTYPE
  2
PHANTOM2
 70
     0
  3
___ _ _ ___ _ _ ___ _ _ ___ _ _
 72
    65
 73
     6
 40
1.25
 49
0.625
 49
-0.125
 49
0.125
 49
-0.125
 49
0.125
 49
-0.125
  0
ENDTAB
  0
TABLE
  2
LAYER
 70
     4
  0
LAYER
  2
0
 70
     0
 62
     7
  6
CONTINUOUS
  0
LAYER
  2
1
 70
     0
 62
     1
  6
CENTER
  0
LAYER
  2
DEFPOINTS
 70
     0
 62
     7
  6
CONTINUOUS
  0
LAYER
  2
3
 70
     0
 62
     3
  6
CONTINUOUS
  0
ENDTAB
  0
TABLE
  2
STYLE
 70
     2
  0
STYLE
  2
STANDARD
 70
     0
 40
0.0
 41
1.0
 50
0.0
 71
     0
 42
4.000000000000048
  3
TXT
  4
BIGFONT
  0
STYLE
  2
STANDARD1
 70
     0
 40
0.0
 41
1.0
 50
0.0
 71
     0
 42
3.0
  3
txt
  4

  0
ENDTAB
  0
TABLE
  2
VIEW
 70
     2
  0
VIEW
  2
ALL
 70
     0
 40
135.0
 10
110.4957983193277
 20
67.5
 41
0.0
 11
0.0
 21
0.0
 31
1.0
 12
0.0
 22
0.0
 32
0.0
 42
0.0
 43
0.0
 44
0.0
 50
0.0
 71
     0
  0
VIEW
  2
OLE1
 70
     0
 40
235.2079806749349
 10
722.79185871078926
 20
95.257412002191856
 41
302.2278937573451
 11
0.0
 21
0.0
 31
1.0
 12
0.0
 22
0.0
 32
0.0
 42
50.0
 43
0.0
 44
0.0
 50
0.0
 71
     0
  0
ENDTAB
  0
TABLE
  2
UCS
 70
     0
  0
ENDTAB
  0
TABLE
  2
APPID
 70
    44
  0
APPID
  2
ACAD
 70
     0
  0
APPID
  2
ACAD_MLEADERVER
 70
     0
  0
APPID
  2
ACAD_NAV_VCDISPLAY
 70
     0
  0
APPID
  2
ACAD_DSTYLE_DIMJAG
 70
     0
  0
APPID
  2
ACAD_DSTYLE_DIMTALN
 70
     0
  0
APPID
  2
ACAD_EXEMPT_FROM_CAD_STANDARDS
 70
     0
  0
APPID
  2
GENIUS_GENODEF_13
 70
     0
  0
APPID
  2
GENIUS_GENFIL_13
 70
     0
  0
APPID
  2
GENIUS_GENOBJ-N-CHA_13
 70
     0
  0
APPID
  2
ACAD_DSTYLE_DIMRADIAL_EXTENSION
 70
     0
  0
APPID
  2
GENIUS_GENOREF_13
 70
     0
  0
APPID
  2
DCO15
 70
     0
  0
APPID
  2
GENIUS_GENOENT_13
 70
     0
  0
APPID
  2
GENIUS_GENBH_13
 70
     0
  0
APPID
  2
GENIUS_GENOBJ_13
 70
     0
  0
APPID
  2
GENIUS_GENOLIS_13
 70
     0
  0
APPID
  2
GENIUS_GENOBJ-NBEHI-BHF_13
 70
     0
  0
APPID
  2
GENIUS_GENOBJ-NBEHI-BHB_13
 70
     0
  0
APPID
  2
GENIUS_GENOBJ-F-PART_13
 70
     0
  0
APPID
  2
GENIUS_GEFSTDP_13
 70
     0
  0
APPID
  2
GENIUS_GENOBJ-N-RSSYM_13
 70
     0
  0
APPID
  2
GENIUS_GENSYMENT_13
 70
     0
  0
APPID
  2
GENIUS_GENOBJ-N-TIT_13
 70
     0
  0
APPID
  2
GENIUS_GENTITLE_13
 70
     0
  0
APPID
  2
GENIUS_GENZVEED_13
 70
     0
  0
APPID
  2
GENIUS_GENOBJ-N-LEADER_13
 70
     0
  0
APPID
  2
GENIUS_GENOBJ-N-FIL_13
 70
     0
  0
APPID
  2
GENIUS_GENOBJ-N-SEC_13
 70
     0
  0
APPID
  2
GENIUS_GENOBJ-N-CRS_13
 70
     0
  0
APPID
  2
GENIUS_GENOBJ-N-ZOO_13
 70
     0
  0
APPID
  2
GENIUS_GENZOO_13
 70
     0
  0
APPID
  2
GENIUS_GENOBJ-F-TOL_13
 70
     0
  0
APPID
  2
_CALL_MAC$
 70
     0
  0
APPID
  2
ASM_BASE
 70
     0
  0
APPID
  2
ASM_EXPLO_VER_2_00
 70
     0
  0
APPID
  2
ASM_CADM_VER_12_00
 70
     0
  0
APPID
  2
ASM_BASEFORO
 70
     0
  0
APPID
  2
ASM_BASETRAVI
 70
     0
  0
APPID
  2
ASM_BASETRAVI1
 70
     0
  0
APPID
  2
ASM_GRUPPI
 70
     0
  0
APPID
  2
ASM_CADM_ALBERO
 70
     0
  0
APPID
  2
ASM_GOLE
 70
     0
  0
APPID
  2
GENIUS_GENOBJ-N-CEN_13
 70
     0
  0
APPID
  2
GENIUS_GENCEN_19
 70
     0
  0
ENDTAB
  0
TABLE
  2
DIMSTYLE
 70
     1
  0
DIMSTYLE
  2
STANDARD
 70
     0
  3

  4

  5

  6

  7

 40
1.0
 41
0.18
 42
0.0625
 43
0.38
 44
0.18
 45
0.0
 46
0.0
 47
0.0
 48
0.0
140
0.18
141
0.09
142
0.0
143
25.399999999999999
144
1.0
145
0.0
146
1.0
147
0.09
 71
     0
 72
     0
 73
     1
 74
     1
 75
     0
 76
     0
 77
     0
 78
     0
170
     0
171
     2
172
     0
173
     0
174
     0
175
     0
176
     0
177
     0
178
     0
  0
ENDTAB
  0
ENDSEC
  0
SECTION
  2
BLOCKS
  0
BLOCK
  8
0
  2
$MODEL_SPACE
 70
     0
 10
0.0
 20
0.0
 30
0.0
  3
$MODEL_SPACE
  1

  0
ENDBLK
  5
968
  8
0
  0
BLOCK
 67
     1
  8
0
  2
$PAPER_SPACE
 70
     0
 10
0.0
 20
0.0
 30
0.0
  3
$PAPER_SPACE
  1

  0
ENDBLK
  5
966
 67
     1
  8
0
  0
ENDSEC
  0
SECTION
  2
ENTITIES
  0
TEXT
  5
1479
  8
0
 62
     3
 10
0.0
 20
0.0
 30
0.0
 40
10.0
  1
TS60X50
  7
STANDARD1
  0
POLYLINE
  5
178E
  8
0
 66
     1
 10
0.0
 20
0.0
 30
0.0
  0
VERTEX
  5
2B2B
  8
0
 10
91.968893821528127
 20
178.0385861867862
 30
0.0
  0
VERTEX
  5
2B2C
  8
0
 10
89.773604040172131
 20
176.79437585258171
 30
0.0
  0
VERTEX
  5
2B2D
  8
0
 10
87.515627865163424
 20
175.65971774038911
 30
0.0
  0
VERTEX
  5
2B2E
  8
0
 10
85.203533161785117
 20
174.63924664170381
 30
0.0
  0
VERTEX
  5
2B2F
  8
0
 10
82.783857258448506
 20
173.71515800902549
 30
0.0
  0
VERTEX
  5
2B30
  8
0
 10
80.316849879822485
 20
172.91529482474601
 30
0.0
  0
VERTEX
  5
2B31
  8
0
 10
77.812503311831506
 20
172.24312805590731
 30
0.0
  0
VERTEX
  5
2B32
  8
0
 10
75.109012362181133
 20
171.66974807161779
 30
0.0
  0
VERTEX
  5
2B33
  8
0
 10
72.375161550712605
 20
171.24456399821531
 30
0.0
  0
VERTEX
  5
2B34
  8
0
 10
69.623633952244518
 20
170.9696814074386
 30
0.0
  0
VERTEX
  5
2B35
  8
0
 10
66.779524421345286
 20
170.84506356538819
 30
0.0
  0
VERTEX
  5
2B36
  8
0
 10
63.930475970377529
 20
170.88081776905449
 30
0.0
  0
VERTEX
  5
2B37
  8
0
 10
61.090526132235482
 20
171.0767562248524
 30
0.0
  0
VERTEX
  5
2B38
  8
0
 10
58.361590155366692
 20
171.418320556336
 30
0.0
  0
VERTEX
  5
2B39
  8
0
 10
55.653958216996898
 20
171.90805492361471
 30
0.0
  0
VERTEX
  5
2B3A
  8
0
 10
52.980047173178491
 20
172.5435609485825
 30
0.0
  0
VERTEX
  5
2B3B
  8
0
 10
50.270533758422062
 20
173.34843040164549
 30
0.0
  0
VERTEX
  5
2B3C
  8
0
 10
47.609699802133953
 20
174.30366936559639
 30
0.0
  0
VERTEX
  5
2B3D
  8
0
 10
45.010317885430588
 20
175.4043610547304
 30
0.0
  0
VERTEX
  5
2B3E
  8
0
 10
42.47483007074765
 20
176.6498394662548
 30
0.0
  0
VERTEX
  5
2B3F
  8
0
 10
40.007369594461807
 20
178.0385861867872
 30
0.0
  0
SEQEND
  5
2B40
  8
0
  0
POLYLINE
  5
178F
  8
0
 66
     1
 10
0.0
 20
0.0
 30
0.0
  0
VERTEX
  5
2B41
  8
0
 10
65.98813170799508
 20
223.0385861867866
 30
0.0
  0
VERTEX
  5
2B42
  8
0
 10
68.16329481503908
 20
221.75951434867281
 30
0.0
  0
VERTEX
  5
2B43
  8
0
 10
70.274926083471883
 20
220.3713783439606
 30
0.0
  0
VERTEX
  5
2B44
  8
0
 10
72.314727728220078
 20
218.8792807693203
 30
0.0
  0
VERTEX
  5
2B45
  8
0
 10
74.324850301861034
 20
217.24582383992859
 30
0.0
  0
VERTEX
  5
2B46
  8
0
 10
76.251056176885413
 20
215.50926388344919
 30
0.0
  0
VERTEX
  5
2B47
  8
0
 10
78.085343259647743
 20
213.67651899491841
 30
0.0
  0
VERTEX
  5
2B48
  8
0
 10
79.933650225618734
 20
211.62191702630341
 30
0.0
  0
VERTEX
  5
2B49
  8
0
 10
81.668795692472258
 20
209.46692469891289
 30
0.0
  0
VERTEX
  5
2B4A
  8
0
 10
83.282614644943351
 20
207.22147309238611
 30
0.0
  0
VERTEX
  5
2B4B
  8
0
 10
84.812591463711897
 20
204.82071081285471
 30
0.0
  0
VERTEX
  5
2B4C
  8
0
 10
86.206151471778867
 20
202.33548529004599
 30
0.0
  0
VERTEX
  5
2B4D
  8
0
 10
87.456438537634767
 20
199.77804728123161
 30
0.0
  0
VERTEX
  5
2B4E
  8
0
 10
88.525102969741283
 20
197.24393716503801
 30
0.0
  0
VERTEX
  5
2B4F
  8
0
 10
89.454796363897913
 20
194.6541918790719
 30
0.0
  0
VERTEX
  5
2B50
  8
0
 10
90.241387349298293
 20
192.02076392542659
 30
0.0
  0
VERTEX
  5
2B51
  8
0
 10
90.899106481449493
 20
189.27182170929069
 30
0.0
  0
VERTEX
  5
2B52
  8
0
 10
91.402262066073504
 20
186.4898523960058
 30
0.0
  0
VERTEX
  5
2B53
  8
0
 10
91.748725874896536
 20
183.6883757582232
 30
0.0
  0
VERTEX
  5
2B54
  8
0
 10
91.937853587859536
 20
180.86984133531911
 30
0.0
  0
VERTEX
  5
2B55
  8
0
 10
91.968893821528127
 20
178.0385861867862
 30
0.0
  0
SEQEND
  5
2B56
  8
0
  0
POLYLINE
  5
1790
  8
0
 66
     1
 10
0.0
 20
0.0
 30
0.0
  0
VERTEX
  5
2B57
  8
0
 10
40.007369594461807
 20
178.0385861867872
 30
0.0
  0
VERTEX
  5
2B58
  8
0
 10
40.027496858922852
 20
180.5618720162505
 30
0.0
  0
VERTEX
  5
2B59
  8
0
 10
40.173842721979547
 20
183.0846697349242
 30
0.0
  0
VERTEX
  5
2B5A
  8
0
 10
40.446137095686709
 20
185.59724191238189
 30
0.0
  0
VERTEX
  5
2B5B
  8
0
 10
40.855692198744457
 20
188.15479111830589
 30
0.0
  0
VERTEX
  5
2B5C
  8
0
 10
41.39649585810912
 20
190.6912177502092
 30
0.0
  0
VERTEX
  5
2B5D
  8
0
 10
42.066557862626503
 20
193.19613270061581
 30
0.0
  0
VERTEX
  5
2B5E
  8
0
 10
42.921742974576773
 20
195.82411407746071
 30
0.0
  0
VERTEX
  5
2B5F
  8
0
 10
43.920449412411017
 20
198.4042898395335
 30
0.0
  0
VERTEX
  5
2B60
  8
0
 10
45.058159111293662
 20
200.9246233388867
 30
0.0
  0
VERTEX
  5
2B61
  8
0
 10
46.372292860585951
 20
203.4500026799966
 30
0.0
  0
VERTEX
  5
2B62
  8
0
 10
47.827782292048362
 20
205.89947316052749
 30
0.0
  0
VERTEX
  5
2B63
  8
0
 10
49.417445999413978
 20
208.2609718215939
 30
0.0
  0
VERTEX
  5
2B64
  8
0
 10
51.077718426274707
 20
210.4535167268954
 30
0.0
  0
VERTEX
  5
2B65
  8
0
 10
52.855657801658033
 20
212.55352671794159
 30
0.0
  0
VERTEX
  5
2B66
  8
0
 10
54.742978636398441
 20
214.55144767543231
 30
0.0
  0
VERTEX
  5
2B67
  8
0
 10
56.794773656958107
 20
216.4955193954452
 30
0.0
  0
VERTEX
  5
2B68
  8
0
 10
58.952452704568252
 20
218.32224866155889
 30
0.0
  0
VERTEX
  5
2B69
  8
0
 10
61.205371423338867
 20
220.02303249267419
 30
0.0
  0
VERTEX
  5
2B6A
  8
0
 10
63.551721821134599
 20
221.59608258101801
 30
0.0
  0
VERTEX
  5
2B6B
  8
0
 10
65.98813170799508
 20
223.0385861867866
 30
0.0
  0
SEQEND
  5
2B6C
  8
0
  0
CIRCLE
  5
1791
  8
0
 10
65.98813170799508
 20
193.0385861867866
 30
0.0
 40
10.02705894596602
  0
LINE
  5
1793
  8
1
 10
100.988131707995
 20
193.0385861867866
 30
0.0
 11
30.98813170799508
 21
193.0385861867866
 31
0.0
  0
LINE
  5
1794
  8
1
 10
65.98813170799508
 20
228.0385861867866
 30
0.0
 11
65.98813170799508
 21
158.0385861867866
 31
0.0
  0
LINE
  5
179B
  8
0
 10
58.188131707995119
 20
90.0
 30
0.0
 11
73.788131707995035
 21
90.0
 31
0.0
  0
LINE
  5
179C
  8
0
 10
73.788131707995035
 20
90.0
 30
0.0
 11
73.788131707995035
 21
90.200000000000017
 31
0.0
  0
LINE
  5
179D
  8
0
 10
58.188131707995119
 20
90.200000000000017
 30
0.0
 11
58.188131707995119
 21
90.0
 31
0.0
  0
LINE
  5
17A5
  8
0
 10
54.98813170799508
 20
90.200000000000017
 30
0.0
 11
76.98813170799508
 21
90.200000000000017
 31
0.0
  0
LINE
  5
17A6
  8
0
 10
76.98813170799508
 20
90.200000000000017
 30
0.0
 11
76.98813170799508
 21
112.0
 31
0.0
  0
LINE
  5
17A7
  8
0
 10
54.98813170799508
 20
112.0
 30
0.0
 11
54.98813170799508
 21
90.200000000000017
 31
0.0
  0
LINE
  5
17A8
  8
0
 10
40.0
 20
128.35138869405731
 30
0.0
 11
40.0
 21
112.0
 31
0.0
  0
POLYLINE
  5
17A9
  8
0
 66
     1
 10
0.0
 20
0.0
 30
0.0
  0
VERTEX
  5
2B6D
  8
0
 10
40.00000000026921
 20
128.35138869657061
 30
0.0
  0
VERTEX
  5
2B6E
  8
0
 10
40.010418165000146
 20
128.44865128572101
 30
0.0
  0
VERTEX
  5
2B6F
  8
0
 10
40.084064725966748
 20
128.61800347608079
 30
0.0
  0
VERTEX
  5
2B70
  8
0
 10
40.22942615704482
 20
128.7754351298193
 30
0.0
  0
VERTEX
  5
2B71
  8
0
 10
40.446137095686709
 20
128.91981051474411
 30
0.0
  0
VERTEX
  5
2B72
  8
0
 10
40.739915303226098
 20
129.0532706877635
 30
0.0
  0
VERTEX
  5
2B73
  8
0
 10
41.107097286061162
 20
129.17300743758179
 30
0.0
  0
VERTEX
  5
2B74
  8
0
 10
41.550206755444151
 20
129.2795585733748
 30
0.0
  0
VERTEX
  5
2B75
  8
0
 10
42.020537507857391
 20
129.36490708838531
 30
0.0
  0
SEQEND
  5
2B76
  8
0
  0
LINE
  5
17AB
  8
0
 10
91.976263415990175
 20
112.0
 30
0.0
 11
91.976263415990175
 21
128.35139816691901
 31
0.0
  0
LINE
  5
17AC
  8
0
 10
91.976263415945823
 20
128.35139816769311
 30
0.0
 11
91.968893821528127
 21
128.26666666666659
 31
0.0
  0
LINE
  5
17AD
  8
0
 10
91.976263415990175
 20
112.0
 30
0.0
 11
40.0
 21
112.0
 31
0.0
  0
LINE
  5
17AE
  8
0
 10
91.968893821528127
 20
128.26666666666659
 30
0.0
 11
91.968893821528127
 21
112.0
 31
0.0
  0
LINE
  5
17AF
  8
0
 10
40.007369594461807
 20
128.26666666666679
 30
0.0
 11
40.007369594461807
 21
112.0
 31
0.0
  0
POLYLINE
  5
17B0
  8
0
 66
     1
 10
0.0
 20
0.0
 30
0.0
  0
VERTEX
  5
2B77
  8
0
 10
91.968893821528127
 20
128.26666666666659
 30
0.0
  0
VERTEX
  5
2B78
  8
0
 10
89.773604040171904
 20
128.50709702303129
 30
0.0
  0
VERTEX
  5
2B79
  8
0
 10
87.515627865163424
 20
128.72501317478299
 30
0.0
  0
VERTEX
  5
2B7A
  8
0
 10
85.203533161785117
 20
128.91980965549169
 30
0.0
  0
VERTEX
  5
2B7B
  8
0
 10
83.393603883760065
 20
129.0535885145309
 30
0.0
  0
VERTEX
  5
2B7C
  8
0
 10
81.555645485676436
 20
129.17365657749869
 30
0.0
  0
VERTEX
  5
2B7D
  8
0
 10
79.693873463158752
 20
129.27987799249269
 30
0.0
  0
VERTEX
  5
2B7E
  8
0
 10
77.812503311831506
 20
129.37211690761029
 30
0.0
  0
VERTEX
  5
2B7F
  8
0
 10
75.788226769249377
 20
129.4550194064594
 30
0.0
  0
VERTEX
  5
2B80
  8
0
 10
73.745089246998063
 20
129.5221768503022
 30
0.0
  0
VERTEX
  5
2B81
  8
0
 10
71.688441417266631
 20
129.573548498571
 30
0.0
  0
VERTEX
  5
2B82
  8
0
 10
69.623633952244518
 20
129.6090936106983
 30
0.0
  0
VERTEX
  5
2B83
  8
0
 10
67.491563168955054
 20
129.6291749772418
 30
0.0
  0
VERTEX
  5
2B84
  8
0
 10
65.354740215064112
 20
129.63256400990349
 30
0.0
  0
VERTEX
  5
2B85
  8
0
 10
63.219087174760951
 20
129.61926258164041
 30
0.0
  0
VERTEX
  5
2B86
  8
0
 10
61.090526132235482
 20
129.5892725654098
 30
0.0
  0
VERTEX
  5
2B87
  8
0
 10
59.042311929414147
 20
129.5443736094895
 30
0.0
  0
VERTEX
  5
2B88
  8
0
 10
57.00433512786617
 20
129.48379921817991
 30
0.0
  0
VERTEX
  5
2B89
  8
0
 10
54.981834088738417
 20
129.4076025871247
 30
0.0
  0
VERTEX
  5
2B8A
  8
0
 10
52.980047173178491
 20
129.31583691196761
 30
0.0
  0
VERTEX
  5
2B8B
  8
0
 10
50.943847341829724
 20
129.2050513940105
 30
0.0
  0
VERTEX
  5
2B8C
  8
0
 10
48.933233561649779
 20
129.0776545501005
 30
0.0
  0
VERTEX
  5
2B8D
  8
0
 10
46.95359426529717
 20
128.93385741573221
 30
0.0
  0
VERTEX
  5
2B8E
  8
0
 10
45.010317885430588
 20
128.77387102640009
 30
0.0
  0
VERTEX
  5
2B8F
  8
0
 10
43.733589282774339
 20
128.6579845649463
 30
0.0
  0
VERTEX
  5
2B90
  8
0
 10
42.47483007074765
 20
128.53493394664761
 30
0.0
  0
VERTEX
  5
2B91
  8
0
 10
41.231069792575681
 20
128.40434300627621
 30
0.0
  0
VERTEX
  5
2B92
  8
0
 10
40.007369594461807
 20
128.26666666666679
 30
0.0
  0
SEQEND
  5
2B93
  8
0
  0
LINE
  5
17B5
  8
0
 10
40.007369594461807
 20
128.26666666666671
 30
0.0
 11
40.00000000026921
 21
128.35138869657061
 31
0.0
  0
LINE
  5
17B6
  8
0
 10
55.961072762029062
 20
130.83858618678661
 30
0.0
 11
76.015190653961099
 21
130.83858618678661
 31
0.0
  0
ARC
  5
17B7
  8
0
 10
68.83342571867297
 20
-3.7719750165928541
 30
0.0
 40
134.80200642080399
 50
80.985367884951486
 51
86.946041544802085
  0
ARC
  5
17B8
  8
0
 10
63.142838441299538
 20
-3.7719843798975949
 30
0.0
 40
134.80201581044781
 50
93.053958558940323
 51
99.014898365148923
  0
POLYLINE
  5
17B9
  8
0
 66
     1
 10
0.0
 20
0.0
 30
0.0
  0
VERTEX
  5
2B94
  8
0
 10
89.955106501388158
 20
129.3650053306705
 30
0.0
  0
VERTEX
  5
2B95
  8
0
 10
90.241387349298293
 20
129.31583675085389
 30
0.0
  0
VERTEX
  5
2B96
  8
0
 10
90.747767659845522
 20
129.2054615602209
 30
0.0
  0
VERTEX
  5
2B97
  8
0
 10
91.167719239852886
 20
129.07870291358421
 30
0.0
  0
VERTEX
  5
2B98
  8
0
 10
91.502631484816675
 20
128.93451020064211
 30
0.0
  0
VERTEX
  5
2B99
  8
0
 10
91.748725874896536
 20
128.77387076234621
 30
0.0
  0
VERTEX
  5
2B9A
  8
0
 10
91.862993552771741
 20
128.65803315848169
 30
0.0
  0
VERTEX
  5
2B9B
  8
0
 10
91.937853587859536
 20
128.53493379705
 30
0.0
  0
VERTEX
  5
2B9C
  8
0
 10
91.973227658426126
 20
128.40439772415471
 30
0.0
  0
VERTEX
  5
2B9D
  8
0
 10
91.976263415945823
 20
128.35139816769311
 30
0.0
  0
SEQEND
  5
2B9E
  8
0
  0
LINE
  5
17C2
  8
1
 10
65.988131707994853
 20
35.000000000000242
 30
0.0
 11
65.98813170799508
 21
135.83858618678661
 31
0.0
  0
LINE
  5
17C8
  8
0
 10
172.80748000831471
 20
200.83858618678661
 30
0.0
 11
172.6074800083147
 21
200.83858618678661
 31
0.0
  0
LINE
  5
17C9
  8
0
 10
172.6074800083147
 20
185.23858618678659
 30
0.0
 11
172.80748000831471
 21
185.23858618678659
 31
0.0
  0
LINE
  5
17CA
  8
0
 10
172.80748000831471
 20
185.23858618678659
 30
0.0
 11
172.80748000831471
 21
200.83858618678661
 31
0.0
  0
LINE
  5
17D2
  8
0
 10
172.6074800083147
 20
204.0385861867866
 30
0.0
 11
150.80748000831471
 21
204.0385861867866
 31
0.0
  0
LINE
  5
17D3
  8
0
 10
150.80748000831471
 20
182.0385861867866
 30
0.0
 11
172.6074800083147
 21
182.0385861867866
 31
0.0
  0
LINE
  5
17D4
  8
0
 10
172.6074800083147
 20
182.0385861867866
 30
0.0
 11
172.6074800083147
 21
204.0385861867866
 31
0.0
  0
LINE
  5
17D5
  8
0
 10
150.80748000831471
 20
223.0385861867866
 30
0.0
 11
150.80748000831471
 21
170.83858618678661
 31
0.0
  0
LINE
  5
17D6
  8
0
 10
133.1741466749813
 20
170.83858618678661
 30
0.0
 11
150.80748000831471
 21
170.83858618678661
 31
0.0
  0
LINE
  5
17D7
  8
0
 10
134.54081334164809
 20
223.0385861867866
 30
0.0
 11
150.80748000831471
 21
223.0385861867866
 31
0.0
  0
LINE
  5
17D8
  8
0
 10
134.54081334164809
 20
178.0385861867862
 30
0.0
 11
150.80748000831471
 21
178.0385861867866
 31
0.0
  0
LINE
  5
17D9
  8
0
 10
134.54081334164809
 20
178.03858618678649
 30
0.0
 11
133.17414667498431
 21
170.83858618680111
 31
0.0
  0
POLYLINE
  5
17DA
  8
0
 66
     1
 10
0.0
 20
0.0
 30
0.0
  0
VERTEX
  5
2B9F
  8
0
 10
134.54081334164809
 20
223.0385861867866
 30
0.0
  0
VERTEX
  5
2BA0
  8
0
 10
134.30038293620029
 20
221.75951434867281
 30
0.0
  0
VERTEX
  5
2BA1
  8
0
 10
134.08246674505381
 20
220.3713783439606
 30
0.0
  0
VERTEX
  5
2BA2
  8
0
 10
133.88767023499409
 20
218.8792807693203
 30
0.0
  0
VERTEX
  5
2BA3
  8
0
 10
133.7538913589737
 20
217.66412421915331
 30
0.0
  0
VERTEX
  5
2BA4
  8
0
 10
133.6338232852558
 20
216.389999359135
 30
0.0
  0
VERTEX
  5
2BA5
  8
0
 10
133.52760186579371
 20
215.0598247606089
 30
0.0
  0
VERTEX
  5
2BA6
  8
0
 10
133.4353629525408
 20
213.6765189949183
 30
0.0
  0
VERTEX
  5
2BA7
  8
0
 10
133.35246047965711
 20
212.14536704739069
 30
0.0
  0
VERTEX
  5
2BA8
  8
0
 10
133.28530306171791
 20
210.55634896497759
 30
0.0
  0
VERTEX
  5
2BA9
  8
0
 10
133.2339314392579
 20
208.91365442190181
 30
0.0
  0
VERTEX
  5
2BAA
  8
0
 10
133.19838635281121
 20
207.22147309238611
 30
0.0
  0
VERTEX
  5
2BAB
  8
0
 10
133.17830501259371
 20
205.4292983570007
 30
0.0
  0
VERTEX
  5
2BAC
  8
0
 10
133.17491600618291
 20
203.58789028453049
 30
0.0
  0
VERTEX
  5
2BAD
  8
0
 10
133.18821746061161
 20
201.7024171631995
 30
0.0
  0
VERTEX
  5
2BAE
  8
0
 10
133.2182075029134
 20
199.77804728123161
 30
0.0
  0
VERTEX
  5
2BAF
  8
0
 10
133.26310648409549
 20
197.8831473858655
 30
0.0
  0
VERTEX
  5
2BB0
  8
0
 10
133.3236809007019
 20
195.95527188689559
 30
0.0
  0
VERTEX
  5
2BB1
  8
0
 10
133.39987755705121
 20
193.9994632461424
 30
0.0
  0
VERTEX
  5
2BB2
  8
0
 10
133.49164325746091
 20
192.02076392542659
 30
0.0
  0
VERTEX
  5
2BB3
  8
0
 10
133.6024288013441
 20
189.96268166980161
 30
0.0
  0
VERTEX
  5
2BB4
  8
0
 10
133.72982567110279
 20
187.88412045400111
 30
0.0
  0
VERTEX
  5
2BB5
  8
0
 10
133.87362283116749
 20
185.7907839321125
 30
0.0
  0
VERTEX
  5
2BB6
  8
0
 10
134.03360924596859
 20
183.6883757582232
 30
0.0
  0
VERTEX
  5
2BB7
  8
0
 10
134.14949565443271
 20
182.28012951519401
 30
0.0
  0
VERTEX
  5
2BB8
  8
0
 10
134.2725462112648
 20
180.86984133531899
 30
0.0
  0
VERTEX
  5
2BB9
  8
0
 10
134.4031370810292
 20
179.4540960064044
 30
0.0
  0
VERTEX
  5
2BBA
  8
0
 10
134.54081334164809
 20
178.0385861867862
 30
0.0
  0
SEQEND
  5
2BBB
  8
0
  0
ARC
  5
17DB
  8
0
 10
266.57946510319402
 20
195.8838793966593
 30
0.0
 40
134.80201652744131
 50
168.3787963859657
 51
176.9460414331391
  0
ARC
  5
17DC
  8
0
 10
266.57946510312468
 20
190.1932929769068
 30
0.0
 40
134.80201652737171
 50
183.05395856686081
 51
188.25498716066281
  0
LINE
  5
17DD
  8
0
 10
131.9688938215281
 20
183.0115272408205
 30
0.0
 11
131.9688938215281
 21
203.06564513275271
 31
0.0
  0
LINE
  5
17E2
  8
1
 10
227.80748000831429
 20
193.0385861867866
 30
0.0
 11
126.9688938215281
 21
193.0385861867866
 31
0.0
  0
LINE
  5
25A0
  8
0
 10
222.80748000831451
 20
197.96508618678661
 30
0.0
 11
221.7339800083146
 21
199.0385861867866
 31
0.0
  0
LINE
  5
25A1
  8
0
 10
221.7339800083146
 20
187.0385861867866
 30
0.0
 11
222.80748000831451
 21
188.1120861867866
 31
0.0
  0
LINE
  5
25A2
  8
0
 10
222.80748000831451
 20
188.1120861867866
 30
0.0
 11
222.80748000831451
 21
197.96508618678661
 31
0.0
  0
LINE
  5
25A3
  8
0
 10
221.7339800083146
 20
199.0385861867866
 30
0.0
 11
172.80748000831451
 21
199.0385861867866
 31
0.0
  0
LINE
  5
25A4
  8
0
 10
172.80748000831451
 20
187.0385861867866
 30
0.0
 11
221.7339800083146
 21
187.0385861867866
 31
0.0
  0
LINE
  5
25A5
  8
0
 10
221.7339800083146
 20
187.0385861867866
 30
0.0
 11
221.7339800083146
 21
199.0385861867866
 31
0.0
  0
LINE
  5
25BB
  8
3
 10
222.80748000831451
 20
188.1120861867866
 30
0.0
 11
174.50748000831459
 21
188.1120861867866
 31
0.0
  0
LINE
  5
25BC
  8
3
 10
172.80748000831429
 20
187.0385861867866
 30
0.0
 11
174.50748000831459
 21
188.1120861867866
 31
0.0
  0
LINE
  5
25BD
  8
0
 10
174.50748000831459
 20
187.0385861867866
 30
0.0
 11
174.50748000831479
 21
199.0385861867866
 31
0.0
  0
LINE
  5
25BE
  8
3
 10
222.80748000831451
 20
197.96508618678661
 30
0.0
 11
174.50748000831479
 21
197.96508618678661
 31
0.0
  0
LINE
  5
25BF
  8
3
 10
172.80748000831429
 20
199.0385861867866
 30
0.0
 11
174.50748000831479
 21
197.96508618678661
 31
0.0
  0
LINE
  5
260C
  8
0
 10
70.914631707994886
 20
40.000000000000227
 30
0.0
 11
71.98813170799508
 21
41.073500000000188
 31
0.0
  0
LINE
  5
260D
  8
0
 10
59.98813170799508
 20
41.073500000000188
 30
0.0
 11
61.061631707995041
 21
40.000000000000227
 31
0.0
  0
LINE
  5
260E
  8
0
 10
61.061631707995041
 20
40.000000000000227
 30
0.0
 11
70.914631707994886
 21
40.000000000000227
 31
0.0
  0
LINE
  5
260F
  8
0
 10
71.98813170799508
 20
41.073500000000188
 30
0.0
 11
71.98813170799508
 21
90.000000000000227
 31
0.0
  0
LINE
  5
2610
  8
0
 10
59.98813170799508
 20
90.000000000000227
 30
0.0
 11
59.98813170799508
 21
41.073500000000188
 31
0.0
  0
LINE
  5
2611
  8
0
 10
59.98813170799508
 20
41.073500000000188
 30
0.0
 11
71.98813170799508
 21
41.073500000000188
 31
0.0
  0
LINE
  5
2612
  8
3
 10
61.061631707995041
 20
40.000000000000227
 30
0.0
 11
61.061631707995041
 21
88.300000000000168
 31
0.0
  0
LINE
  5
2613
  8
3
 10
59.98813170799508
 20
90.000000000000455
 30
0.0
 11
61.061631707995041
 21
88.300000000000168
 31
0.0
  0
LINE
  5
2614
  8
0
 10
59.98813170799508
 20
88.300000000000168
 30
0.0
 11
71.98813170799508
 21
88.299999999999955
 31
0.0
  0
LINE
  5
2615
  8
3
 10
70.914631707994886
 20
40.000000000000227
 30
0.0
 11
70.914631707994886
 21
88.299999999999955
 31
0.0
  0
LINE
  5
2616
  8
3
 10
71.98813170799508
 20
90.000000000000455
 30
0.0
 11
70.914631707994886
 21
88.299999999999955
 31
0.0
  0
ENDSEC
  0
EOF
