  0
SECTION
  2
HEADER
  9
$ACADVER
  1
AC1009
  9
$INSBASE
 10
0.0
 20
0.0
 30
0.0
  9
$EXTMIN
 10
0.0
 20
-2.960436562073669
 30
0.0
  9
$EXTMAX
 10
136.61551184618261
 20
146.7300627460838
 30
0.0
  9
$LIMMIN
 10
0.0
 20
0.0
  9
$LIMMAX
 10
187.5
 20
135.0
  9
$ORTHOMODE
 70
     1
  9
$REGENMODE
 70
     1
  9
$FILLMODE
 70
     1
  9
$QTEXTMODE
 70
     0
  9
$MIRRTEXT
 70
     0
  9
$DRAGMODE
 70
     2
  9
$LTSCALE
 40
5.0
  9
$OSMODE
 70
    37
  9
$ATTMODE
 70
     1
  9
$TEXTSIZE
 40
4.000000000000048
  9
$TRACEWID
 40
0.05
  9
$TEXTSTYLE
  7
STANDARD
  9
$CLAYER
  8
0
  9
$CELTYPE
  6
BYLAYER
  9
$CECOLOR
 62
   256
  9
$DIMSCALE
 40
1.0
  9
$DIMASZ
 40
3.0
  9
$DIMEXO
 40
2.0
  9
$DIMDLI
 40
0.38
  9
$DIMRND
 40
0.0
  9
$DIMDLE
 40
0.0
  9
$DIMEXE
 40
2.0
  9
$DIMTP
 40
0.0
  9
$DIMTM
 40
0.0
  9
$DIMTXT
 40
3.2000000000000002
  9
$DIMCEN
 40
0.09
  9
$DIMTSZ
 40
0.0
  9
$DIMTOL
 70
     0
  9
$DIMLIM
 70
     0
  9
$DIMTIH
 70
     0
  9
$DIMTOH
 70
     0
  9
$DIMSE1
 70
     0
  9
$DIMSE2
 70
     0
  9
$DIMTAD
 70
     1
  9
$DIMZIN
 70
     8
  9
$DIMBLK
  1

  9
$DIMASO
 70
     1
  9
$DIMSHO
 70
     0
  9
$DIMPOST
  1

  9
$DIMAPOST
  1

  9
$DIMALT
 70
     0
  9
$DIMALTD
 70
     2
  9
$DIMALTF
 40
25.399999999999999
  9
$DIMLFAC
 40
1.0
  9
$DIMTOFL
 70
     0
  9
$DIMTVP
 40
1.6000000000000001
  9
$DIMTIX
 70
     1
  9
$DIMSOXD
 70
     0
  9
$DIMSAH
 70
     0
  9
$DIMBLK1
  1

  9
$DIMBLK2
  1

  9
$DIMSTYLE
  2
STANDARD
  9
$DIMCLRD
 70
     0
  9
$DIMCLRE
 70
     0
  9
$DIMCLRT
 70
     0
  9
$DIMTFAC
 40
1.0
  9
$DIMGAP
 40
0.09
  9
$LUNITS
 70
     2
  9
$LUPREC
 70
     1
  9
$SKETCHINC
 40
0.1
  9
$FILLETRAD
 40
1.8999999999999999
  9
$AUNITS
 70
     0
  9
$AUPREC
 70
     0
  9
$MENU
  1
E:\r13\win\SUPPORT\ACAD
  9
$ELEVATION
 40
0.0
  9
$PELEVATION
 40
0.0
  9
$THICKNESS
 40
0.0
  9
$LIMCHECK
 70
     0
  9
$BLIPMODE
 70
     0
  9
$CHAMFERA
 40
0.0
  9
$CHAMFERB
 40
0.0
  9
$SKPOLY
 70
     0
  9
$TDCREATE
 40
2451582.7089806711
  9
$TDUPDATE
 40
2458183.5885361
  9
$TDINDWG
 40
0.2791366667
  9
$TDUSRTIMER
 40
0.2791366667
  9
$USRTIMER
 70
     1
  9
$ANGBASE
 50
0.0
  9
$ANGDIR
 70
     0
  9
$PDMODE
 70
     0
  9
$PDSIZE
 40
0.0
  9
$PLINEWID
 40
0.0
  9
$COORDS
 70
     1
  9
$SPLFRAME
 70
     0
  9
$SPLINETYPE
 70
     6
  9
$SPLINESEGS
 70
     8
  9
$ATTDIA
 70
     0
  9
$ATTREQ
 70
     1
  9
$HANDLING
 70
     1
  9
$HANDSEED
  5
2976
  9
$SURFTAB1
 70
     6
  9
$SURFTAB2
 70
     6
  9
$SURFTYPE
 70
     6
  9
$SURFU
 70
     6
  9
$SURFV
 70
     6
  9
$UCSNAME
  2

  9
$UCSORG
 10
0.0
 20
0.0
 30
0.0
  9
$UCSXDIR
 10
1.0
 20
0.0
 30
0.0
  9
$UCSYDIR
 10
0.0
 20
1.0
 30
0.0
  9
$PUCSNAME
  2

  9
$PUCSORG
 10
0.0
 20
0.0
 30
0.0
  9
$PUCSXDIR
 10
1.0
 20
0.0
 30
0.0
  9
$PUCSYDIR
 10
0.0
 20
1.0
 30
0.0
  9
$USERI1
 70
     0
  9
$USERI2
 70
     1
  9
$USERI3
 70
     1
  9
$USERI4
 70
     0
  9
$USERI5
 70
     0
  9
$USERR1
 40
0.0
  9
$USERR2
 40
0.0
  9
$USERR3
 40
0.0
  9
$USERR4
 40
0.0
  9
$USERR5
 40
0.0
  9
$WORLDVIEW
 70
     1
  9
$SHADEDGE
 70
     3
  9
$SHADEDIF
 70
    70
  9
$TILEMODE
 70
     1
  9
$MAXACTVP
 70
    16
  9
$PLIMCHECK
 70
     0
  9
$PEXTMIN
 10
1.0000000000000000E+020
 20
1.0000000000000000E+020
 30
1.0000000000000000E+020
  9
$PEXTMAX
 10
-1.0000000000000000E+020
 20
-1.0000000000000000E+020
 30
-1.0000000000000000E+020
  9
$PLIMMIN
 10
0.0
 20
0.0
  9
$PLIMMAX
 10
12.0
 20
9.0
  9
$UNITMODE
 70
     0
  9
$VISRETAIN
 70
     0
  9
$PLINEGEN
 70
     0
  9
$PSLTSCALE
 70
     0
  0
ENDSEC
  0
SECTION
  2
TABLES
  0
TABLE
  2
VPORT
 70
     1
  0
VPORT
  2
*ACTIVE
 70
     0
 10
0.0
 20
0.0
 11
1.0
 21
1.0
 12
172.54273504273499
 22
95.0
 13
0.0
 23
0.0
 14
5.0
 24
5.0
 15
5.0
 25
5.0
 16
0.0
 26
0.0
 36
1.0
 17
0.0
 27
0.0
 37
0.0
 40
190.0
 41
1.816239316239316
 42
50.0
 43
0.0
 44
0.0
 50
0.0
 51
0.0
 71
     0
 72
   500
 73
     1
 74
     0
 75
     0
 76
     0
 77
     0
 78
     2
  0
ENDTAB
  0
TABLE
  2
LTYPE
 70
     3
  0
LTYPE
  2
CONTINUOUS
 70
     0
  3
Solid Line
 72
    65
 73
     0
 40
0.0
  0
LTYPE
  2
CENTER
 70
     0
  3
____ _ ____ _ ____ _ ____ _ ____ _ ____ _ ____
 72
    65
 73
     4
 40
2.0
 49
1.25
 49
-0.25
 49
0.25
 49
-0.25
  0
LTYPE
  2
PHANTOM2
 70
     0
  3
___ _ _ ___ _ _ ___ _ _ ___ _ _
 72
    65
 73
     6
 40
1.25
 49
0.625
 49
-0.125
 49
0.125
 49
-0.125
 49
0.125
 49
-0.125
  0
ENDTAB
  0
TABLE
  2
LAYER
 70
     4
  0
LAYER
  2
0
 70
     0
 62
     7
  6
CONTINUOUS
  0
LAYER
  2
1
 70
     0
 62
     1
  6
CENTER
  0
LAYER
  2
DEFPOINTS
 70
     0
 62
     7
  6
CONTINUOUS
  0
LAYER
  2
3
 70
     0
 62
     3
  6
CONTINUOUS
  0
ENDTAB
  0
TABLE
  2
STYLE
 70
     2
  0
STYLE
  2
STANDARD
 70
     0
 40
0.0
 41
1.0
 50
0.0
 71
     0
 42
4.000000000000048
  3
TXT
  4
BIGFONT
  0
STYLE
  2
STANDARD1
 70
     0
 40
0.0
 41
1.0
 50
0.0
 71
     0
 42
3.0
  3
txt
  4

  0
ENDTAB
  0
TABLE
  2
VIEW
 70
     2
  0
VIEW
  2
ALL
 70
     0
 40
135.0
 10
110.4957983193277
 20
67.5
 41
0.0
 11
0.0
 21
0.0
 31
1.0
 12
0.0
 22
0.0
 32
0.0
 42
0.0
 43
0.0
 44
0.0
 50
0.0
 71
     0
  0
VIEW
  2
OLE1
 70
     0
 40
235.2079806749349
 10
722.79185871078926
 20
95.257412002191856
 41
302.2278937573451
 11
0.0
 21
0.0
 31
1.0
 12
0.0
 22
0.0
 32
0.0
 42
50.0
 43
0.0
 44
0.0
 50
0.0
 71
     0
  0
ENDTAB
  0
TABLE
  2
UCS
 70
     0
  0
ENDTAB
  0
TABLE
  2
APPID
 70
    44
  0
APPID
  2
ACAD
 70
     0
  0
APPID
  2
ACAD_MLEADERVER
 70
     0
  0
APPID
  2
ACAD_NAV_VCDISPLAY
 70
     0
  0
APPID
  2
ACAD_DSTYLE_DIMJAG
 70
     0
  0
APPID
  2
ACAD_DSTYLE_DIMTALN
 70
     0
  0
APPID
  2
ACAD_EXEMPT_FROM_CAD_STANDARDS
 70
     0
  0
APPID
  2
GENIUS_GENODEF_13
 70
     0
  0
APPID
  2
GENIUS_GENFIL_13
 70
     0
  0
APPID
  2
GENIUS_GENOBJ-N-CHA_13
 70
     0
  0
APPID
  2
ACAD_DSTYLE_DIMRADIAL_EXTENSION
 70
     0
  0
APPID
  2
GENIUS_GENOREF_13
 70
     0
  0
APPID
  2
DCO15
 70
     0
  0
APPID
  2
GENIUS_GENOENT_13
 70
     0
  0
APPID
  2
GENIUS_GENBH_13
 70
     0
  0
APPID
  2
GENIUS_GENOBJ_13
 70
     0
  0
APPID
  2
GENIUS_GENOLIS_13
 70
     0
  0
APPID
  2
GENIUS_GENOBJ-NBEHI-BHF_13
 70
     0
  0
APPID
  2
GENIUS_GENOBJ-NBEHI-BHB_13
 70
     0
  0
APPID
  2
GENIUS_GENOBJ-F-PART_13
 70
     0
  0
APPID
  2
GENIUS_GEFSTDP_13
 70
     0
  0
APPID
  2
GENIUS_GENOBJ-N-RSSYM_13
 70
     0
  0
APPID
  2
GENIUS_GENSYMENT_13
 70
     0
  0
APPID
  2
GENIUS_GENOBJ-N-TIT_13
 70
     0
  0
APPID
  2
GENIUS_GENTITLE_13
 70
     0
  0
APPID
  2
GENIUS_GENZVEED_13
 70
     0
  0
APPID
  2
GENIUS_GENOBJ-N-LEADER_13
 70
     0
  0
APPID
  2
GENIUS_GENOBJ-N-FIL_13
 70
     0
  0
APPID
  2
GENIUS_GENOBJ-N-SEC_13
 70
     0
  0
APPID
  2
GENIUS_GENOBJ-N-CRS_13
 70
     0
  0
APPID
  2
GENIUS_GENOBJ-N-ZOO_13
 70
     0
  0
APPID
  2
GENIUS_GENZOO_13
 70
     0
  0
APPID
  2
GENIUS_GENOBJ-F-TOL_13
 70
     0
  0
APPID
  2
_CALL_MAC$
 70
     0
  0
APPID
  2
ASM_BASE
 70
     0
  0
APPID
  2
ASM_EXPLO_VER_2_00
 70
     0
  0
APPID
  2
ASM_CADM_VER_12_00
 70
     0
  0
APPID
  2
ASM_BASEFORO
 70
     0
  0
APPID
  2
ASM_BASETRAVI
 70
     0
  0
APPID
  2
ASM_BASETRAVI1
 70
     0
  0
APPID
  2
ASM_GRUPPI
 70
     0
  0
APPID
  2
ASM_CADM_ALBERO
 70
     0
  0
APPID
  2
ASM_GOLE
 70
     0
  0
APPID
  2
GENIUS_GENOBJ-N-CEN_13
 70
     0
  0
APPID
  2
GENIUS_GENCEN_19
 70
     0
  0
ENDTAB
  0
TABLE
  2
DIMSTYLE
 70
     1
  0
DIMSTYLE
  2
STANDARD
 70
     0
  3

  4

  5

  6

  7

 40
1.0
 41
0.18
 42
0.0625
 43
0.38
 44
0.18
 45
0.0
 46
0.0
 47
0.0
 48
0.0
140
0.18
141
0.09
142
0.0
143
25.399999999999999
144
1.0
145
0.0
146
1.0
147
0.09
 71
     0
 72
     0
 73
     1
 74
     1
 75
     0
 76
     0
 77
     0
 78
     0
170
     0
171
     2
172
     0
173
     0
174
     0
175
     0
176
     0
177
     0
178
     0
  0
ENDTAB
  0
ENDSEC
  0
SECTION
  2
BLOCKS
  0
BLOCK
  8
0
  2
$MODEL_SPACE
 70
     0
 10
0.0
 20
0.0
 30
0.0
  3
$MODEL_SPACE
  1

  0
ENDBLK
  5
968
  8
0
  0
BLOCK
 67
     1
  8
0
  2
$PAPER_SPACE
 70
     0
 10
0.0
 20
0.0
 30
0.0
  3
$PAPER_SPACE
  1

  0
ENDBLK
  5
966
 67
     1
  8
0
  0
ENDSEC
  0
SECTION
  2
ENTITIES
  0
TEXT
  5
A8B
  8
0
 62
     3
 10
0.0
 20
0.0
 30
0.0
 40
10.0
  1
TS32AX10
  7
STANDARD1
  0
POLYLINE
  5
BAA
  8
0
 66
     1
 10
0.0
 20
0.0
 30
0.0
  0
VERTEX
  5
28E5
  8
0
 10
67.716743371481641
 20
119.7300627460836
 30
0.0
  0
VERTEX
  5
28E6
  8
0
 10
66.543148792247337
 20
119.0650057499702
 30
0.0
  0
VERTEX
  5
28E7
  8
0
 10
65.335543753546744
 20
118.45844921097471
 30
0.0
  0
VERTEX
  5
28E8
  8
0
 10
64.098559357390343
 20
117.912970523561
 30
0.0
  0
VERTEX
  5
28E9
  8
0
 10
62.803035658405463
 20
117.41894325091729
 30
0.0
  0
VERTEX
  5
28EA
  8
0
 10
61.481778940473127
 20
116.99157256347389
 30
0.0
  0
VERTEX
  5
28EB
  8
0
 10
60.140239470705303
 20
116.6327973457458
 30
0.0
  0
VERTEX
  5
28EC
  8
0
 10
58.705098148844229
 20
116.32973663294629
 30
0.0
  0
VERTEX
  5
28ED
  8
0
 10
57.253770380159672
 20
116.1049322601971
 30
0.0
  0
VERTEX
  5
28EE
  8
0
 10
55.793012049731658
 20
115.9595289188419
 30
0.0
  0
VERTEX
  5
28EF
  8
0
 10
54.282886246390149
 20
115.8935259428829
 30
0.0
  0
VERTEX
  5
28F0
  8
0
 10
52.770118459890512
 20
115.9122947175287
 30
0.0
  0
VERTEX
  5
28F1
  8
0
 10
51.262195712702578
 20
116.0157338253202
 30
0.0
  0
VERTEX
  5
28F2
  8
0
 10
49.816302444626778
 20
116.1956797974744
 30
0.0
  0
VERTEX
  5
28F3
  8
0
 10
48.381706115781412
 20
116.45357974177431
 30
0.0
  0
VERTEX
  5
28F4
  8
0
 10
46.964979529599809
 20
116.7881403231781
 30
0.0
  0
VERTEX
  5
28F5
  8
0
 10
45.52943530985231
 20
117.2117237787435
 30
0.0
  0
VERTEX
  5
28F6
  8
0
 10
44.119658604681028
 20
117.7142850245278
 30
0.0
  0
VERTEX
  5
28F7
  8
0
 10
42.742382683093631
 20
118.2931809339993
 30
0.0
  0
VERTEX
  5
28F8
  8
0
 10
42.043084473929923
 20
118.62248717396631
 30
0.0
  0
VERTEX
  5
28F9
  8
0
 10
41.353951893530052
 20
118.9715071313546
 30
0.0
  0
VERTEX
  5
28FA
  8
0
 10
40.67325390041929
 20
119.3412087324582
 30
0.0
  0
VERTEX
  5
28FB
  8
0
 10
40.003930450379642
 20
119.730062746084
 30
0.0
  0
SEQEND
  5
28FC
  8
0
  0
POLYLINE
  5
BAB
  8
0
 66
     1
 10
0.0
 20
0.0
 30
0.0
  0
VERTEX
  5
28FD
  8
0
 10
53.860336910930613
 20
143.7300627460838
 30
0.0
  0
VERTEX
  5
28FE
  8
0
 10
55.023090911381637
 20
143.04622824008851
 30
0.0
  0
VERTEX
  5
28FF
  8
0
 10
56.152187231777191
 20
142.30368953730431
 30
0.0
  0
VERTEX
  5
2900
  8
0
 10
57.243078226662988
 20
141.50516859590209
 30
0.0
  0
VERTEX
  5
2901
  8
0
 10
58.318680634268453
 20
140.6302253534835
 30
0.0
  0
VERTEX
  5
2902
  8
0
 10
59.349423213093417
 20
139.6996683272084
 30
0.0
  0
VERTEX
  5
2903
  8
0
 10
60.330901701155028
 20
138.71724814977799
 30
0.0
  0
VERTEX
  5
2904
  8
0
 10
61.310930496543669
 20
137.62590954654931
 30
0.0
  0
VERTEX
  5
2905
  8
0
 10
62.231280530541028
 20
136.48142490755961
 30
0.0
  0
VERTEX
  5
2906
  8
0
 10
63.087582529617009
 20
135.28907265574881
 30
0.0
  0
VERTEX
  5
2907
  8
0
 10
63.899805521543549
 20
134.0142667426951
 30
0.0
  0
VERTEX
  5
2908
  8
0
 10
64.63993501067506
 20
132.69478693979099
 30
0.0
  0
VERTEX
  5
2909
  8
0
 10
65.304315316831719
 20
131.3371679077822
 30
0.0
  0
VERTEX
  5
290A
  8
0
 10
65.871424001536639
 20
129.99501455260781
 30
0.0
  0
VERTEX
  5
290B
  8
0
 10
66.365374092902186
 20
128.62366765726591
 30
0.0
  0
VERTEX
  5
290C
  8
0
 10
66.783999251079024
 20
127.2294661042788
 30
0.0
  0
VERTEX
  5
290D
  8
0
 10
67.134937148175865
 20
125.7744565747978
 30
0.0
  0
VERTEX
  5
290E
  8
0
 10
67.404594513576797
 20
124.3022734829807
 30
0.0
  0
VERTEX
  5
290F
  8
0
 10
67.591893728470438
 20
122.8200695741571
 30
0.0
  0
VERTEX
  5
2910
  8
0
 10
67.656355112660094
 20
122.0498072511979
 30
0.0
  0
VERTEX
  5
2911
  8
0
 10
67.698661149302893
 20
121.27849176664181
 30
0.0
  0
VERTEX
  5
2912
  8
0
 10
67.718839110275496
 20
120.5041400378023
 30
0.0
  0
VERTEX
  5
2913
  8
0
 10
67.716743371481641
 20
119.7300627460836
 30
0.0
  0
SEQEND
  5
2914
  8
0
  0
POLYLINE
  5
BAC
  8
0
 66
     1
 10
0.0
 20
0.0
 30
0.0
  0
VERTEX
  5
2915
  8
0
 10
40.003930450379642
 20
119.730062746084
 30
0.0
  0
VERTEX
  5
2916
  8
0
 10
40.014771617154111
 20
121.0789578887298
 30
0.0
  0
VERTEX
  5
2917
  8
0
 10
40.09328128959185
 20
122.4280567181515
 30
0.0
  0
VERTEX
  5
2918
  8
0
 10
40.239376003776087
 20
123.7720598387854
 30
0.0
  0
VERTEX
  5
2919
  8
0
 10
40.459299068800419
 20
125.1410339908788
 30
0.0
  0
VERTEX
  5
291A
  8
0
 10
40.749815365415593
 20
126.4989651896375
 30
0.0
  0
VERTEX
  5
291B
  8
0
 10
41.109878869476681
 20
127.8401638714099
 30
0.0
  0
VERTEX
  5
291C
  8
0
 10
41.564992508934672
 20
129.2345626017777
 30
0.0
  0
VERTEX
  5
291D
  8
0
 10
42.095971320200988
 20
130.60385096574481
 30
0.0
  0
VERTEX
  5
291E
  8
0
 10
42.700428686420992
 20
131.94160585269171
 30
0.0
  0
VERTEX
  5
291F
  8
0
 10
43.398332514482831
 20
133.2824139528509
 30
0.0
  0
VERTEX
  5
2920
  8
0
 10
44.170971778226601
 20
134.58312413536069
 30
0.0
  0
VERTEX
  5
2921
  8
0
 10
45.014515130561499
 20
135.8373031620423
 30
0.0
  0
VERTEX
  5
2922
  8
0
 10
45.893300581529552
 20
136.99950967528449
 30
0.0
  0
VERTEX
  5
2923
  8
0
 10
46.833947635634097
 20
138.11295570906219
 30
0.0
  0
VERTEX
  5
2924
  8
0
 10
47.832049825397519
 20
139.1725957206869
 30
0.0
  0
VERTEX
  5
2925
  8
0
 10
48.916656870487373
 20
140.20402076382339
 30
0.0
  0
VERTEX
  5
2926
  8
0
 10
50.056776870639972
 20
141.17364154013359
 30
0.0
  0
VERTEX
  5
2927
  8
0
 10
51.246754172758351
 20
142.07694843680861
 30
0.0
  0
VERTEX
  5
2928
  8
0
 10
51.881586276025182
 20
142.51790142087239
 30
0.0
  0
VERTEX
  5
2929
  8
0
 10
52.528407946397977
 20
142.9401941338956
 30
0.0
  0
VERTEX
  5
292A
  8
0
 10
53.188922913626357
 20
143.3448417148237
 30
0.0
  0
VERTEX
  5
292B
  8
0
 10
53.860336910930613
 20
143.7300627460838
 30
0.0
  0
SEQEND
  5
292C
  8
0
  0
CIRCLE
  5
BAD
  8
0
 10
53.860336910930641
 20
127.7300627460838
 30
0.0
 40
5.3033818421269068
  0
LINE
  5
BAF
  8
1
 10
72.860336910930641
 20
127.7300627460838
 30
0.0
 11
34.860336910930641
 21
127.7300627460838
 31
0.0
  0
LINE
  5
BB0
  8
1
 10
53.860336910930641
 20
146.7300627460838
 30
0.0
 11
53.860336910930641
 21
108.7300627460838
 31
0.0
  0
LINE
  5
BB6
  8
0
 10
123.6155118461826
 20
130.9800627460838
 30
0.0
 11
123.4155118461826
 21
130.9800627460838
 31
0.0
  0
LINE
  5
BB7
  8
0
 10
123.4155118461826
 20
124.4800627460838
 30
0.0
 11
123.6155118461826
 21
124.4800627460838
 31
0.0
  0
LINE
  5
BB8
  8
0
 10
123.6155118461826
 20
124.4800627460838
 30
0.0
 11
123.6155118461826
 21
130.9800627460838
 31
0.0
  0
LINE
  5
BC0
  8
0
 10
123.4155118461826
 20
134.7300627460838
 30
0.0
 11
107.6155118461826
 21
134.7300627460838
 31
0.0
  0
LINE
  5
BC1
  8
0
 10
107.6155118461826
 20
120.7300627460838
 30
0.0
 11
123.4155118461826
 21
120.7300627460838
 31
0.0
  0
LINE
  5
BC2
  8
0
 10
123.4155118461826
 20
120.7300627460838
 30
0.0
 11
123.4155118461826
 21
134.7300627460838
 31
0.0
  0
LINE
  5
BC3
  8
0
 10
107.6155118461826
 20
143.7300627460838
 30
0.0
 11
107.6155118461826
 21
115.8900627460838
 31
0.0
  0
LINE
  5
BC4
  8
0
 10
98.482178512849174
 20
115.8900627460838
 30
0.0
 11
107.6155118461826
 21
115.8900627460838
 31
0.0
  0
LINE
  5
BC5
  8
0
 10
99.348845179515934
 20
143.7300627460838
 30
0.0
 11
107.6155118461826
 21
143.7300627460838
 31
0.0
  0
LINE
  5
BC6
  8
0
 10
99.348845179515934
 20
119.7300627460836
 30
0.0
 11
107.6155118461826
 21
119.7300627460838
 31
0.0
  0
LINE
  5
BC7
  8
0
 10
99.348845179515877
 20
119.7300627460838
 30
0.0
 11
98.482178512852499
 21
115.89006274609859
 31
0.0
  0
POLYLINE
  5
BC8
  8
0
 66
     1
 10
0.0
 20
0.0
 30
0.0
  0
VERTEX
  5
292D
  8
0
 10
99.348845179515934
 20
143.7300627460838
 30
0.0
  0
VERTEX
  5
292E
  8
0
 10
99.195814629596782
 20
143.04622824008851
 30
0.0
  0
VERTEX
  5
292F
  8
0
 10
99.057190185509384
 20
142.30368953730431
 30
0.0
  0
VERTEX
  5
2930
  8
0
 10
98.933351665286864
 20
141.50516859590209
 30
0.0
  0
VERTEX
  5
2931
  8
0
 10
98.821926345070764
 20
140.6302253534835
 30
0.0
  0
VERTEX
  5
2932
  8
0
 10
98.726138481297383
 20
139.6996683272084
 30
0.0
  0
VERTEX
  5
2933
  8
0
 10
98.646191060663398
 20
138.71724814977799
 30
0.0
  0
VERTEX
  5
2934
  8
0
 10
98.579005664289241
 20
137.62590954654931
 30
0.0
  0
VERTEX
  5
2935
  8
0
 10
98.529397415912456
 20
136.48142490755961
 30
0.0
  0
VERTEX
  5
2936
  8
0
 10
98.497426116820577
 20
135.28907265574881
 30
0.0
  0
VERTEX
  5
2937
  8
0
 10
98.484803254967076
 20
134.33741165831739
 30
0.0
  0
VERTEX
  5
2938
  8
0
 10
98.482655010691431
 20
133.35970266117781
 30
0.0
  0
VERTEX
  5
2939
  8
0
 10
98.490980204867753
 20
132.35870247433201
 30
0.0
  0
VERTEX
  5
293A
  8
0
 10
98.509777658370012
 20
131.3371679077822
 30
0.0
  0
VERTEX
  5
293B
  8
0
 10
98.549400841882232
 20
129.99501455260781
 30
0.0
  0
VERTEX
  5
293C
  8
0
 10
98.606418324369656
 20
128.62366765726591
 30
0.0
  0
VERTEX
  5
293D
  8
0
 10
98.680753049918906
 20
127.2294661042788
 30
0.0
  0
VERTEX
  5
293E
  8
0
 10
98.750010367797344
 20
126.1400983827515
 30
0.0
  0
VERTEX
  5
293F
  8
0
 10
98.829652711459914
 20
125.0400646775982
 30
0.0
  0
VERTEX
  5
2940
  8
0
 10
98.919552685730764
 20
123.9323825532547
 30
0.0
  0
VERTEX
  5
2941
  8
0
 10
99.019582895434098
 20
122.8200695741571
 30
0.0
  0
VERTEX
  5
2942
  8
0
 10
99.094585083291975
 20
122.0498072511979
 30
0.0
  0
VERTEX
  5
2943
  8
0
 10
99.174383450274846
 20
121.27849176664181
 30
0.0
  0
VERTEX
  5
2944
  8
0
 10
99.259240449603681
 20
120.5041400378023
 30
0.0
  0
VERTEX
  5
2945
  8
0
 10
99.348845179515934
 20
119.7300627460836
 30
0.0
  0
SEQEND
  5
2946
  8
0
  0
ARC
  5
BC9
  8
0
 10
158.58495629062651
 20
129.2189284868245
 30
0.0
 40
60.987620686972917
 50
166.23536311419869
 51
176.4140522342818
  0
ARC
  5
BCA
  8
0
 10
158.5849562906289
 20
126.24119700534339
 30
0.0
 40
60.987620686975397
 50
183.58594776571979
 51
189.77184022134111
  0
LINE
  5
BCB
  8
0
 10
97.716743371481641
 20
122.42668090395691
 30
0.0
 11
97.716743371481641
 21
133.03344458821081
 31
0.0
  0
LINE
  5
BD0
  8
1
 10
136.61551184618261
 20
127.7300627460838
 30
0.0
 11
94.716743371481627
 21
127.7300627460838
 31
0.0
  0
LINE
  5
BD6
  8
0
 10
50.610336910930641
 20
60.0
 30
0.0
 11
57.110336910930641
 21
60.0
 31
0.0
  0
LINE
  5
BD7
  8
0
 10
57.110336910930641
 20
60.0
 30
0.0
 11
57.110336910930641
 21
60.199999999999989
 31
0.0
  0
LINE
  5
BD8
  8
0
 10
50.610336910930641
 20
60.199999999999989
 30
0.0
 11
50.610336910930641
 21
60.0
 31
0.0
  0
LINE
  5
BE0
  8
0
 10
46.860336910930641
 20
60.199999999999989
 30
0.0
 11
60.860336910930641
 21
60.199999999999989
 31
0.0
  0
LINE
  5
BE1
  8
0
 10
60.860336910930641
 20
60.199999999999989
 30
0.0
 11
60.860336910930641
 21
76.0
 31
0.0
  0
LINE
  5
BE2
  8
0
 10
46.860336910930641
 20
76.0
 30
0.0
 11
46.860336910930641
 21
60.199999999999989
 31
0.0
  0
LINE
  5
BE3
  8
0
 10
40.0
 20
84.320479055208367
 30
0.0
 11
40.0
 21
76.0
 31
0.0
  0
POLYLINE
  5
BE4
  8
0
 66
     1
 10
0.0
 20
0.0
 30
0.0
  0
VERTEX
  5
2947
  8
0
 10
40.000000000279186
 20
84.320479058299
 30
0.0
  0
VERTEX
  5
2948
  8
0
 10
40.005602601017699
 20
84.382500380191004
 30
0.0
  0
VERTEX
  5
2949
  8
0
 10
40.04511146653595
 20
84.490249816490689
 30
0.0
  0
VERTEX
  5
294A
  8
0
 10
40.123093749858668
 20
84.590379944624928
 30
0.0
  0
VERTEX
  5
294B
  8
0
 10
40.239376003776087
 20
84.682161058159565
 30
0.0
  0
VERTEX
  5
294C
  8
0
 10
40.397107165563682
 20
84.766981431474591
 30
0.0
  0
VERTEX
  5
294D
  8
0
 10
40.594308272956823
 20
84.843026419059754
 30
0.0
  0
VERTEX
  5
294E
  8
0
 10
40.832383724457287
 20
84.910646759099933
 30
0.0
  0
VERTEX
  5
294F
  8
0
 10
41.079423399160127
 20
84.963681072208928
 30
0.0
  0
SEQEND
  5
2950
  8
0
  0
LINE
  5
BE6
  8
0
 10
67.72067382186134
 20
76.0
 30
0.0
 11
67.72067382186134
 21
84.320486439038675
 31
0.0
  0
LINE
  5
BE7
  8
0
 10
67.720673821797732
 20
84.32048644027968
 30
0.0
 11
67.716743371481641
 21
84.266666666666623
 31
0.0
  0
LINE
  5
BE8
  8
0
 10
67.72067382186134
 20
76.0
 30
0.0
 11
40.0
 21
76.0
 31
0.0
  0
LINE
  5
BE9
  8
0
 10
67.716743371481641
 20
84.266666666666595
 30
0.0
 11
67.716743371481641
 21
76.0
 31
0.0
  0
LINE
  5
BEA
  8
0
 10
40.003930450379642
 20
84.266666666666879
 30
0.0
 11
40.003930450379642
 21
76.0
 31
0.0
  0
POLYLINE
  5
BEB
  8
0
 66
     1
 10
0.0
 20
0.0
 30
0.0
  0
VERTEX
  5
2951
  8
0
 10
67.716743371481641
 20
84.266666666666595
 30
0.0
  0
VERTEX
  5
2952
  8
0
 10
66.543148792247337
 20
84.419697158429955
 30
0.0
  0
VERTEX
  5
2953
  8
0
 10
65.335543753546744
 20
84.558321555900548
 30
0.0
  0
VERTEX
  5
2954
  8
0
 10
64.0985593573904
 20
84.682160041461188
 30
0.0
  0
VERTEX
  5
2955
  8
0
 10
62.803035658405463
 20
84.793585336608658
 30
0.0
  0
VERTEX
  5
2956
  8
0
 10
61.481778940473127
 20
84.889373188543175
 30
0.0
  0
VERTEX
  5
2957
  8
0
 10
60.140239470705303
 20
84.969320610709303
 30
0.0
  0
VERTEX
  5
2958
  8
0
 10
58.705098148844229
 20
85.036506048006629
 30
0.0
  0
VERTEX
  5
2959
  8
0
 10
57.253770380159672
 20
85.086114337088048
 30
0.0
  0
VERTEX
  5
295A
  8
0
 10
55.793012049731601
 20
85.118085676575149
 30
0.0
  0
VERTEX
  5
295B
  8
0
 10
54.660957844961807
 20
85.130708569420449
 30
0.0
  0
VERTEX
  5
295C
  8
0
 10
53.526364662130732
 20
85.132856844560493
 30
0.0
  0
VERTEX
  5
295D
  8
0
 10
52.392391088842828
 20
85.124531681109346
 30
0.0
  0
VERTEX
  5
295E
  8
0
 10
51.262195712702578
 20
85.105734258181059
 30
0.0
  0
VERTEX
  5
295F
  8
0
 10
49.816302444626778
 20
85.066111114119281
 30
0.0
  0
VERTEX
  5
2960
  8
0
 10
48.381706115781441
 20
85.009093671124106
 30
0.0
  0
VERTEX
  5
2961
  8
0
 10
46.964979529599809
 20
84.934758985006397
 30
0.0
  0
VERTEX
  5
2962
  8
0
 10
45.886168678618297
 20
84.865501697476887
 30
0.0
  0
VERTEX
  5
2963
  8
0
 10
44.820905188631677
 20
84.785859384076218
 30
0.0
  0
VERTEX
  5
2964
  8
0
 10
43.772029657502571
 20
84.6959594398961
 30
0.0
  0
VERTEX
  5
2965
  8
0
 10
42.742382683093631
 20
84.595929260028257
 30
0.0
  0
VERTEX
  5
2966
  8
0
 10
42.043084473929923
 20
84.520927010657232
 30
0.0
  0
VERTEX
  5
2967
  8
0
 10
41.353951893530052
 20
84.441128571886651
 30
0.0
  0
VERTEX
  5
2968
  8
0
 10
40.67325390041929
 20
84.356271489656933
 30
0.0
  0
VERTEX
  5
2969
  8
0
 10
40.003930450379642
 20
84.266666666666879
 30
0.0
  0
SEQEND
  5
296A
  8
0
  0
LINE
  5
BF0
  8
0
 10
40.003930450379642
 20
84.266666666666666
 30
0.0
 11
40.000000000279186
 21
84.320479058299
 31
0.0
  0
LINE
  5
BF1
  8
0
 10
48.556955068803738
 20
85.898768474700915
 30
0.0
 11
59.163718753057601
 21
85.898768474700915
 31
0.0
  0
ARC
  5
BF2
  8
0
 10
55.349202651671483
 20
25.030555555557349
 30
0.0
 40
60.987620686971638
 50
79.333272186622594
 51
86.414052234281812
  0
ARC
  5
BF3
  8
0
 10
52.371471170189807
 20
25.030555555557349
 30
0.0
 40
60.987620686971638
 50
93.585947765718174
 51
100.6700592961717
  0
POLYLINE
  5
BF4
  8
0
 66
     1
 10
0.0
 20
0.0
 30
0.0
  0
VERTEX
  5
296B
  8
0
 10
66.637765571430293
 20
84.964337550894314
 30
0.0
  0
VERTEX
  5
296C
  8
0
 10
66.783999251079024
 20
84.934758796263623
 30
0.0
  0
VERTEX
  5
296D
  8
0
 10
67.05407932310078
 20
84.865757008808146
 30
0.0
  0
VERTEX
  5
296E
  8
0
 10
67.278699468033494
 20
84.786512299877174
 30
0.0
  0
VERTEX
  5
296F
  8
0
 10
67.458633318847319
 20
84.696366042952874
 30
0.0
  0
VERTEX
  5
2970
  8
0
 10
67.591893728470438
 20
84.595928950748444
 30
0.0
  0
VERTEX
  5
2971
  8
0
 10
67.656334766018972
 20
84.520960396141746
 30
0.0
  0
VERTEX
  5
2972
  8
0
 10
67.698661149302893
 20
84.441128395907754
 30
0.0
  0
VERTEX
  5
2973
  8
0
 10
67.718837716550127
 20
84.356309244594826
 30
0.0
  0
VERTEX
  5
2974
  8
0
 10
67.720673821797732
 20
84.32048644027968
 30
0.0
  0
SEQEND
  5
2975
  8
0
  0
LINE
  5
BFC
  8
1
 10
53.860336910930641
 20
47.000000000000007
 30
0.0
 11
53.860336910930641
 21
88.89876847470093
 31
0.0
  0
LINE
  5
20DB
  8
0
 10
133.61551184618261
 20
129.73956274608381
 30
0.0
 11
133.12501184618259
 21
130.2300627460838
 31
0.0
  0
LINE
  5
20DC
  8
0
 10
133.12501184618259
 20
125.2300627460838
 30
0.0
 11
133.61551184618261
 21
125.7205627460838
 31
0.0
  0
LINE
  5
20DD
  8
0
 10
133.61551184618261
 20
125.7205627460838
 30
0.0
 11
133.61551184618261
 21
129.73956274608381
 31
0.0
  0
LINE
  5
20DE
  8
0
 10
133.12501184618259
 20
130.2300627460838
 30
0.0
 11
123.6155118461826
 21
130.2300627460838
 31
0.0
  0
LINE
  5
20DF
  8
0
 10
123.6155118461826
 20
125.2300627460838
 30
0.0
 11
133.12501184618259
 21
125.2300627460838
 31
0.0
  0
LINE
  5
20E0
  8
0
 10
133.12501184618259
 20
125.2300627460838
 30
0.0
 11
133.12501184618259
 21
130.2300627460838
 31
0.0
  0
LINE
  5
20F6
  8
3
 10
133.61551184618261
 20
125.7205627460838
 30
0.0
 11
124.6155118461826
 21
125.7205627460838
 31
0.0
  0
LINE
  5
20F7
  8
3
 10
123.6155118461826
 20
125.2300627460838
 30
0.0
 11
124.6155118461826
 21
125.7205627460838
 31
0.0
  0
LINE
  5
20F8
  8
0
 10
124.6155118461826
 20
125.2300627460838
 30
0.0
 11
124.6155118461826
 21
130.2300627460838
 31
0.0
  0
LINE
  5
20F9
  8
3
 10
133.61551184618261
 20
129.73956274608381
 30
0.0
 11
124.6155118461826
 21
129.73956274608381
 31
0.0
  0
LINE
  5
20FA
  8
3
 10
123.6155118461826
 20
130.2300627460838
 30
0.0
 11
124.6155118461826
 21
129.73956274608381
 31
0.0
  0
LINE
  5
21EF
  8
0
 10
55.869836910930637
 20
50.000000000000007
 30
0.0
 11
56.360336910930641
 21
50.490500000000011
 31
0.0
  0
LINE
  5
21F0
  8
0
 10
51.360336910930641
 20
50.490500000000011
 30
0.0
 11
51.850836910930639
 21
50.000000000000007
 31
0.0
  0
LINE
  5
21F1
  8
0
 10
51.850836910930639
 20
50.000000000000007
 30
0.0
 11
55.869836910930637
 21
50.000000000000007
 31
0.0
  0
LINE
  5
21F2
  8
0
 10
56.360336910930641
 20
50.490500000000011
 30
0.0
 11
56.360336910930641
 21
59.999999999999993
 31
0.0
  0
LINE
  5
21F3
  8
0
 10
51.360336910930641
 20
59.999999999999993
 30
0.0
 11
51.360336910930641
 21
50.490500000000011
 31
0.0
  0
LINE
  5
21F4
  8
0
 10
51.360336910930641
 20
50.490500000000011
 30
0.0
 11
56.360336910930641
 21
50.490500000000011
 31
0.0
  0
LINE
  5
21F5
  8
3
 10
51.850836910930639
 20
50.000000000000007
 30
0.0
 11
51.850836910930639
 21
58.999999999999979
 31
0.0
  0
LINE
  5
21F6
  8
3
 10
51.360336910930641
 20
59.999999999999972
 30
0.0
 11
51.850836910930639
 21
58.999999999999979
 31
0.0
  0
LINE
  5
21F7
  8
0
 10
51.360336910930641
 20
58.999999999999979
 30
0.0
 11
56.360336910930641
 21
58.999999999999979
 31
0.0
  0
LINE
  5
21F8
  8
3
 10
55.869836910930637
 20
50.000000000000007
 30
0.0
 11
55.869836910930637
 21
58.999999999999979
 31
0.0
  0
LINE
  5
21F9
  8
3
 10
56.360336910930641
 20
59.999999999999972
 30
0.0
 11
55.869836910930637
 21
58.999999999999979
 31
0.0
  0
ENDSEC
  0
EOF
