  0
SECTION
  2
HEADER
  9
$ACADVER
  1
AC1009
  9
$INSBASE
 10
0.0
 20
0.0
 30
0.0
  9
$EXTMIN
 10
0.0
 20
-2.9604365620736979
 30
0.0
  9
$EXTMAX
 10
258.94099013415507
 20
171.10997598691469
 30
0.0
  9
$LIMMIN
 10
0.0
 20
0.0
  9
$LIMMAX
 10
385.0
 20
270.0
  9
$ORTHOMODE
 70
     1
  9
$REGENMODE
 70
     1
  9
$FILLMODE
 70
     1
  9
$QTEXTMODE
 70
     0
  9
$MIRRTEXT
 70
     0
  9
$DRAGMODE
 70
     2
  9
$LTSCALE
 40
5.0
  9
$OSMODE
 70
    37
  9
$ATTMODE
 70
     1
  9
$TEXTSIZE
 40
4.0
  9
$TRACEWID
 40
0.05
  9
$TEXTSTYLE
  7
STANDARD
  9
$CLAYER
  8
0
  9
$CELTYPE
  6
BYLAYER
  9
$CECOLOR
 62
   256
  9
$DIMSCALE
 40
1.0
  9
$DIMASZ
 40
3.0
  9
$DIMEXO
 40
1.0
  9
$DIMDLI
 40
6.0
  9
$DIMRND
 40
0.0
  9
$DIMDLE
 40
0.0
  9
$DIMEXE
 40
1.0
  9
$DIMTP
 40
495.0
  9
$DIMTM
 40
0.0
  9
$DIMTXT
 40
3.0
  9
$DIMCEN
 40
0.0
  9
$DIMTSZ
 40
0.0
  9
$DIMTOL
 70
     0
  9
$DIMLIM
 70
     0
  9
$DIMTIH
 70
     0
  9
$DIMTOH
 70
     0
  9
$DIMSE1
 70
     0
  9
$DIMSE2
 70
     0
  9
$DIMTAD
 70
     1
  9
$DIMZIN
 70
     8
  9
$DIMBLK
  1

  9
$DIMASO
 70
     1
  9
$DIMSHO
 70
     0
  9
$DIMPOST
  1

  9
$DIMAPOST
  1

  9
$DIMALT
 70
     0
  9
$DIMALTD
 70
     2
  9
$DIMALTF
 40
25.399999999999999
  9
$DIMLFAC
 40
1.0
  9
$DIMTOFL
 70
     1
  9
$DIMTVP
 40
0.0
  9
$DIMTIX
 70
     0
  9
$DIMSOXD
 70
     0
  9
$DIMSAH
 70
     0
  9
$DIMBLK1
  1

  9
$DIMBLK2
  1

  9
$DIMSTYLE
  2
STANDARD
  9
$DIMCLRD
 70
     0
  9
$DIMCLRE
 70
     0
  9
$DIMCLRT
 70
     0
  9
$DIMTFAC
 40
1.0
  9
$DIMGAP
 40
1.0
  9
$LUNITS
 70
     2
  9
$LUPREC
 70
     1
  9
$SKETCHINC
 40
0.1
  9
$FILLETRAD
 40
2.0
  9
$AUNITS
 70
     0
  9
$AUPREC
 70
     1
  9
$MENU
  1
E:\r13\win\SUPPORT\ACAD
  9
$ELEVATION
 40
0.0
  9
$PELEVATION
 40
0.0
  9
$THICKNESS
 40
0.0
  9
$LIMCHECK
 70
     0
  9
$BLIPMODE
 70
     0
  9
$CHAMFERA
 40
0.0
  9
$CHAMFERB
 40
0.0
  9
$SKPOLY
 70
     0
  9
$TDCREATE
 40
2450541.3939600689
  9
$TDUPDATE
 40
2458232.63887029
  9
$TDINDWG
 40
1.801571088
  9
$TDUSRTIMER
 40
1.801571088
  9
$USRTIMER
 70
     1
  9
$ANGBASE
 50
0.0
  9
$ANGDIR
 70
     0
  9
$PDMODE
 70
     0
  9
$PDSIZE
 40
0.0
  9
$PLINEWID
 40
0.0
  9
$COORDS
 70
     1
  9
$SPLFRAME
 70
     0
  9
$SPLINETYPE
 70
     6
  9
$SPLINESEGS
 70
     8
  9
$ATTDIA
 70
     0
  9
$ATTREQ
 70
     1
  9
$HANDLING
 70
     1
  9
$HANDSEED
  5
1CB55
  9
$SURFTAB1
 70
     6
  9
$SURFTAB2
 70
     6
  9
$SURFTYPE
 70
     6
  9
$SURFU
 70
     6
  9
$SURFV
 70
     6
  9
$UCSNAME
  2

  9
$UCSORG
 10
0.0
 20
0.0
 30
0.0
  9
$UCSXDIR
 10
1.0
 20
0.0
 30
0.0
  9
$UCSYDIR
 10
0.0
 20
1.0
 30
0.0
  9
$PUCSNAME
  2

  9
$PUCSORG
 10
0.0
 20
0.0
 30
0.0
  9
$PUCSXDIR
 10
1.0
 20
0.0
 30
0.0
  9
$PUCSYDIR
 10
0.0
 20
1.0
 30
0.0
  9
$USERI1
 70
     3
  9
$USERI2
 70
     1
  9
$USERI3
 70
     1
  9
$USERI4
 70
     0
  9
$USERI5
 70
     0
  9
$USERR1
 40
1.0
  9
$USERR2
 40
3.0
  9
$USERR3
 40
3.0
  9
$USERR4
 40
3.0
  9
$USERR5
 40
10.0
  9
$WORLDVIEW
 70
     1
  9
$SHADEDGE
 70
     3
  9
$SHADEDIF
 70
    70
  9
$TILEMODE
 70
     1
  9
$MAXACTVP
 70
    16
  9
$PLIMCHECK
 70
     0
  9
$PEXTMIN
 10
1.0000000000000000E+020
 20
1.0000000000000000E+020
 30
1.0000000000000000E+020
  9
$PEXTMAX
 10
-1.0000000000000000E+020
 20
-1.0000000000000000E+020
 30
-1.0000000000000000E+020
  9
$PLIMMIN
 10
0.0
 20
0.0
  9
$PLIMMAX
 10
12.0
 20
9.0
  9
$UNITMODE
 70
     0
  9
$VISRETAIN
 70
     0
  9
$PLINEGEN
 70
     0
  9
$PSLTSCALE
 70
     0
  0
ENDSEC
  0
SECTION
  2
TABLES
  0
TABLE
  2
VPORT
 70
     1
  0
VPORT
  2
*ACTIVE
 70
     0
 10
0.0
 20
0.0
 11
1.0
 21
1.0
 12
227.02991452991449
 22
125.0
 13
0.0
 23
0.0
 14
5.0
 24
5.0
 15
10.0
 25
10.0
 16
0.0
 26
0.0
 36
1.0
 17
0.0
 27
0.0
 37
0.0
 40
250.0
 41
1.816239316239316
 42
50.0
 43
0.0
 44
0.0
 50
0.0
 51
0.0
 71
     0
 72
   100
 73
     1
 74
     0
 75
     0
 76
     0
 77
     0
 78
     0
  0
ENDTAB
  0
TABLE
  2
LTYPE
 70
     4
  0
LTYPE
  2
CONTINUOUS
 70
     0
  3
Solid Line
 72
    65
 73
     0
 40
0.0
  0
LTYPE
  2
CENTER
 70
     0
  3
____ _ ____ _ ____ _ ____ _ ____ _ ____ _ ____
 72
    65
 73
     4
 40
2.0
 49
1.25
 49
-0.25
 49
0.25
 49
-0.25
  0
LTYPE
  2
HIDDEN
 70
     0
  3
_ _ _ _ _ _ _ _ _ _ _ _ _ _ _ _ _ _ _ _ _ _ _
 72
    65
 73
     2
 40
0.375
 49
0.25
 49
-0.125
  0
LTYPE
  2
PHANTOM2
 70
     0
  3
___ _ _ ___ _ _ ___ _ _ ___ _ _
 72
    65
 73
     6
 40
1.25
 49
0.625
 49
-0.125
 49
0.125
 49
-0.125
 49
0.125
 49
-0.125
  0
ENDTAB
  0
TABLE
  2
LAYER
 70
     6
  0
LAYER
  2
0
 70
     0
 62
     7
  6
CONTINUOUS
  0
LAYER
  2
1
 70
     0
 62
     1
  6
CENTER
  0
LAYER
  2
2
 70
     0
 62
     2
  6
HIDDEN
  0
LAYER
  2
DEFPOINTS
 70
     0
 62
     7
  6
CONTINUOUS
  0
LAYER
  2
4
 70
     0
 62
     4
  6
CONTINUOUS
  0
LAYER
  2
3
 70
     0
 62
     3
  6
CONTINUOUS
  0
ENDTAB
  0
TABLE
  2
STYLE
 70
     2
  0
STYLE
  2
STANDARD
 70
     0
 40
0.0
 41
1.0
 50
0.0
 71
     0
 42
4.0
  3
SIMPLEX
  4
BIGFONT
  0
STYLE
  2
STANDARD1
 70
     0
 40
0.0
 41
1.0
 50
0.0
 71
     0
 42
3.0
  3
txt
  4

  0
ENDTAB
  0
TABLE
  2
VIEW
 70
     0
  0
ENDTAB
  0
TABLE
  2
UCS
 70
     0
  0
ENDTAB
  0
TABLE
  2
APPID
 70
    43
  0
APPID
  2
ACAD
 70
     0
  0
APPID
  2
ASM_BASE
 70
     0
  0
APPID
  2
ASM_EXPLO_VER_2_00
 70
     0
  0
APPID
  2
ASM_CADM_VER_12_00
 70
     0
  0
APPID
  2
ASM_BASEFORO
 70
     0
  0
APPID
  2
ASM_BASETRAVI
 70
     0
  0
APPID
  2
ASM_BASETRAVI1
 70
     0
  0
APPID
  2
ASM_GRUPPI
 70
     0
  0
APPID
  2
ASM_CADM_ALBERO
 70
     0
  0
APPID
  2
ASM_GOLE
 70
     0
  0
APPID
  2
ACAD_EXEMPT_FROM_CAD_STANDARDS
 70
     0
  0
APPID
  2
ACAD_DSTYLE_DIMJAG
 70
     0
  0
APPID
  2
ACAD_DSTYLE_DIMTALN
 70
     0
  0
APPID
  2
ACAD_MLEADERVER
 70
     0
  0
APPID
  2
ACAD_NAV_VCDISPLAY
 70
     0
  0
APPID
  2
ACAD_DSTYLE_DIMRADIAL_EXTENSION
 70
     0
  0
APPID
  2
DCO15
 70
     0
  0
APPID
  2
ACADANNOTATIVE
 70
     0
  0
APPID
  2
GENIUS_GENODEF_13
 70
     0
  0
APPID
  2
GENIUS_GENFIL_13
 70
     0
  0
APPID
  2
GENIUS_GENOBJ-N-CHA_13
 70
     0
  0
APPID
  2
GENIUS_GENOREF_13
 70
     0
  0
APPID
  2
GENIUS_GENOENT_13
 70
     0
  0
APPID
  2
GENIUS_GENBH_13
 70
     0
  0
APPID
  2
GENIUS_GENOBJ_13
 70
     0
  0
APPID
  2
GENIUS_GENOLIS_13
 70
     0
  0
APPID
  2
GENIUS_GENOBJ-NBEHI-BHF_13
 70
     0
  0
APPID
  2
GENIUS_GENOBJ-NBEHI-BHB_13
 70
     0
  0
APPID
  2
GENIUS_GENOBJ-F-PART_13
 70
     0
  0
APPID
  2
GENIUS_GEFSTDP_13
 70
     0
  0
APPID
  2
GENIUS_GENOBJ-N-RSSYM_13
 70
     0
  0
APPID
  2
GENIUS_GENSYMENT_13
 70
     0
  0
APPID
  2
GENIUS_GENOBJ-N-TIT_13
 70
     0
  0
APPID
  2
GENIUS_GENTITLE_13
 70
     0
  0
APPID
  2
GENIUS_GENZVEED_13
 70
     0
  0
APPID
  2
GENIUS_GENOBJ-N-LEADER_13
 70
     0
  0
APPID
  2
GENIUS_GENOBJ-N-FIL_13
 70
     0
  0
APPID
  2
GENIUS_GENOBJ-N-SEC_13
 70
     0
  0
APPID
  2
GENIUS_GENOBJ-N-CRS_13
 70
     0
  0
APPID
  2
GENIUS_GENOBJ-N-ZOO_13
 70
     0
  0
APPID
  2
GENIUS_GENZOO_13
 70
     0
  0
APPID
  2
GENIUS_GENOBJ-F-TOL_13
 70
     0
  0
APPID
  2
_CALL_MAC$
 70
     0
  0
ENDTAB
  0
TABLE
  2
DIMSTYLE
 70
     1
  0
DIMSTYLE
  2
STANDARD
 70
     0
  3

  4

  5

  6

  7

 40
1.0
 41
0.18
 42
0.0625
 43
0.38
 44
0.18
 45
0.0
 46
0.0
 47
0.0
 48
0.0
140
0.18
141
0.09
142
0.0
143
25.399999999999999
144
1.0
145
0.0
146
1.0
147
0.09
 71
     0
 72
     0
 73
     1
 74
     1
 75
     0
 76
     0
 77
     0
 78
     0
170
     0
171
     2
172
     0
173
     0
174
     0
175
     0
176
     0
177
     0
178
     0
  0
ENDTAB
  0
ENDSEC
  0
SECTION
  2
BLOCKS
  0
BLOCK
  8
0
  2
$MODEL_SPACE
 70
     0
 10
0.0
 20
0.0
 30
0.0
  3
$MODEL_SPACE
  1

  0
ENDBLK
  5
1CD3
  8
0
  0
BLOCK
 67
     1
  8
0
  2
$PAPER_SPACE
 70
     0
 10
0.0
 20
0.0
 30
0.0
  3
$PAPER_SPACE
  1

  0
ENDBLK
  5
1CD1
 67
     1
  8
0
  0
ENDSEC
  0
SECTION
  2
ENTITIES
  0
TEXT
  5
17C36
  8
0
 62
     3
 10
0.0
 20
-0.0000000000000284
 30
0.0
 40
10.0
  1
TRIK32-M6X20LP
  7
STANDARD1
  0
ARC
  5
17C37
  8
0
 10
143.05762463888229
 20
74.149638017365646
 30
0.0
 40
11.500000000000069
 50
102.6065987618902
 51
165.82058846292679
  0
ARC
  5
17C38
  8
0
 10
152.75835562942771
 20
74.149638017365646
 30
0.0
 40
11.499999999999989
 50
56.477939847301023
 51
77.39340123810976
  0
ARC
  5
17C39
  8
0
 10
134.2079901341549
 20
76.966666666668971
 30
0.0
 40
2.3000000000000109
 50
180.0
 51
270.0
  0
ARC
  5
17C3A
  8
0
 10
147.9079901341548
 20
51.666666666670579
 30
0.0
 40
34.499999999998387
 50
77.681715019866985
 51
90.0
  0
ARC
  5
17C3B
  8
0
 10
147.9079901341548
 20
51.666666666670579
 30
0.0
 40
34.499999999998359
 50
90.0
 51
102.318284980133
  0
ARC
  5
17C3C
  8
0
 10
141.86632346748829
 20
67.000000000002274
 30
0.0
 40
0.9583333333333712
 50
90.0
 51
270.0
  0
LINE
  5
17C3D
  8
0
 10
141.86632346748829
 20
66.041666666668903
 30
0.0
 11
167.94931847058081
 21
66.041666666668903
 31
0.0
  0
LINE
  5
17C3E
  8
0
 10
167.94931847058081
 20
67.958333333335645
 30
0.0
 11
141.86632346748829
 21
67.958333333335645
 31
0.0
  0
LINE
  5
17C3F
  8
0
 10
140.907990134155
 20
74.666666666668903
 30
0.0
 11
140.907990134155
 21
68.058333333335554
 31
0.0
  0
LINE
  5
17C40
  8
0
 10
154.907990134155
 20
68.058333333335554
 30
0.0
 11
154.907990134155
 21
74.666666666668903
 31
0.0
  0
LINE
  5
17C41
  8
0
 10
140.907990134155
 20
65.94166666666888
 30
0.0
 11
140.907990134155
 21
64.06666666666888
 31
0.0
  0
LINE
  5
17C42
  8
0
 10
154.907990134155
 20
64.06666666666888
 30
0.0
 11
154.907990134155
 21
65.94166666666888
 31
0.0
  0
LINE
  5
17C43
  8
0
 10
140.907990134155
 20
64.06666666666888
 30
0.0
 11
141.50799013415499
 21
63.466666666668971
 31
0.0
  0
LINE
  5
17C44
  8
0
 10
154.30799013415489
 20
63.466666666668971
 30
0.0
 11
154.907990134155
 21
64.06666666666888
 31
0.0
  0
ARC
  5
17C45
  8
0
 10
141.59898856182789
 20
67.000000000002274
 30
0.0
 40
1.075668238993718
 50
280.30016467603917
 51
297.01103666877998
  0
ARC
  5
17C46
  8
0
 10
141.59898856182789
 20
67.000000000002274
 30
0.0
 40
1.075668238993734
 50
62.988963331219971
 51
79.699835323960798
  0
LINE
  5
17C47
  8
0
 10
154.02465680082159
 20
65.94166666666888
 30
0.0
 11
153.72846393592849
 21
66.041666666668903
 31
0.0
  0
LINE
  5
17C48
  8
0
 10
153.72846393592849
 20
67.958333333335645
 30
0.0
 11
154.02465680082159
 21
68.058333333335554
 31
0.0
  0
LINE
  5
17C49
  8
0
 10
142.907990134155
 20
63.466666666668971
 30
0.0
 11
142.907990134155
 21
63.166666666668903
 31
0.0
  0
LINE
  5
17C4A
  8
0
 10
152.907990134155
 20
63.166666666668903
 30
0.0
 11
152.907990134155
 21
63.466666666668971
 31
0.0
  0
ARC
  5
17C4B
  8
0
 10
167.94931847058081
 20
67.000000000002274
 30
0.0
 40
0.9583333333333712
 50
270.0
 51
90.0
  0
ARC
  5
17C4C
  8
0
 10
171.94099013415499
 20
67.000000000002274
 30
0.0
 40
6.00000000000004
 50
353.78075155712139
 51
6.2192484428817449
  0
ARC
  5
17C4D
  8
0
 10
171.94099013415499
 20
67.000000000002274
 30
0.0
 40
6.0
 50
189.19077337943901
 51
318.18968510422121
  0
ARC
  5
17C4E
  8
0
 10
171.94099013415499
 20
67.000000000002274
 30
0.0
 40
6.0000000000000151
 50
41.810314895779342
 51
170.80922662056091
  0
ARC
  5
17C4F
  8
0
 10
171.94099013415499
 20
67.000000000002274
 30
0.0
 40
7.0
 50
34.849904579047333
 51
172.13122250322121
  0
ARC
  5
17C50
  8
0
 10
171.94099013415499
 20
67.000000000002274
 30
0.0
 40
7.0000000000000107
 50
187.8687774967787
 51
325.15009542095072
  0
POLYLINE
  5
17C51
  8
0
 66
     1
 10
0.0
 20
0.0
 30
0.0
 70
   128
  0
VERTEX
  5
1CAA2
  8
0
 10
149.25368249088689
 20
76.966666666671017
 30
0.0
  0
VERTEX
  5
1CAA3
  8
0
 10
148.51327633168
 20
78.026292726872271
 30
0.0
  0
VERTEX
  5
1CAA4
  8
0
 10
147.81838887962709
 20
79.585108579134271
 30
0.0
  0
SEQEND
  5
1CAA5
  8
0
  0
ARC
  5
17C52
  8
0
 10
145.73128864088
 20
78.122974229303054
 30
0.0
 40
3.7073313331783568
 50
304.26114218389512
 51
341.82637701966343
  0
POLYLINE
  5
17C53
  8
0
 66
     1
 10
0.0
 20
0.0
 30
0.0
 70
   128
  0
VERTEX
  5
1CAA6
  8
0
 10
160.9297291084512
 20
79.58510857911881
 30
0.0
  0
VERTEX
  5
1CAA7
  8
0
 10
160.15567364533459
 20
81.720366240755084
 30
0.0
  0
VERTEX
  5
1CAA8
  8
0
 10
159.4558858965369
 20
83.144906178831093
 30
0.0
  0
VERTEX
  5
1CAA9
  8
0
 10
159.10932273326711
 20
83.736880417865905
 30
0.0
  0
SEQEND
  5
1CAAA
  8
0
  0
POLYLINE
  5
17C54
  8
0
 66
     1
 10
0.0
 20
0.0
 30
0.0
 70
   128
  0
VERTEX
  5
1CAAB
  8
0
 10
160.9297291084512
 20
79.58510857911881
 30
0.0
  0
VERTEX
  5
1CAAC
  8
0
 10
161.16861377099369
 20
77.758569936050094
 30
0.0
  0
SEQEND
  5
1CAAD
  8
0
  0
POLYLINE
  5
17C55
  8
0
 66
     1
 10
0.0
 20
0.0
 30
0.0
 70
   128
  0
VERTEX
  5
1CAAE
  8
0
 10
134.97585232505759
 20
79.585108438895304
 30
0.0
  0
VERTEX
  5
1CAAF
  8
0
 10
136.8525318444967
 20
81.720394187732708
 30
0.0
  0
VERTEX
  5
1CAB0
  8
0
 10
139.26027882676641
 20
83.144920443568594
 30
0.0
  0
VERTEX
  5
1CAB1
  8
0
 10
141.71043597297961
 20
83.714345782780455
 30
0.0
  0
VERTEX
  5
1CAB2
  8
0
 10
144.03541826425661
 20
83.516061794231405
 30
0.0
  0
VERTEX
  5
1CAB3
  8
0
 10
145.98363658076701
 20
82.495650722014616
 30
0.0
  0
VERTEX
  5
1CAB4
  8
0
 10
147.31426438213069
 20
80.775623912745445
 30
0.0
  0
VERTEX
  5
1CAB5
  8
0
 10
147.81838887962709
 20
79.585108579134271
 30
0.0
  0
SEQEND
  5
1CAB6
  8
0
  0
POLYLINE
  5
17C56
  8
0
 66
     1
 10
0.0
 20
0.0
 30
0.0
 70
   128
  0
VERTEX
  5
1CAB7
  8
0
 10
134.97585232505759
 20
79.585108438895304
 30
0.0
  0
VERTEX
  5
1CAB8
  8
0
 10
133.88693899526581
 20
77.758530427608534
 30
0.0
  0
VERTEX
  5
1CAB9
  8
0
 10
133.4278330640623
 20
76.966666666669084
 30
0.0
  0
SEQEND
  5
1CABA
  8
0
  0
ARC
  5
17C57
  8
0
 10
158.5824324825852
 20
76.154832100620752
 30
0.0
 40
2.590518364841282
 50
334.97330493605023
 51
356.68408460719689
  0
POLYLINE
  5
17C58
  8
0
 66
     1
 10
0.0
 20
0.0
 30
0.0
 70
   128
  0
VERTEX
  5
1CABB
  8
0
 10
160.252291604747
 20
74.666666666668903
 30
0.0
  0
VERTEX
  5
1CABC
  8
0
 10
160.67371250140309
 20
74.814993850232327
 30
0.0
  0
VERTEX
  5
1CABD
  8
0
 10
160.92972910845131
 20
75.058937968517739
 30
0.0
  0
SEQEND
  5
1CABE
  8
0
  0
POLYLINE
  5
17C59
  8
0
 66
     1
 10
0.0
 20
0.0
 30
0.0
 70
   128
  0
VERTEX
  5
1CABF
  8
0
 10
147.81838887962709
 20
75.058937968520922
 30
0.0
  0
VERTEX
  5
1CAC0
  8
0
 10
147.18693830917749
 20
74.698365914501096
 30
0.0
  0
VERTEX
  5
1CAC1
  8
0
 10
146.88182481493271
 20
74.666666666668903
 30
0.0
  0
SEQEND
  5
1CAC2
  8
0
  0
POLYLINE
  5
17C5A
  8
0
 66
     1
 10
0.0
 20
0.0
 30
0.0
 70
   128
  0
VERTEX
  5
1CAC3
  8
0
 10
136.58985398277881
 20
74.666666666668903
 30
0.0
  0
VERTEX
  5
1CAC4
  8
0
 10
135.54694177418079
 20
74.814993850232327
 30
0.0
  0
VERTEX
  5
1CAC5
  8
0
 10
134.9758523250575
 20
75.05893801916045
 30
0.0
  0
SEQEND
  5
1CAC6
  8
0
  0
ARC
  5
17C5B
  8
0
 10
136.168529614709
 20
77.608663073272851
 30
0.0
 40
2.8148848944173199
 50
193.18358841589841
 51
244.9313573469073
  0
LINE
  5
17C5C
  8
0
 10
134.20799013415501
 20
74.666666666668903
 30
0.0
 11
160.252291604747
 21
74.666666666668903
 31
0.0
  0
LINE
  5
17C5D
  8
0
 10
140.907990134155
 20
68.058333333335554
 30
0.0
 11
154.907990134155
 21
68.058333333335554
 31
0.0
  0
LINE
  5
17C5E
  8
0
 10
140.907990134155
 20
64.06666666666888
 30
0.0
 11
154.907990134155
 21
64.06666666666888
 31
0.0
  0
LINE
  5
17C5F
  8
0
 10
140.907990134155
 20
65.94166666666888
 30
0.0
 11
154.907990134155
 21
65.94166666666888
 31
0.0
  0
LINE
  5
17C60
  8
0
 10
141.50799013415499
 20
63.466666666668971
 30
0.0
 11
154.30799013415489
 21
63.466666666668971
 31
0.0
  0
LINE
  5
17C61
  8
0
 10
142.907990134155
 20
63.166666666668903
 30
0.0
 11
152.907990134155
 21
63.166666666668903
 31
0.0
  0
LINE
  5
17C6A
  8
0
 10
159.39484962721141
 20
155.12613503594511
 30
0.0
 11
165.42815012772891
 21
153.99376354854411
 31
0.0
  0
LINE
  5
17C6B
  8
0
 10
165.7817099402067
 20
155.87753810249481
 30
0.0
 11
159.86946052722729
 21
156.98718988613911
 31
0.0
  0
LINE
  5
17C6C
  8
0
 10
159.8694605272272
 20
147.23276208769039
 30
0.0
 11
165.78154527488891
 21
148.3430642108261
 31
0.0
  0
LINE
  5
17C6D
  8
0
 10
165.41170070100611
 20
150.22385656679171
 30
0.0
 11
159.39484962721141
 21
149.09381693788421
 31
0.0
  0
ARC
  5
17C6E
  8
0
 10
165.07465180391409
 20
152.1103166075595
 30
0.0
 40
1.9163333333333319
 50
15.11380921572705
 51
79.370000000000545
  0
ARC
  5
17C6F
  8
0
 10
165.07465180391409
 20
152.1103166075595
 30
0.0
 40
1.916333333333321
 50
280.12999999999931
 51
344.86509175682698
  0
ARC
  5
17C70
  8
0
 10
165.07465180391409
 20
152.1103166075595
 30
0.0
 40
3.8330000000000242
 50
280.62749561074151
 51
352.4994915144656
  0
ARC
  5
17C71
  8
0
 10
165.07465180391409
 20
152.1103166075595
 30
0.0
 40
3.8330000000000242
 50
7.4902375123807019
 51
79.370000000000545
  0
ARC
  5
17C72
  8
0
 10
165.44099013415499
 20
152.10997598691469
 30
0.0
 40
0.5
 50
90.0
 51
270.0
  0
ARC
  5
17C73
  8
0
 10
178.4409901341549
 20
152.10997598691469
 30
0.0
 40
0.5
 50
270.0
 51
90.0
  0
LINE
  5
17C74
  8
0
 10
165.44099013415499
 20
151.60997598691469
 30
0.0
 11
178.4409901341549
 21
151.60997598691469
 31
0.0
  0
LINE
  5
17C75
  8
0
 10
178.4409901341549
 20
152.60997598691469
 30
0.0
 11
165.44099013415499
 21
152.60997598691469
 31
0.0
  0
ARC
  5
17C76
  8
0
 10
134.30799013415529
 20
175.6658669698509
 30
0.0
 40
15.99999999999951
 50
272.3923006670617
 51
328.6871453205211
  0
POLYLINE
  5
17C77
  8
0
 66
     1
 10
0.0
 20
0.0
 30
0.0
 70
   128
  0
VERTEX
  5
1CAC7
  8
0
 10
147.97746615253851
 20
167.35049413498481
 30
0.0
  0
VERTEX
  5
1CAC8
  8
0
 10
148.58493826622461
 20
167.92721711966459
 30
0.0
  0
VERTEX
  5
1CAC9
  8
0
 10
148.9705184914136
 20
168.0746568008245
 30
0.0
  0
SEQEND
  5
1CACA
  8
0
  0
ARC
  5
17C78
  8
0
 10
147.90799013415489
 20
152.10997598691469
 30
0.0
 40
15.999999999999959
 50
34.824605260495773
 51
86.192298413035346
  0
POLYLINE
  5
17C79
  8
0
 66
     1
 10
0.0
 20
0.0
 30
0.0
 70
   128
  0
VERTEX
  5
1CACB
  8
0
 10
161.04245484751459
 20
161.24703441364571
 30
0.0
  0
VERTEX
  5
1CACC
  8
0
 10
161.1721254907205
 20
160.46695240375101
 30
0.0
  0
VERTEX
  5
1CACD
  8
0
 10
160.92972910845131
 20
159.524617872199
 30
0.0
  0
SEQEND
  5
1CACE
  8
0
  0
ARC
  5
17C7A
  8
0
 10
175.10799013415519
 20
152.10997598691461
 30
0.0
 40
16.000000000000242
 50
152.3923006670602
 51
207.60769933293969
  0
POLYLINE
  5
17C7B
  8
0
 66
     1
 10
0.0
 20
0.0
 30
0.0
 70
   128
  0
VERTEX
  5
1CACF
  8
0
 10
160.92972910845111
 20
144.69533410163061
 30
0.0
  0
VERTEX
  5
1CAD0
  8
0
 10
161.16861377099369
 20
143.57591104392469
 30
0.0
  0
VERTEX
  5
1CAD1
  8
0
 10
161.04245484751391
 20
142.97291756018191
 30
0.0
  0
SEQEND
  5
1CAD2
  8
0
  0
ARC
  5
17C7C
  8
0
 10
147.90799013415489
 20
152.10997598691469
 30
0.0
 40
15.99999999999998
 50
274.82460526049431
 51
325.17539473950029
  0
POLYLINE
  5
17C7D
  8
0
 66
     1
 10
0.0
 20
0.0
 30
0.0
 70
   128
  0
VERTEX
  5
1CAD3
  8
0
 10
149.25368249088689
 20
136.1666666666695
 30
0.0
  0
VERTEX
  5
1CAD4
  8
0
 10
148.51327633168
 20
136.44440960047541
 30
0.0
  0
VERTEX
  5
1CAD5
  8
0
 10
147.81838887962709
 20
137.12549829108201
 30
0.0
  0
SEQEND
  5
1CAD6
  8
0
  0
ARC
  5
17C7E
  8
0
 10
134.30799013415509
 20
128.55408500397829
 30
0.0
 40
15.99999999999971
 50
32.392300667061768
 51
87.607699653108853
  0
POLYLINE
  5
17C7F
  8
0
 66
     1
 10
0.0
 20
0.0
 30
0.0
 70
   128
  0
VERTEX
  5
1CAD7
  8
0
 10
134.97585232505759
 20
144.54014018009829
 30
0.0
  0
VERTEX
  5
1CAD8
  8
0
 10
133.88693899526581
 20
144.89298627595059
 30
0.0
  0
VERTEX
  5
1CAD9
  8
0
 10
133.42783306406221
 20
145.30372509340191
 30
0.0
  0
SEQEND
  5
1CADA
  8
0
  0
ARC
  5
17C80
  8
0
 10
147.90799013415489
 20
152.10997598691469
 30
0.0
 40
15.999999999999931
 50
154.82460526049439
 51
205.17539473949819
  0
POLYLINE
  5
17C81
  8
0
 66
     1
 10
0.0
 20
0.0
 30
0.0
 70
   128
  0
VERTEX
  5
1CADB
  8
0
 10
133.42783306406341
 20
158.91622688042889
 30
0.0
  0
VERTEX
  5
1CADC
  8
0
 10
134.03856858006441
 20
159.4185659565176
 30
0.0
  0
VERTEX
  5
1CADD
  8
0
 10
134.97585241438651
 20
159.67981179746309
 30
0.0
  0
SEQEND
  5
1CADE
  8
0
  0
ARC
  5
17C82
  8
0
 10
61.114315318636777
 20
74.1496380173636
 30
0.0
 40
11.49999999999971
 50
102.60659876188861
 51
147.2322366426281
  0
LINE
  5
17C83
  8
0
 10
51.444295889195473
 20
80.373842724329734
 30
0.0
 11
50.724162665839629
 21
79.078272424092106
 31
0.0
  0
LINE
  5
17C84
  8
0
 10
80.949158509742404
 20
79.585108579131997
 30
0.0
 11
80.356090554686304
 21
80.569799596742769
 31
0.0
  0
ARC
  5
17C85
  8
0
 10
70.815046309182549
 20
74.149638017363259
 30
0.0
 40
11.500000000000091
 50
33.936580720572167
 51
77.39340123810976
  0
ARC
  5
17C86
  8
0
 10
65.964680813909752
 20
51.666666666668313
 30
0.0
 40
34.499999999998387
 50
77.681715019866985
 51
102.318284980133
  0
ARC
  5
17C87
  8
0
 10
59.923014147243123
 20
67.0
 30
0.0
 40
0.9583333333333712
 50
90.0
 51
270.0
  0
ARC
  5
17C88
  8
0
 10
72.006347480576437
 20
67.0
 30
0.0
 40
0.9583333333333712
 50
270.0
 51
90.0
  0
LINE
  5
17C89
  8
0
 10
59.923014147243123
 20
66.041666666666629
 30
0.0
 11
72.006347480576437
 21
66.041666666666629
 31
0.0
  0
LINE
  5
17C8A
  8
0
 10
72.006347480576437
 20
67.958333333333371
 30
0.0
 11
59.923014147243123
 21
67.958333333333371
 31
0.0
  0
LINE
  5
17C8B
  8
0
 10
58.964680813909808
 20
65.941666666666606
 30
0.0
 11
58.964680813909808
 21
64.066666666666606
 31
0.0
  0
LINE
  5
17C8C
  8
0
 10
72.964680813909808
 20
64.066666666666606
 30
0.0
 11
72.964680813909808
 21
65.941666666666606
 31
0.0
  0
LINE
  5
17C8D
  8
0
 10
58.964680813909808
 20
74.666666666666629
 30
0.0
 11
58.964680813909808
 21
68.05833333333328
 31
0.0
  0
LINE
  5
17C8E
  8
0
 10
72.964680813909808
 20
68.05833333333328
 30
0.0
 11
72.964680813909808
 21
74.666666666666629
 31
0.0
  0
LINE
  5
17C8F
  8
0
 10
58.964680813909752
 20
64.066666666666606
 30
0.0
 11
59.564680813909831
 21
63.466666666666697
 31
0.0
  0
LINE
  5
17C90
  8
0
 10
72.364680813909786
 20
63.466666666666697
 30
0.0
 11
72.964680813909808
 21
64.066666666666606
 31
0.0
  0
ARC
  5
17C91
  8
0
 10
59.655679241582781
 20
67.0
 30
0.0
 40
1.075668238993708
 50
280.30016467603917
 51
297.01103666877998
  0
ARC
  5
17C92
  8
0
 10
59.655679241582781
 20
67.0
 30
0.0
 40
1.075668238993708
 50
62.988963331227268
 51
79.699835323960798
  0
ARC
  5
17C93
  8
0
 10
72.273682386236814
 20
67.0
 30
0.0
 40
1.075668238993734
 50
100.3001646760392
 51
117.01103666877999
  0
ARC
  5
17C94
  8
0
 10
72.273682386236814
 20
67.0
 30
0.0
 40
1.075668238993708
 50
242.9889633312182
 51
259.69983532396083
  0
LINE
  5
17C95
  8
0
 10
60.964680813909801
 20
63.466666666666697
 30
0.0
 11
60.964680813909801
 21
63.0
 31
0.0
  0
LINE
  5
17C96
  8
0
 10
70.964680813909794
 20
63.0
 30
0.0
 11
70.964680813909794
 21
63.466666666666697
 31
0.0
  0
ARC
  5
17C97
  8
0
 10
52.264524439656377
 20
76.965848026758522
 30
0.0
 40
2.2991813654096021
 50
227.93594761273209
 51
270.003896858632
  0
POLYLINE
  5
17C9B
  8
0
 66
     1
 10
0.0
 20
0.0
 30
0.0
 70
   128
  0
VERTEX
  5
1CADF
  8
0
 10
50.724162665839629
 20
79.078272424092106
 30
0.0
  0
VERTEX
  5
1CAE0
  8
0
 10
52.187283440698202
 20
81.360066730901394
 30
0.0
  0
VERTEX
  5
1CAE1
  8
0
 10
53.98731098794002
 20
82.954999804253035
 30
0.0
  0
VERTEX
  5
1CAE2
  8
0
 10
55.649054742955059
 20
83.669636554793101
 30
0.0
  0
VERTEX
  5
1CAE3
  8
0
 10
56.98804146963721
 20
83.610114529074949
 30
0.0
  0
VERTEX
  5
1CAE4
  8
0
 10
57.88546449255449
 20
82.734249770895985
 30
0.0
  0
VERTEX
  5
1CAE5
  8
0
 10
58.296177203726643
 20
81.125022597027495
 30
0.0
  0
VERTEX
  5
1CAE6
  8
0
 10
58.394845003361411
 20
79.585108579141206
 30
0.0
  0
SEQEND
  5
1CAE7
  8
0
  0
POLYLINE
  5
17C9C
  8
0
 66
     1
 10
0.0
 20
0.0
 30
0.0
 70
   128
  0
VERTEX
  5
1CAE8
  8
0
 10
50.724162665839629
 20
79.078272424092106
 30
0.0
  0
VERTEX
  5
1CAE9
  8
0
 10
50.147439681159881
 20
77.564288949358783
 30
0.0
  0
VERTEX
  5
1CAEA
  8
0
 10
50.0
 20
76.966666666666811
 30
0.0
  0
SEQEND
  5
1CAEB
  8
0
  0
POLYLINE
  5
17C9D
  8
0
 66
     1
 10
0.0
 20
0.0
 30
0.0
 70
   128
  0
VERTEX
  5
1CAEC
  8
0
 10
81.907990134154943
 20
76.966666666668743
 30
0.0
  0
VERTEX
  5
1CAED
  8
0
 10
81.630247200349103
 20
78.026292726869997
 30
0.0
  0
VERTEX
  5
1CAEE
  8
0
 10
80.949158509742404
 20
79.585108579131997
 30
0.0
  0
SEQEND
  5
1CAEF
  8
0
  0
POLYLINE
  5
17C9E
  8
0
 66
     1
 10
0.0
 20
0.0
 30
0.0
 70
   128
  0
VERTEX
  5
1CAF0
  8
0
 10
73.534516620726208
 20
79.58510843889303
 30
0.0
  0
VERTEX
  5
1CAF1
  8
0
 10
73.724201723809685
 20
81.720394187730435
 30
0.0
  0
VERTEX
  5
1CAF2
  8
0
 10
74.306274681795912
 20
83.144920443566306
 30
0.0
  0
VERTEX
  5
1CAF3
  8
0
 10
75.335939422221202
 20
83.714345782778196
 30
0.0
  0
VERTEX
  5
1CAF4
  8
0
 10
76.817141473752429
 20
83.516061794229145
 30
0.0
  0
VERTEX
  5
1CAF5
  8
0
 10
78.580769236758101
 20
82.495650722012329
 30
0.0
  0
VERTEX
  5
1CAF6
  8
0
 10
80.201943668927413
 20
80.775623912743185
 30
0.0
  0
VERTEX
  5
1CAF7
  8
0
 10
80.949158509742404
 20
79.585108579131997
 30
0.0
  0
SEQEND
  5
1CAF8
  8
0
  0
POLYLINE
  5
17C9F
  8
0
 66
     1
 10
0.0
 20
0.0
 30
0.0
 70
   128
  0
VERTEX
  5
1CAF9
  8
0
 10
73.684123414196335
 20
74.666666666666629
 30
0.0
  0
VERTEX
  5
1CAFA
  8
0
 10
73.568612706074063
 20
74.814993850230053
 30
0.0
  0
VERTEX
  5
1CAFB
  8
0
 10
73.534516620726208
 20
75.058938019158177
 30
0.0
  0
SEQEND
  5
1CAFC
  8
0
  0
POLYLINE
  5
17CA0
  8
0
 66
     1
 10
0.0
 20
0.0
 30
0.0
 70
   128
  0
VERTEX
  5
1CAFD
  8
0
 10
58.394845003361411
 20
75.05893796851376
 30
0.0
  0
VERTEX
  5
1CAFE
  8
0
 10
58.309193540348652
 20
74.698360582200166
 30
0.0
  0
VERTEX
  5
1CAFF
  8
0
 10
58.245238213621739
 20
74.666666666666629
 30
0.0
  0
SEQEND
  5
1CB00
  8
0
  0
LINE
  5
17CA1
  8
0
 10
58.394845003361411
 20
79.585108579141206
 30
0.0
 11
58.394845003361411
 21
75.05893796851376
 31
0.0
  0
LINE
  5
17CA2
  8
0
 10
73.534516620726208
 20
79.58510843889303
 30
0.0
 11
73.534516620726208
 21
75.058938019158177
 31
0.0
  0
POLYLINE
  5
17CA3
  8
0
 66
     1
 10
0.0
 20
0.0
 30
0.0
 70
   128
  0
VERTEX
  5
1CB01
  8
0
 10
80.949158509742404
 20
75.058937968518634
 30
0.0
  0
VERTEX
  5
1CB02
  8
0
 10
80.026747809375252
 20
74.698365914498822
 30
0.0
  0
VERTEX
  5
1CB03
  8
0
 10
79.626195544627819
 20
74.666666666666629
 30
0.0
  0
SEQEND
  5
1CB04
  8
0
  0
LINE
  5
17CA4
  8
0
 10
52.264680814367409
 20
74.666666666666629
 30
0.0
 11
79.626195544627819
 21
74.666666666666629
 31
0.0
  0
LINE
  5
17CA5
  8
0
 10
58.964680813909808
 20
64.066666666666606
 30
0.0
 11
72.964680813909808
 21
64.066666666666606
 31
0.0
  0
LINE
  5
17CA6
  8
0
 10
58.964680813909808
 20
65.941666666666606
 30
0.0
 11
72.964680813909808
 21
65.941666666666606
 31
0.0
  0
LINE
  5
17CA7
  8
0
 10
58.964680813909808
 20
68.05833333333328
 30
0.0
 11
72.964680813909808
 21
68.05833333333328
 31
0.0
  0
LINE
  5
17CA8
  8
0
 10
59.564680813909831
 20
63.466666666666697
 30
0.0
 11
72.364680813909786
 21
63.466666666666697
 31
0.0
  0
LINE
  5
17CA9
  8
0
 10
60.964680813909801
 20
63.166666666666622
 30
0.0
 11
70.964680813909794
 21
63.166666666666622
 31
0.0
  0
ARC
  5
17CAB
  8
0
 10
79.641700314067009
 20
76.910891919778237
 30
0.0
 40
2.2669760411228359
 50
305.22165203951261
 51
1.4097987921476549
  0
ARC
  5
17CAC
  8
0
 10
52.24237153400378
 20
76.910145778579249
 30
0.0
 40
2.2430837495066198
 50
178.5561167142894
 51
227.40279752739769
  0
LINE
  5
17CAD
  8
0
 10
70.964680813909794
 20
63.0
 30
0.0
 11
68.964680813909808
 21
62.999999999999993
 31
0.0
  0
LINE
  5
17CB0
  8
0
 10
62.964680813909752
 20
63.0
 30
0.0
 11
60.964680813909801
 21
63.0
 31
0.0
  0
LINE
  5
17CB1
  8
0
 10
69.964680813909865
 20
62.0
 30
0.0
 11
69.964680813909808
 21
63.0
 31
0.0
  0
LINE
  5
17CB2
  8
0
 10
69.964680813909808
 20
62.189631943040581
 30
0.0
 11
68.964680813909752
 21
62.189631943040581
 31
0.0
  0
LINE
  5
17CB5
  8
0
 10
62.964680813909688
 20
62.189631943040581
 30
0.0
 11
61.964680813909752
 21
62.189631943040581
 31
0.0
  0
LINE
  5
17CB6
  8
0
 10
61.964680813909752
 20
63.0
 30
0.0
 11
61.964680813909752
 21
62.0
 31
0.0
  0
LINE
  5
17CBB
  8
0
 10
61.964680813909752
 20
62.0
 30
0.0
 11
62.964680813909808
 21
62.0
 31
0.0
  0
LINE
  5
17CBC
  8
0
 10
68.964680813909808
 20
62.000000000000007
 30
0.0
 11
69.964680813909808
 21
62.0
 31
0.0
  0
LINE
  5
17CC9
  8
1
 10
65.964680813909695
 20
40.166666666666629
 30
0.0
 11
65.964680813909752
 21
89.166666666666742
 31
0.0
  0
LINE
  5
17CCA
  8
1
 10
57.464680813909752
 20
67.0
 30
0.0
 11
74.464680813909808
 21
67.0
 31
0.0
  0
LINE
  5
17CCB
  8
0
 10
255.9409901341551
 20
152.9599759869146
 30
0.0
 11
255.9409901341551
 21
155.50997598691461
 31
0.0
  0
LINE
  5
17CCC
  8
0
 10
255.9409901341551
 20
148.7099759869146
 30
0.0
 11
255.9409901341551
 21
151.2599759869147
 31
0.0
  0
LINE
  5
17CCD
  8
0
 10
193.9409901341549
 20
152.60997598691469
 30
0.0
 11
193.9409901341549
 21
154.12842507591171
 31
0.0
  0
LINE
  5
17CCE
  8
0
 10
193.9409901341549
 20
150.09152689791759
 30
0.0
 11
193.9409901341549
 21
151.60997598691469
 31
0.0
  0
ARC
  5
17CCF
  8
0
 10
226.4409901341551
 20
152.10997598691469
 30
0.0
 40
2.249999999999984
 50
192.83958840690599
 51
347.1604115930956
  0
ARC
  5
17CD0
  8
0
 10
220.4409901341551
 20
152.10997598691469
 30
0.0
 40
2.25
 50
12.83958840690603
 51
167.16041159309711
  0
ARC
  5
17CD1
  8
0
 10
220.4409901341551
 20
152.10997598691469
 30
0.0
 40
2.249999999999984
 50
192.83958840690431
 51
347.1604115930956
  0
ARC
  5
17CD2
  8
0
 10
232.4409901341551
 20
152.10997598691469
 30
0.0
 40
2.249999999999984
 50
192.83958840690599
 51
347.1604115930956
  0
ARC
  5
17CD3
  8
0
 10
196.4409901341549
 20
152.10997598691469
 30
0.0
 40
2.2500000000000062
 50
12.83958840690434
 51
167.1604115930956
  0
ARC
  5
17CD4
  8
0
 10
196.4409901341549
 20
152.10997598691469
 30
0.0
 40
2.2500000000000062
 50
192.83958840690281
 51
347.16041159309719
  0
ARC
  5
17CD5
  8
0
 10
208.44099013415499
 20
152.10997598691469
 30
0.0
 40
2.2500000000000062
 50
192.83958840690431
 51
347.16041159309719
  0
ARC
  5
17CD6
  8
0
 10
240.4409901341551
 20
152.10997598691469
 30
0.0
 40
2.2500000000000129
 50
245.23573932699591
 51
114.624318352176
  0
ARC
  5
17CD7
  8
0
 10
202.44099013415499
 20
152.10997598691469
 30
0.0
 40
2.2500000000000062
 50
192.83958840690281
 51
347.16041159309719
  0
ARC
  5
17CD8
  8
0
 10
214.44099013415499
 20
152.10997598691469
 30
0.0
 40
2.2500000000000342
 50
192.83958840690599
 51
286.16814915248051
  0
ARC
  5
17CD9
  8
0
 10
214.44099013415499
 20
152.10997598691469
 30
0.0
 40
2.25
 50
43.635208626985737
 51
167.1604115930939
  0
LINE
  5
17CDA
  8
0
 10
222.634731231003
 20
151.60997598691469
 30
0.0
 11
224.24724903730711
 21
151.60997598691469
 31
0.0
  0
LINE
  5
17CDB
  8
0
 10
224.24724903730711
 20
152.60997598691469
 30
0.0
 11
222.634731231003
 21
152.60997598691469
 31
0.0
  0
LINE
  5
17CDC
  8
0
 10
234.634731231003
 20
151.60997598691469
 30
0.0
 11
236.9723631675547
 21
151.60997598691469
 31
0.0
  0
LINE
  5
17CDD
  8
0
 10
236.9723631675547
 20
152.60997598691469
 30
0.0
 11
234.634731231003
 21
152.60997598691469
 31
0.0
  0
LINE
  5
17CDE
  8
0
 10
210.634731231003
 20
151.60997598691469
 30
0.0
 11
212.24724903730689
 21
151.60997598691469
 31
0.0
  0
LINE
  5
17CDF
  8
0
 10
212.24724903730689
 20
152.60997598691469
 30
0.0
 11
210.634731231003
 21
152.60997598691469
 31
0.0
  0
LINE
  5
17CE0
  8
0
 10
228.634731231003
 20
151.60997598691469
 30
0.0
 11
230.24724903730711
 21
151.60997598691469
 31
0.0
  0
LINE
  5
17CE1
  8
0
 10
230.24724903730711
 20
152.60997598691469
 30
0.0
 11
228.634731231003
 21
152.60997598691469
 31
0.0
  0
LINE
  5
17CE2
  8
0
 10
204.634731231003
 20
151.60997598691469
 30
0.0
 11
206.24724903730689
 21
151.60997598691469
 31
0.0
  0
LINE
  5
17CE3
  8
0
 10
206.24724903730689
 20
152.60997598691469
 30
0.0
 11
204.634731231003
 21
152.60997598691469
 31
0.0
  0
LINE
  5
17CE4
  8
0
 10
198.634731231003
 20
151.60997598691469
 30
0.0
 11
200.24724903730689
 21
151.60997598691469
 31
0.0
  0
LINE
  5
17CE5
  8
0
 10
200.24724903730689
 20
152.60997598691469
 30
0.0
 11
198.634731231003
 21
152.60997598691469
 31
0.0
  0
LINE
  5
17CE6
  8
0
 10
193.9409901341549
 20
151.60997598691469
 30
0.0
 11
194.24724903730689
 21
151.60997598691469
 31
0.0
  0
LINE
  5
17CE7
  8
0
 10
194.24724903730689
 20
152.60997598691469
 30
0.0
 11
193.9409901341549
 21
152.60997598691469
 31
0.0
  0
LINE
  5
17CE8
  8
0
 10
217.06240575530569
 20
151.60997598691469
 30
0.0
 11
218.2472490373072
 21
151.60997598691469
 31
0.0
  0
LINE
  5
17CE9
  8
0
 10
218.2472490373072
 20
152.60997598691469
 30
0.0
 11
217.83556391634659
 21
152.60997598691469
 31
0.0
  0
POLYLINE
  5
17CEA
  8
0
 66
     1
 10
0.0
 20
0.0
 30
0.0
 70
   128
  0
VERTEX
  5
1CB05
  8
0
 10
255.9409901341551
 20
152.9599759869146
 30
0.0
  0
VERTEX
  5
1CB06
  8
0
 10
255.94097090331459
 20
152.9572025473538
 30
0.0
  0
VERTEX
  5
1CB07
  8
0
 10
255.8376054791961
 20
152.78486038193671
 30
0.0
  0
VERTEX
  5
1CB08
  8
0
 10
255.74099013415511
 20
152.7599759869147
 30
0.0
  0
SEQEND
  5
1CB09
  8
0
  0
LINE
  5
17CEB
  8
0
 10
240.9409901341551
 20
156.10997598691469
 30
0.0
 11
255.34099013415499
 21
156.10997598691469
 31
0.0
  0
POLYLINE
  5
17CEC
  8
0
 66
     1
 10
0.0
 20
0.0
 30
0.0
 70
   128
  0
VERTEX
  5
1CB0A
  8
0
 10
255.34099013415499
 20
156.10997598691469
 30
0.0
  0
VERTEX
  5
1CB0B
  8
0
 10
255.71691852260761
 20
155.97760601883681
 30
0.0
  0
VERTEX
  5
1CB0C
  8
0
 10
255.94097227695599
 20
155.51460506113159
 30
0.0
  0
VERTEX
  5
1CB0D
  8
0
 10
255.9409901341551
 20
155.50997598691461
 30
0.0
  0
SEQEND
  5
1CB0E
  8
0
  0
LINE
  5
17CED
  8
0
 10
250.4409901341551
 20
152.7599759869147
 30
0.0
 11
255.74099013415511
 21
152.7599759869147
 31
0.0
  0
ARC
  5
17CEE
  8
0
 10
250.4409901341551
 20
153.25997598691461
 30
0.0
 40
0.5
 50
179.99999999999349
 51
270.0
  0
POLYLINE
  5
17CEF
  8
0
 66
     1
 10
0.0
 20
0.0
 30
0.0
 70
   128
  0
VERTEX
  5
1CB0F
  8
0
 10
255.9409901341551
 20
148.7099759869146
 30
0.0
  0
VERTEX
  5
1CB10
  8
0
 10
255.94097227695599
 20
148.70534691269791
 30
0.0
  0
VERTEX
  5
1CB11
  8
0
 10
255.71691852260761
 20
148.24234595499249
 30
0.0
  0
VERTEX
  5
1CB12
  8
0
 10
255.34099013415499
 20
148.10997598691469
 30
0.0
  0
SEQEND
  5
1CB13
  8
0
  0
LINE
  5
17CF0
  8
0
 10
255.34099013415499
 20
148.10997598691469
 30
0.0
 11
240.9409901341551
 21
148.10997598691469
 31
0.0
  0
POLYLINE
  5
17CF1
  8
0
 66
     1
 10
0.0
 20
0.0
 30
0.0
 70
   128
  0
VERTEX
  5
1CB14
  8
0
 10
255.74099013415511
 20
151.4599759869146
 30
0.0
  0
VERTEX
  5
1CB15
  8
0
 10
255.8376054791961
 20
151.43509159189259
 30
0.0
  0
VERTEX
  5
1CB16
  8
0
 10
255.94097090331459
 20
151.26274942647629
 30
0.0
  0
VERTEX
  5
1CB17
  8
0
 10
255.9409901341551
 20
151.2599759869147
 30
0.0
  0
SEQEND
  5
1CB18
  8
0
  0
LINE
  5
17CF2
  8
0
 10
249.9409901341551
 20
151.2599759869147
 30
0.0
 11
249.9409901341551
 21
150.9599759869146
 31
0.0
  0
ARC
  5
17CF3
  8
0
 10
250.140990134155
 20
151.2599759869147
 30
0.0
 40
0.1999999999999815
 50
90.0
 51
180.0
  0
LINE
  5
17CF4
  8
0
 10
255.74099013415511
 20
151.4599759869146
 30
0.0
 11
250.140990134155
 21
151.4599759869146
 31
0.0
  0
ARC
  5
17CF5
  8
0
 10
240.9409901341551
 20
152.10997598691469
 30
0.0
 40
4.0000000000001226
 50
90.0
 51
180.0
  0
ARC
  5
17CF6
  8
0
 10
243.72707732830659
 20
155.64377254961909
 30
0.0
 40
1.9999999999997899
 50
231.7473341621486
 51
266.50000000000682
  0
ARC
  5
17CF7
  8
0
 10
240.9409901341551
 20
152.10997598691469
 30
0.0
 40
2.500000000000099
 50
51.747334162152796
 51
308.25266938692181
  0
ARC
  5
17CF8
  8
0
 10
243.72707732830699
 20
148.57617942420981
 30
0.0
 40
2.000000000000151
 50
93.500000000006224
 51
128.2526614015114
  0
ARC
  5
17CF9
  8
0
 10
240.9409901341551
 20
152.10997598691469
 30
0.0
 40
4.0000000000001226
 50
180.0
 51
270.0
  0
LINE
  5
17CFA
  8
0
 10
249.9409901341551
 20
150.9599759869146
 30
0.0
 11
243.60498024923709
 21
150.57244902105359
 31
0.0
  0
LINE
  5
17CFB
  8
0
 10
243.60498024923709
 20
153.6475029527756
 30
0.0
 11
249.9409901341551
 21
153.2599759869147
 31
0.0
  0
ARC
  5
17CFC
  8
0
 10
181.78807638153381
 20
149.10997598691461
 30
0.0
 40
8.0000000000001137
 50
77.500000000002274
 51
90.0
  0
LINE
  5
17CFD
  8
0
 10
193.47085390251769
 20
154.7142026801838
 30
0.0
 11
183.5195932930387
 21
156.92034404387411
 31
0.0
  0
LINE
  5
17CFE
  8
0
 10
183.5195932930387
 20
147.29960792995519
 30
0.0
 11
193.470853902518
 21
149.50574929364569
 31
0.0
  0
ARC
  5
17CFF
  8
0
 10
181.78807638153381
 20
155.10997598691489
 30
0.0
 40
8.0000000000002931
 50
270.0
 51
282.50000000000108
  0
LINE
  5
17D00
  8
0
 10
181.78807638153381
 20
147.10997598691469
 30
0.0
 11
179.9409901341549
 21
147.10997598691469
 31
0.0
  0
ARC
  5
17D01
  8
0
 10
179.9409901341549
 20
152.10997598691469
 30
0.0
 40
5.0000000000000302
 50
208.35763657632839
 51
270.0
  0
ARC
  5
17D02
  8
0
 10
179.9409901341549
 20
152.10997598691469
 30
0.0
 40
5.0000000000000302
 50
90.0
 51
151.6423634236715
  0
LINE
  5
17D03
  8
0
 10
181.78807638153381
 20
157.10997598691469
 30
0.0
 11
179.9409901341549
 21
157.10997598691469
 31
0.0
  0
ARC
  5
17D04
  8
0
 10
179.9409901341549
 20
152.10997598691469
 30
0.0
 40
4.0000000000000142
 50
187.18075578145829
 51
172.8192442185416
  0
ARC
  5
17D05
  8
0
 10
179.9409901341549
 20
152.10997598691469
 30
0.0
 40
2.5000000000000351
 50
191.53695903281661
 51
168.46304096718339
  0
POLYLINE
  5
17D06
  8
0
 66
     1
 10
0.0
 20
0.0
 30
0.0
 70
   128
  0
VERTEX
  5
1CB19
  8
0
 10
193.47085390251789
 20
149.50574929364561
 30
0.0
  0
VERTEX
  5
1CB1A
  8
0
 10
193.81220199041911
 20
149.7200980534318
 30
0.0
  0
VERTEX
  5
1CB1B
  8
0
 10
193.94097274278531
 20
150.08695860004951
 30
0.0
  0
VERTEX
  5
1CB1C
  8
0
 10
193.9409901341549
 20
150.09152689791759
 30
0.0
  0
SEQEND
  5
1CB1D
  8
0
  0
POLYLINE
  5
17D07
  8
0
 66
     1
 10
0.0
 20
0.0
 30
0.0
 70
   128
  0
VERTEX
  5
1CB1E
  8
0
 10
193.9409901341549
 20
154.12842507591171
 30
0.0
  0
VERTEX
  5
1CB1F
  8
0
 10
193.94097274278531
 20
154.13299337377961
 30
0.0
  0
VERTEX
  5
1CB20
  8
0
 10
193.81220199041911
 20
154.49985392039761
 30
0.0
  0
VERTEX
  5
1CB21
  8
0
 10
193.47085390251789
 20
154.71420268018369
 30
0.0
  0
SEQEND
  5
1CB22
  8
0
  0
POLYLINE
  5
17D08
  8
0
 66
     1
 10
0.0
 20
0.0
 30
0.0
 70
   128
  0
VERTEX
  5
1CB23
  8
0
 10
193.9409901341549
 20
151.60997598691469
 30
0.0
  0
VERTEX
  5
1CB24
  8
0
 10
193.93759485241929
 20
151.6379068457363
 30
0.0
  0
VERTEX
  5
1CB25
  8
0
 10
193.928884592961
 20
151.7184377198505
 30
0.0
  0
VERTEX
  5
1CB26
  8
0
 10
193.9185726660273
 20
151.84321242520511
 30
0.0
  0
VERTEX
  5
1CB27
  8
0
 10
193.91117765796099
 20
151.99867021803669
 30
0.0
  0
VERTEX
  5
1CB28
  8
0
 10
193.91001262997469
 20
152.16600787357979
 30
0.0
  0
VERTEX
  5
1CB29
  8
0
 10
193.9154978450234
 20
152.32610452217409
 30
0.0
  0
VERTEX
  5
1CB2A
  8
0
 10
193.9252357826183
 20
152.462415183513
 30
0.0
  0
VERTEX
  5
1CB2B
  8
0
 10
193.93504994449339
 20
152.5599912850565
 30
0.0
  0
VERTEX
  5
1CB2C
  8
0
 10
193.94059359432259
 20
152.60679369854071
 30
0.0
  0
VERTEX
  5
1CB2D
  8
0
 10
193.9409901341549
 20
152.60997598691469
 30
0.0
  0
SEQEND
  5
1CB2E
  8
0
  0
POLYLINE
  5
17D09
  8
0
 66
     1
 10
0.0
 20
0.0
 30
0.0
 70
   128
  0
VERTEX
  5
1CB2F
  8
0
 10
175.54099013415501
 20
154.4848444043223
 30
0.0
  0
VERTEX
  5
1CB30
  8
0
 10
175.16506174570239
 20
153.59001248253671
 30
0.0
  0
VERTEX
  5
1CB31
  8
0
 10
175.01534821534361
 20
152.60997598691469
 30
0.0
  0
SEQEND
  5
1CB32
  8
0
  0
POLYLINE
  5
17D0A
  8
0
 66
     1
 10
0.0
 20
0.0
 30
0.0
 70
   128
  0
VERTEX
  5
1CB33
  8
0
 10
175.01534821534361
 20
151.60997598691469
 30
0.0
  0
VERTEX
  5
1CB34
  8
0
 10
175.16506174570239
 20
150.62993949129259
 30
0.0
  0
VERTEX
  5
1CB35
  8
0
 10
175.54099013415501
 20
149.73510756950711
 30
0.0
  0
SEQEND
  5
1CB36
  8
0
  0
LINE
  5
17D0B
  8
0
 10
228.634731231003
 20
151.60997598691469
 30
0.0
 11
228.634731231003
 21
152.60997598691469
 31
0.0
  0
LINE
  5
17D0C
  8
0
 10
224.24724903730711
 20
152.60997598691469
 30
0.0
 11
224.24724903730711
 21
151.60997598691469
 31
0.0
  0
LINE
  5
17D0D
  8
0
 10
222.634731231003
 20
151.60997598691469
 30
0.0
 11
222.634731231003
 21
152.60997598691469
 31
0.0
  0
LINE
  5
17D0E
  8
0
 10
218.2472490373072
 20
152.60997598691469
 30
0.0
 11
218.2472490373072
 21
151.60997598691469
 31
0.0
  0
LINE
  5
17D0F
  8
0
 10
234.634731231003
 20
151.60997598691469
 30
0.0
 11
234.634731231003
 21
152.60997598691469
 31
0.0
  0
LINE
  5
17D10
  8
0
 10
230.24724903730711
 20
152.60997598691469
 30
0.0
 11
230.24724903730711
 21
151.60997598691469
 31
0.0
  0
LINE
  5
17D11
  8
0
 10
198.634731231003
 20
151.60997598691469
 30
0.0
 11
198.634731231003
 21
152.60997598691469
 31
0.0
  0
LINE
  5
17D12
  8
0
 10
194.24724903730689
 20
152.60997598691469
 30
0.0
 11
194.24724903730689
 21
151.60997598691469
 31
0.0
  0
LINE
  5
17D13
  8
0
 10
210.634731231003
 20
151.60997598691469
 30
0.0
 11
210.634731231003
 21
152.60997598691469
 31
0.0
  0
LINE
  5
17D14
  8
0
 10
206.24724903730689
 20
152.60997598691469
 30
0.0
 11
206.24724903730689
 21
151.60997598691469
 31
0.0
  0
LINE
  5
17D15
  8
0
 10
204.634731231003
 20
151.60997598691469
 30
0.0
 11
204.634731231003
 21
152.60997598691469
 31
0.0
  0
LINE
  5
17D16
  8
0
 10
200.24724903730689
 20
152.60997598691469
 30
0.0
 11
200.24724903730689
 21
151.60997598691469
 31
0.0
  0
LINE
  5
17D17
  8
0
 10
212.24724903730689
 20
152.60997598691469
 30
0.0
 11
212.24724903730689
 21
151.60997598691469
 31
0.0
  0
POLYLINE
  5
17D18
  8
4
 66
     1
 10
0.0
 20
0.0
 30
0.0
  0
VERTEX
  5
17D19
  8
4
 10
217.69571049211191
 20
149.03808800859301
 30
0.0
 42
-0.0744127175610667
  0
VERTEX
  5
17D1A
  8
4
 10
217.17121533492261
 20
149.73205400256271
 30
0.0
 42
-0.1536795722212451
  0
VERTEX
  5
17D1B
  8
4
 10
216.90748255915651
 20
151.07672102289669
 30
0.0
 42
-0.1847247553159499
  0
VERTEX
  5
17D1C
  8
4
 10
217.44098879482991
 20
152.10997598691469
 30
0.0
 42
0.1729818233278114
  0
VERTEX
  5
17D1D
  8
4
 10
218.0332577789562
 20
153.19569556909559
 30
0.0
 42
0.1305645647028073
  0
VERTEX
  5
17D1E
  8
4
 10
217.8778436231957
 20
154.7015020003067
 30
0.0
 42
0.0267269543158863
  0
VERTEX
  5
17D1F
  8
4
 10
217.72916674459421
 20
155.03808800859301
 30
0.0
  0
SEQEND
  5
17D20
  8
4
  0
POLYLINE
  5
17D21
  8
4
 66
     1
 10
0.0
 20
0.0
 30
0.0
  0
VERTEX
  5
17D22
  8
4
 10
215.69571049214531
 20
149.03808800859301
 30
0.0
 42
-0.0744127175610667
  0
VERTEX
  5
17D23
  8
4
 10
215.171215334956
 20
149.73205400256271
 30
0.0
 42
-0.1536795722212451
  0
VERTEX
  5
17D24
  8
4
 10
214.9074825591899
 20
151.07672102289669
 30
0.0
 42
-0.1847247553159499
  0
VERTEX
  5
17D25
  8
4
 10
215.4409887948633
 20
152.10997598691469
 30
0.0
 42
0.1729818233278114
  0
VERTEX
  5
17D26
  8
4
 10
216.03325777898971
 20
153.19569556909559
 30
0.0
 42
0.1305645647028073
  0
VERTEX
  5
17D27
  8
4
 10
215.87784362322921
 20
154.7015020003067
 30
0.0
 42
0.0267269543158863
  0
VERTEX
  5
17D28
  8
4
 10
215.72916674462761
 20
155.03808800859301
 30
0.0
  0
SEQEND
  5
17D29
  8
4
  0
ARC
  5
17D2A
  8
0
 10
208.44099013415499
 20
152.10997598691469
 30
0.0
 40
2.2500000000000062
 50
12.839588406901321
 51
167.16041159309859
  0
ARC
  5
17D2B
  8
0
 10
202.44099013415499
 20
152.10997598691469
 30
0.0
 40
2.2500000000000062
 50
12.839588406901321
 51
167.16041159309859
  0
ARC
  5
17D2C
  8
0
 10
226.4409901341551
 20
152.10997598691469
 30
0.0
 40
2.249999999999984
 50
12.839588406907859
 51
167.16041159309211
  0
ARC
  5
17D2D
  8
0
 10
232.4409901341551
 20
152.10997598691469
 30
0.0
 40
2.249999999999984
 50
12.839588406907859
 51
167.16041159309211
  0
LINE
  5
17D2E
  8
2
 10
253.4409901341551
 20
154.60997598691469
 30
0.0
 11
248.4409901341551
 21
154.60997598691469
 31
0.0
  0
LINE
  5
17D2F
  8
2
 10
253.4409901341551
 20
149.60997598691469
 30
0.0
 11
248.4409901341551
 21
149.60997598691469
 31
0.0
  0
LINE
  5
17D30
  8
2
 10
246.9409901341551
 20
156.10997598691469
 30
0.0
 11
248.4409901341551
 21
154.60997598691469
 31
0.0
  0
LINE
  5
17D31
  8
2
 10
253.4409901341551
 20
154.60997598691469
 30
0.0
 11
254.9409901341551
 21
156.10997598691469
 31
0.0
  0
LINE
  5
17D32
  8
2
 10
254.9409901341551
 20
148.10997598691469
 30
0.0
 11
253.4409901341551
 21
149.60997598691469
 31
0.0
  0
LINE
  5
17D33
  8
2
 10
248.4409901341551
 20
149.60997598691469
 30
0.0
 11
246.9409901341551
 21
148.10997598691469
 31
0.0
  0
LINE
  5
17D34
  8
2
 10
253.4409901341551
 20
152.7599759869147
 30
0.0
 11
253.4409901341551
 21
154.60997598691469
 31
0.0
  0
LINE
  5
17D35
  8
2
 10
248.4409901341551
 20
154.60997598691469
 30
0.0
 11
248.4409901341551
 21
153.35171991714051
 31
0.0
  0
LINE
  5
17D36
  8
2
 10
253.4409901341551
 20
149.60997598691469
 30
0.0
 11
253.4409901341551
 21
151.45997598691471
 31
0.0
  0
LINE
  5
17D37
  8
2
 10
248.4409901341551
 20
150.8682320566889
 30
0.0
 11
248.4409901341551
 21
149.60997598691469
 31
0.0
  0
LINE
  5
17D38
  8
1
 10
179.9409901341549
 20
157.60997598691469
 30
0.0
 11
179.9409901341549
 21
146.60997598691469
 31
0.0
  0
LINE
  5
17D39
  8
1
 10
190.44099013415499
 20
156.9223265776368
 30
0.0
 11
190.44099013415499
 21
147.29762539619259
 31
0.0
  0
LINE
  5
17D3A
  8
1
 10
240.4409901341551
 20
155.85997598691469
 30
0.0
 11
240.4409901341551
 21
148.35997598691469
 31
0.0
  0
LINE
  5
17D3B
  8
1
 10
250.9409901341551
 20
157.60997598691469
 30
0.0
 11
250.9409901341551
 21
146.60997598691469
 31
0.0
  0
LINE
  5
17D3C
  8
1
 10
128.90799013415489
 20
152.10997598691469
 30
0.0
 11
258.94099013415507
 21
152.10997598691469
 31
0.0
  0
LINE
  5
17D3D
  8
1
 10
147.90799013415489
 20
171.10997598691469
 30
0.0
 11
147.90799013415489
 21
133.10997598691469
 31
0.0
  0
LINE
  5
17D41
  8
1
 10
147.907990134155
 20
89.166666666668888
 30
0.0
 11
147.907990134155
 21
40.166666666668888
 31
0.0
  0
LINE
  5
17D42
  8
0
 10
174.94099013415499
 20
70.400000000002251
 30
0.0
 11
174.94099013415499
 21
67.850000000002296
 31
0.0
  0
LINE
  5
17D43
  8
0
 10
174.94099013415499
 20
66.150000000002251
 30
0.0
 11
174.94099013415499
 21
63.600000000002296
 31
0.0
  0
LINE
  5
17D44
  8
0
 10
236.9409901341551
 20
66.500003952161023
 30
0.0
 11
236.9409901341551
 21
64.98155091096271
 31
0.0
  0
LINE
  5
17D45
  8
0
 10
236.9409901341551
 20
69.018449088956913
 30
0.0
 11
236.9409901341551
 21
67.499956262854525
 31
0.0
  0
ARC
  5
17D46
  8
0
 10
190.44099013415499
 20
67.000000000002274
 30
0.0
 40
2.2500000000000431
 50
65.375681647841901
 51
294.64854223596677
  0
ARC
  5
17D47
  8
0
 10
208.4409901341551
 20
67.000000000002274
 30
0.0
 40
2.2499999999999969
 50
192.83958840690431
 51
347.16041159309719
  0
ARC
  5
17D48
  8
0
 10
232.4409901341551
 20
66.999999999959869
 30
0.0
 40
2.249999999999984
 50
192.83958840690789
 51
347.1604115930956
  0
ARC
  5
17D49
  8
0
 10
226.4409901341551
 20
66.999999999959869
 30
0.0
 40
2.249999999999984
 50
192.83958840690789
 51
347.1604115930956
  0
ARC
  5
17D4A
  8
0
 10
202.4409901341551
 20
67.000000000002274
 30
0.0
 40
2.25000000000004
 50
192.83958840690281
 51
347.16041159309719
  0
ARC
  5
17D4B
  8
0
 10
214.4409901341551
 20
67.000000000002274
 30
0.0
 40
2.250000000000012
 50
192.83958840690599
 51
286.16814915248051
  0
ARC
  5
17D4C
  8
0
 10
220.4409901341551
 20
66.999999999959869
 30
0.0
 40
2.249999999999984
 50
192.83958840690431
 51
347.1604115930956
  0
ARC
  5
17D4D
  8
0
 10
196.44099013415499
 20
67.000000000002274
 30
0.0
 40
2.2500000000000342
 50
192.83958840690281
 51
347.16041159309719
  0
LINE
  5
17D4E
  8
0
 10
228.63473123100309
 20
66.499999999959869
 30
0.0
 11
230.247249037307
 21
66.499999999959869
 31
0.0
  0
LINE
  5
17D4F
  8
0
 10
230.247249037307
 20
67.499999999959869
 30
0.0
 11
228.63473123100309
 21
67.499999999959869
 31
0.0
  0
LINE
  5
17D50
  8
0
 10
193.909617100752
 20
66.500000000002274
 30
0.0
 11
194.247249037307
 21
66.500000000002274
 31
0.0
  0
LINE
  5
17D51
  8
0
 10
194.247249037307
 20
67.500000000002274
 30
0.0
 11
193.9096171007518
 21
67.500000000002274
 31
0.0
  0
LINE
  5
17D52
  8
0
 10
217.06240575530569
 20
66.499999999959869
 30
0.0
 11
218.247249037307
 21
66.499999999959869
 31
0.0
  0
LINE
  5
17D53
  8
0
 10
218.247249037307
 20
67.499999999959869
 30
0.0
 11
217.8355639163465
 21
67.499999999959869
 31
0.0
  0
LINE
  5
17D54
  8
0
 10
222.63473123100309
 20
66.499999999959869
 30
0.0
 11
224.247249037307
 21
66.499999999959869
 31
0.0
  0
LINE
  5
17D55
  8
0
 10
224.247249037307
 20
67.499999999959869
 30
0.0
 11
222.63473123100309
 21
67.499999999959869
 31
0.0
  0
LINE
  5
17D56
  8
0
 10
204.63473123100309
 20
66.500000000002274
 30
0.0
 11
206.247249037307
 21
66.500000000002274
 31
0.0
  0
LINE
  5
17D57
  8
0
 10
206.247249037307
 20
67.500000000002274
 30
0.0
 11
204.63473123100309
 21
67.500000000002274
 31
0.0
  0
LINE
  5
17D58
  8
0
 10
198.63473123100309
 20
66.500000000002274
 30
0.0
 11
200.247249037307
 21
66.500000000002274
 31
0.0
  0
LINE
  5
17D59
  8
0
 10
200.247249037307
 20
67.500000000002274
 30
0.0
 11
198.63473123100309
 21
67.500000000002274
 31
0.0
  0
LINE
  5
17D5A
  8
0
 10
234.63473123100309
 20
66.499999999959869
 30
0.0
 11
236.9409901341551
 21
66.499999999959869
 31
0.0
  0
LINE
  5
17D5B
  8
0
 10
236.9409901341551
 20
67.499999999959869
 30
0.0
 11
234.63473123100309
 21
67.499999999959869
 31
0.0
  0
LINE
  5
17D5C
  8
0
 10
210.63473123100309
 20
66.500000000002274
 30
0.0
 11
212.247249037307
 21
66.500000000002274
 31
0.0
  0
LINE
  5
17D5D
  8
0
 10
212.247249037307
 20
67.500000000002274
 30
0.0
 11
210.63473123100309
 21
67.500000000002274
 31
0.0
  0
POLYLINE
  5
17D5E
  8
0
 66
     1
 10
0.0
 20
0.0
 30
0.0
 70
   128
  0
VERTEX
  5
1CB37
  8
0
 10
174.94099013415499
 20
70.400000000002251
 30
0.0
  0
VERTEX
  5
1CB38
  8
0
 10
174.9410079913543
 20
70.404629074218747
 30
0.0
  0
VERTEX
  5
1CB39
  8
0
 10
175.1650617457025
 20
70.867630031924364
 30
0.0
  0
VERTEX
  5
1CB3A
  8
0
 10
175.54099013415501
 20
71.000000000002274
 30
0.0
  0
SEQEND
  5
1CB3B
  8
0
  0
LINE
  5
17D5F
  8
0
 10
180.44099013415499
 20
67.650000000002251
 30
0.0
 11
175.1409901311749
 21
67.650000000002251
 31
0.0
  0
POLYLINE
  5
17D60
  8
0
 66
     1
 10
0.0
 20
0.0
 30
0.0
 70
   128
  0
VERTEX
  5
1CB3C
  8
0
 10
175.1409901311749
 20
67.650000000002251
 30
0.0
  0
VERTEX
  5
1CB3D
  8
0
 10
175.04437478698199
 20
67.674884396200696
 30
0.0
  0
VERTEX
  5
1CB3E
  8
0
 10
174.9410093649953
 20
67.847226560440845
 30
0.0
  0
VERTEX
  5
1CB3F
  8
0
 10
174.94099013415499
 20
67.850000000002296
 30
0.0
  0
SEQEND
  5
1CB40
  8
0
  0
LINE
  5
17D61
  8
0
 10
175.54099013415501
 20
71.000000000002274
 30
0.0
 11
189.9409901341551
 21
71.000000000002274
 31
0.0
  0
POLYLINE
  5
17D62
  8
0
 66
     1
 10
0.0
 20
0.0
 30
0.0
 70
   128
  0
VERTEX
  5
1CB41
  8
0
 10
174.94099013415499
 20
66.150000000002251
 30
0.0
  0
VERTEX
  5
1CB42
  8
0
 10
174.9410093649953
 20
66.152773439563703
 30
0.0
  0
VERTEX
  5
1CB43
  8
0
 10
175.04437478911419
 20
66.325115604980155
 30
0.0
  0
VERTEX
  5
1CB44
  8
0
 10
175.140990134155
 20
66.350000000002296
 30
0.0
  0
SEQEND
  5
1CB45
  8
0
  0
POLYLINE
  5
17D63
  8
0
 66
     1
 10
0.0
 20
0.0
 30
0.0
 70
   128
  0
VERTEX
  5
1CB46
  8
0
 10
175.54099013415501
 20
63.00000000000216
 30
0.0
  0
VERTEX
  5
1CB47
  8
0
 10
175.1650617457025
 20
63.13236996808007
 30
0.0
  0
VERTEX
  5
1CB48
  8
0
 10
174.9410079913543
 20
63.595370925785801
 30
0.0
  0
VERTEX
  5
1CB49
  8
0
 10
174.94099013415499
 20
63.600000000002296
 30
0.0
  0
SEQEND
  5
1CB4A
  8
0
  0
LINE
  5
17D64
  8
0
 10
175.140990134155
 20
66.350000000002296
 30
0.0
 11
180.740990134155
 21
66.350000000002296
 31
0.0
  0
LINE
  5
17D65
  8
0
 10
189.9409901341551
 20
63.00000000000216
 30
0.0
 11
175.54099013415501
 21
63.00000000000216
 31
0.0
  0
LINE
  5
17D66
  8
0
 10
180.9409901341551
 20
65.850000000002296
 30
0.0
 11
180.9409901341551
 21
66.150000000002251
 31
0.0
  0
ARC
  5
17D67
  8
0
 10
180.740990134155
 20
66.150000000002251
 30
0.0
 40
0.1999999999999886
 50
0.0
 51
90.0
  0
ARC
  5
17D68
  8
0
 10
180.44099013415499
 20
68.150000000002251
 30
0.0
 40
0.5
 50
270.0
 51
0.0
  0
ARC
  5
17D69
  8
0
 10
187.15490294000321
 20
63.466203437297622
 30
0.0
 40
1.999999999999994
 50
51.74733416214859
 51
86.500000000000298
  0
ARC
  5
17D6A
  8
0
 10
189.9409901341551
 20
67.000000000002274
 30
0.0
 40
2.499999999999996
 50
231.74733416215261
 51
128.2526658378514
  0
ARC
  5
17D6B
  8
0
 10
187.15490294000321
 20
70.533796562706925
 30
0.0
 40
2.0000000000000169
 50
273.49999999999972
 51
308.2526658378514
  0
ARC
  5
17D6C
  8
0
 10
189.9409901341551
 20
67.000000000002274
 30
0.0
 40
4.0
 50
0.0
 51
90.0
  0
ARC
  5
17D6D
  8
0
 10
189.9409901341551
 20
67.000000000002274
 30
0.0
 40
4.0000000000000284
 50
270.0
 51
0.0
  0
LINE
  5
17D6E
  8
0
 10
180.9409901341551
 20
65.850000000002296
 30
0.0
 11
187.277000019073
 21
65.462473034141325
 31
0.0
  0
LINE
  5
17D6F
  8
0
 10
187.277000019073
 20
68.537526965863208
 30
0.0
 11
180.9409901341551
 21
68.150000000002251
 31
0.0
  0
POLYLINE
  5
17D70
  8
0
 66
     1
 10
0.0
 20
0.0
 30
0.0
 70
   128
  0
VERTEX
  5
1CB4B
  8
0
 10
236.9409901341551
 20
64.98155091096271
 30
0.0
  0
VERTEX
  5
1CB4C
  8
0
 10
236.94100752552461
 20
64.976982613096311
 30
0.0
  0
VERTEX
  5
1CB4D
  8
0
 10
237.06977827789109
 20
64.610122066476933
 30
0.0
  0
VERTEX
  5
1CB4E
  8
0
 10
237.41112636579209
 20
64.395773306690785
 30
0.0
  0
SEQEND
  5
1CB4F
  8
0
  0
POLYLINE
  5
17D71
  8
0
 66
     1
 10
0.0
 20
0.0
 30
0.0
 70
   128
  0
VERTEX
  5
1CB50
  8
0
 10
237.41112636579209
 20
69.604226693228838
 30
0.0
  0
VERTEX
  5
1CB51
  8
0
 10
237.06977827789109
 20
69.38987793344279
 30
0.0
  0
VERTEX
  5
1CB52
  8
0
 10
236.94100752552461
 20
69.023017386825131
 30
0.0
  0
VERTEX
  5
1CB53
  8
0
 10
236.9409901341551
 20
69.018449088956913
 30
0.0
  0
SEQEND
  5
1CB54
  8
0
  0
ARC
  5
17D72
  8
0
 10
232.9415221036557
 20
66.998020936195417
 30
0.0
 40
4.0308415497430179
 50
0.0281310997347574
 51
7.1532512242516813
  0
ARC
  5
17D73
  8
0
 10
232.94193974566059
 20
67.001912917328127
 30
0.0
 40
4.0304238758512341
 50
352.8463812965631
 51
359.9728063103932
  0
ARC
  5
17D74
  8
0
 10
249.0939038867761
 20
63.999999999960437
 30
0.0
 40
7.9999999999994031
 50
90.0
 51
102.4999999999977
  0
LINE
  5
17D75
  8
0
 10
237.41112636579189
 20
69.604226693228838
 30
0.0
 11
247.36238697527159
 21
71.810368056919273
 31
0.0
  0
CIRCLE
  5
17D76
  8
0
 10
250.9409901341551
 20
66.999999999959869
 30
0.0
 40
4.0
  0
LINE
  5
17D77
  8
0
 10
247.36238697527159
 20
62.189631943000343
 30
0.0
 11
237.41112636579209
 21
64.395773306690785
 31
0.0
  0
LINE
  5
17D78
  8
0
 10
249.0939038867761
 20
61.999999999959748
 30
0.0
 11
250.9409901341551
 21
61.999999999959748
 31
0.0
  0
ARC
  5
17D79
  8
0
 10
249.0939038867761
 20
69.999999999957936
 30
0.0
 40
7.9999999999981242
 50
257.49999999999892
 51
270.0
  0
LINE
  5
17D7A
  8
0
 10
249.0939038867761
 20
71.999999999959869
 30
0.0
 11
250.9409901341551
 21
71.999999999959869
 31
0.0
  0
ARC
  5
17D7B
  8
0
 10
250.9409901341551
 20
66.999999999959869
 30
0.0
 40
5.0000000000000284
 50
270.0
 51
0.0000000004852763
  0
ARC
  5
17D7C
  8
0
 10
250.9409901341551
 20
66.999999999959869
 30
0.0
 40
5.0
 50
0.0000000004852763
 51
90.0
  0
CIRCLE
  5
17D7D
  8
0
 10
250.9409901341551
 20
66.999999999959869
 30
0.0
 40
2.5
  0
LINE
  5
17D7E
  8
0
 10
210.63473123100309
 20
66.500000000002274
 30
0.0
 11
210.63473123100309
 21
67.500000000002274
 31
0.0
  0
LINE
  5
17D7F
  8
0
 10
206.247249037307
 20
67.500000000002274
 30
0.0
 11
206.247249037307
 21
66.500000000002274
 31
0.0
  0
LINE
  5
17D80
  8
0
 10
234.63473123100309
 20
66.499999999959869
 30
0.0
 11
234.63473123100309
 21
67.499999999959869
 31
0.0
  0
LINE
  5
17D81
  8
0
 10
230.247249037307
 20
67.499999999959869
 30
0.0
 11
230.247249037307
 21
66.499999999959869
 31
0.0
  0
LINE
  5
17D82
  8
0
 10
228.63473123100309
 20
66.499999999959869
 30
0.0
 11
228.63473123100309
 21
67.499999999959869
 31
0.0
  0
LINE
  5
17D83
  8
0
 10
224.247249037307
 20
67.499999999959869
 30
0.0
 11
224.247249037307
 21
66.499999999959869
 31
0.0
  0
LINE
  5
17D84
  8
0
 10
204.63473123100309
 20
66.500000000002274
 30
0.0
 11
204.63473123100309
 21
67.500000000002274
 31
0.0
  0
LINE
  5
17D85
  8
0
 10
200.247249037307
 20
67.500000000002274
 30
0.0
 11
200.247249037307
 21
66.500000000002274
 31
0.0
  0
LINE
  5
17D86
  8
0
 10
212.247249037307
 20
67.500000000002274
 30
0.0
 11
212.247249037307
 21
66.500000000002274
 31
0.0
  0
LINE
  5
17D87
  8
0
 10
222.63473123100309
 20
66.499999999959869
 30
0.0
 11
222.63473123100309
 21
67.499999999959869
 31
0.0
  0
LINE
  5
17D88
  8
0
 10
218.247249037307
 20
67.499999999959869
 30
0.0
 11
218.247249037307
 21
66.499999999959869
 31
0.0
  0
LINE
  5
17D89
  8
0
 10
198.63473123100309
 20
66.500000000002274
 30
0.0
 11
198.63473123100309
 21
67.500000000002274
 31
0.0
  0
LINE
  5
17D8A
  8
0
 10
194.247249037307
 20
67.500000000002274
 30
0.0
 11
194.247249037307
 21
66.500000000002274
 31
0.0
  0
POLYLINE
  5
17D8B
  8
4
 66
     1
 10
0.0
 20
0.0
 30
0.0
  0
VERTEX
  5
17D8C
  8
4
 10
217.69571049211191
 20
63.928112021595773
 30
0.0
 42
-0.0744127175610667
  0
VERTEX
  5
17D8D
  8
4
 10
217.17121533492261
 20
64.622078015565421
 30
0.0
 42
-0.1536795722212451
  0
VERTEX
  5
17D8E
  8
4
 10
216.90748255915651
 20
65.966745035899521
 30
0.0
 42
-0.1847247553159499
  0
VERTEX
  5
17D8F
  8
4
 10
217.44098879482999
 20
66.999999999917463
 30
0.0
 42
0.1729818233278114
  0
VERTEX
  5
17D90
  8
4
 10
218.03325777895631
 20
68.085719582098363
 30
0.0
 42
0.1305645647028073
  0
VERTEX
  5
17D91
  8
4
 10
217.8778436231957
 20
69.591526013309476
 30
0.0
 42
0.0267269543158863
  0
VERTEX
  5
17D92
  8
4
 10
217.72916674459429
 20
69.92811202159578
 30
0.0
  0
SEQEND
  5
17D93
  8
4
  0
POLYLINE
  5
17D94
  8
4
 66
     1
 10
0.0
 20
0.0
 30
0.0
  0
VERTEX
  5
17D95
  8
4
 10
215.69571049214531
 20
63.928112021595773
 30
0.0
 42
-0.0744127175610667
  0
VERTEX
  5
17D96
  8
4
 10
215.171215334956
 20
64.622078015565421
 30
0.0
 42
-0.1536795722212451
  0
VERTEX
  5
17D97
  8
4
 10
214.9074825591899
 20
65.966745035899521
 30
0.0
 42
-0.1847247553159499
  0
VERTEX
  5
17D98
  8
4
 10
215.44098879486339
 20
66.999999999917463
 30
0.0
 42
0.1729818233278114
  0
VERTEX
  5
17D99
  8
4
 10
216.03325777898979
 20
68.085719582098363
 30
0.0
 42
0.1305645647028073
  0
VERTEX
  5
17D9A
  8
4
 10
215.87784362322921
 20
69.591526013309476
 30
0.0
 42
0.0267269543158863
  0
VERTEX
  5
17D9B
  8
4
 10
215.72916674462769
 20
69.92811202159578
 30
0.0
  0
SEQEND
  5
17D9C
  8
4
  0
ARC
  5
17D9D
  8
0
 10
202.4409901341551
 20
67.000000000002274
 30
0.0
 40
2.25000000000004
 50
12.839588406901321
 51
167.16041159309859
  0
ARC
  5
17D9E
  8
0
 10
196.44099013415499
 20
67.000000000002274
 30
0.0
 40
2.2500000000000342
 50
12.839588406901321
 51
167.16041159309859
  0
ARC
  5
17D9F
  8
0
 10
208.4409901341551
 20
67.000000000002274
 30
0.0
 40
2.25000000000004
 50
12.839588406901321
 51
167.16041159309859
  0
ARC
  5
17DA0
  8
0
 10
214.4409901341551
 20
67.000000000002274
 30
0.0
 40
2.25000000000004
 50
43.635208626997432
 51
167.16041159309859
  0
ARC
  5
17DA1
  8
0
 10
232.4409901341551
 20
66.999999999959869
 30
0.0
 40
2.249999999999984
 50
12.839588406907859
 51
167.16041159309211
  0
ARC
  5
17DA2
  8
0
 10
226.4409901341551
 20
66.999999999959869
 30
0.0
 40
2.249999999999984
 50
12.839588406907859
 51
167.16041159309211
  0
ARC
  5
17DA3
  8
0
 10
220.4409901341551
 20
66.999999999959869
 30
0.0
 40
2.249999999999984
 50
12.839588406907859
 51
167.16041159309859
  0
LINE
  5
17DA4
  8
2
 10
177.44099013415359
 20
64.500000000001023
 30
0.0
 11
182.44099013415499
 21
64.500000000003411
 31
0.0
  0
LINE
  5
17DA5
  8
2
 10
177.44099013415601
 20
69.500000000001023
 30
0.0
 11
182.44099013415391
 21
69.500000000003411
 31
0.0
  0
LINE
  5
17DA6
  8
2
 10
182.44099013415499
 20
64.500000000002274
 30
0.0
 11
182.44099013415499
 21
65.758256069776508
 31
0.0
  0
LINE
  5
17DA7
  8
2
 10
177.44099013415499
 20
69.500000000002046
 30
0.0
 11
177.44099013415499
 21
67.650000000002251
 31
0.0
  0
LINE
  5
17DA8
  8
2
 10
182.44099013415499
 20
68.241743930227926
 30
0.0
 11
182.44099013415499
 21
69.500000000002274
 31
0.0
  0
LINE
  5
17DA9
  8
1
 10
179.94099013415499
 20
72.500000000002274
 30
0.0
 11
179.94099013415499
 21
61.50000000000216
 31
0.0
  0
LINE
  5
17DAA
  8
2
 10
183.94099013415499
 20
63.00000000000216
 30
0.0
 11
182.44099013415499
 21
64.500000000002274
 31
0.0
  0
LINE
  5
17DAB
  8
2
 10
182.44099013415499
 20
69.500000000002274
 30
0.0
 11
183.94099013415499
 21
71.000000000002274
 31
0.0
  0
LINE
  5
17DAC
  8
2
 10
175.94099013415479
 20
63.00000000000216
 30
0.0
 11
177.44099013415479
 21
64.500000000002274
 31
0.0
  0
LINE
  5
17DAD
  8
2
 10
177.44099013415479
 20
69.500000000002274
 30
0.0
 11
175.94099013415479
 21
71.000000000002274
 31
0.0
  0
LINE
  5
17DAE
  8
1
 10
250.9409901341551
 20
72.499999999959869
 30
0.0
 11
250.9409901341551
 21
61.499999999959762
 31
0.0
  0
LINE
  5
17DAF
  8
2
 10
177.44099013415499
 20
66.350000000002296
 30
0.0
 11
177.44099013415499
 21
64.500000000002387
 31
0.0
  0
LINE
  5
17DB0
  8
1
 10
190.44099013415499
 20
70.750000000002274
 30
0.0
 11
190.44099013415499
 21
63.25000000000216
 31
0.0
  0
LINE
  5
17DB1
  8
1
 10
240.4409901341551
 20
71.812350590681831
 30
0.0
 11
240.4409901341551
 21
62.187649409237679
 31
0.0
  0
ARC
  5
17DB2
  8
0
 10
171.94099013415499
 20
67.000000000002274
 30
0.0
 40
7.0
 50
354.67200209599798
 51
5.3279979040018874
  0
LINE
  5
17DB3
  8
1
 10
258.94099013415507
 20
66.999999999959869
 30
0.0
 11
139.40799013415489
 21
66.999999999959869
 31
0.0
  0
LINE
  5
17DB4
  8
1
 10
171.94099013415499
 20
75.500000000002274
 30
0.0
 11
171.94099013415499
 21
58.500000000002267
 31
0.0
  0
LINE
  5
180A4
  8
0
 10
161.16861377099369
 20
77.758569936050094
 30
0.0
 11
161.16861377099369
 21
76.004993046746733
 31
0.0
  0
LINE
  5
183F0
  8
3
 10
63.57818081390991
 20
43.166666666666622
 30
0.0
 11
63.57818081390991
 21
61.566666666666599
 31
0.0
  0
LINE
  5
183F1
  8
3
 10
62.964680813909752
 20
63.166666666666622
 30
0.0
 11
63.57818081390991
 21
61.566666666666599
 31
0.0
  0
LINE
  5
183F2
  8
0
 10
62.964680813909752
 20
61.566666666666599
 30
0.0
 11
68.964680813909752
 21
61.566666666666599
 31
0.0
  0
LINE
  5
183F3
  8
3
 10
68.351180813909821
 20
43.166666666666622
 30
0.0
 11
68.351180813909821
 21
61.566666666666599
 31
0.0
  0
LINE
  5
183F4
  8
3
 10
68.964680813909752
 20
63.166666666666622
 30
0.0
 11
68.351180813909821
 21
61.566666666666599
 31
0.0
  0
LINE
  5
18EFF
  8
0
 10
62.964680813909752
 20
63.166666666666622
 30
0.0
 11
62.964680813909752
 21
43.780166666666673
 31
0.0
  0
LINE
  5
18F00
  8
0
 10
68.964680813909808
 20
43.780166666666673
 30
0.0
 11
68.964680813909808
 21
63.166666666666622
 31
0.0
  0
LINE
  5
18F01
  8
0
 10
62.964680813909808
 20
43.780166666666673
 30
0.0
 11
63.578180813909803
 21
43.166666666666622
 31
0.0
  0
LINE
  5
18F02
  8
0
 10
68.351180813909821
 20
43.166666666666622
 30
0.0
 11
68.964680813909808
 21
43.780166666666673
 31
0.0
  0
LINE
  5
18F17
  8
0
 10
62.964680813909752
 20
43.780166666666673
 30
0.0
 11
68.964680813909808
 21
43.780166666666673
 31
0.0
  0
LINE
  5
18F18
  8
0
 10
63.578180813909803
 20
43.166666666666622
 30
0.0
 11
68.351180813909821
 21
43.166666666666622
 31
0.0
  0
LINE
  5
193D2
  8
0
 10
144.907990134155
 20
43.78016666666894
 30
0.0
 11
145.52149013415499
 21
43.166666666668903
 31
0.0
  0
LINE
  5
193D3
  8
0
 10
150.2944901341551
 20
43.166666666668903
 30
0.0
 11
150.907990134155
 21
43.78016666666894
 31
0.0
  0
LINE
  5
193D4
  8
0
 10
144.907990134155
 20
63.166666666668903
 30
0.0
 11
144.907990134155
 21
43.78016666666894
 31
0.0
  0
LINE
  5
193D5
  8
0
 10
150.907990134155
 20
43.78016666666894
 30
0.0
 11
150.907990134155
 21
63.166666666668903
 31
0.0
  0
LINE
  5
1949B
  8
0
 10
145.52149013415499
 20
43.166666666668903
 30
0.0
 11
150.2944901341551
 21
43.166666666668903
 31
0.0
  0
LINE
  5
1949C
  8
0
 10
144.907990134155
 20
43.78016666666894
 30
0.0
 11
150.907990134155
 21
43.78016666666894
 31
0.0
  0
LINE
  5
19543
  8
3
 10
145.5214901341551
 20
43.166666666668903
 30
0.0
 11
145.5214901341551
 21
61.56666666666888
 31
0.0
  0
LINE
  5
19544
  8
3
 10
144.907990134155
 20
63.166666666668903
 30
0.0
 11
145.5214901341551
 21
61.56666666666888
 31
0.0
  0
LINE
  5
19545
  8
0
 10
144.907990134155
 20
61.56666666666888
 30
0.0
 11
150.907990134155
 21
61.56666666666888
 31
0.0
  0
LINE
  5
19546
  8
3
 10
150.2944901341551
 20
43.166666666668903
 30
0.0
 11
150.2944901341551
 21
61.56666666666888
 31
0.0
  0
LINE
  5
19547
  8
3
 10
150.907990134155
 20
63.166666666668903
 30
0.0
 11
150.2944901341551
 21
61.56666666666888
 31
0.0
  0
ENDSEC
  0
EOF
