  0
SECTION
  2
HEADER
  9
$ACADVER
  1
AC1009
  9
$INSBASE
 10
0.0
 20
0.0
 30
0.0
  9
$EXTMIN
 10
0.0
 20
-2.960436562073669
 30
0.0
  9
$EXTMAX
 10
107.8069869736419
 20
97.520561486649299
 30
0.0
  9
$LIMMIN
 10
0.0
 20
0.0
  9
$LIMMAX
 10
187.5
 20
135.0
  9
$ORTHOMODE
 70
     1
  9
$REGENMODE
 70
     1
  9
$FILLMODE
 70
     1
  9
$QTEXTMODE
 70
     0
  9
$MIRRTEXT
 70
     0
  9
$DRAGMODE
 70
     2
  9
$LTSCALE
 40
5.0
  9
$OSMODE
 70
    37
  9
$ATTMODE
 70
     1
  9
$TEXTSIZE
 40
0.2
  9
$TRACEWID
 40
0.05
  9
$TEXTSTYLE
  7
STANDARD
  9
$CLAYER
  8
0
  9
$CELTYPE
  6
BYLAYER
  9
$CECOLOR
 62
   256
  9
$DIMSCALE
 40
0.5
  9
$DIMASZ
 40
3.0
  9
$DIMEXO
 40
2.0
  9
$DIMDLI
 40
0.38
  9
$DIMRND
 40
0.0
  9
$DIMDLE
 40
0.0
  9
$DIMEXE
 40
2.0
  9
$DIMTP
 40
0.0
  9
$DIMTM
 40
0.0
  9
$DIMTXT
 40
3.2000000000000002
  9
$DIMCEN
 40
0.0
  9
$DIMTSZ
 40
0.0
  9
$DIMTOL
 70
     0
  9
$DIMLIM
 70
     0
  9
$DIMTIH
 70
     0
  9
$DIMTOH
 70
     0
  9
$DIMSE1
 70
     0
  9
$DIMSE2
 70
     0
  9
$DIMTAD
 70
     1
  9
$DIMZIN
 70
     8
  9
$DIMBLK
  1

  9
$DIMASO
 70
     1
  9
$DIMSHO
 70
     0
  9
$DIMPOST
  1

  9
$DIMAPOST
  1

  9
$DIMALT
 70
     0
  9
$DIMALTD
 70
     2
  9
$DIMALTF
 40
25.399999999999999
  9
$DIMLFAC
 40
1.0
  9
$DIMTOFL
 70
     1
  9
$DIMTVP
 40
1.6000000000000001
  9
$DIMTIX
 70
     1
  9
$DIMSOXD
 70
     0
  9
$DIMSAH
 70
     0
  9
$DIMBLK1
  1

  9
$DIMBLK2
  1

  9
$DIMSTYLE
  2
STANDARD
  9
$DIMCLRD
 70
     0
  9
$DIMCLRE
 70
     0
  9
$DIMCLRT
 70
     0
  9
$DIMTFAC
 40
1.0
  9
$DIMGAP
 40
1.0
  9
$LUNITS
 70
     2
  9
$LUPREC
 70
     1
  9
$SKETCHINC
 40
0.1
  9
$FILLETRAD
 40
1.5
  9
$AUNITS
 70
     0
  9
$AUPREC
 70
     1
  9
$MENU
  1
E:\r13\win\SUPPORT\ACAD
  9
$ELEVATION
 40
0.0
  9
$PELEVATION
 40
0.0
  9
$THICKNESS
 40
0.0
  9
$LIMCHECK
 70
     0
  9
$BLIPMODE
 70
     0
  9
$CHAMFERA
 40
1.0
  9
$CHAMFERB
 40
1.0
  9
$SKPOLY
 70
     0
  9
$TDCREATE
 40
2449839.7895949078
  9
$TDUPDATE
 40
2457534.4792864011
  9
$TDINDWG
 40
0.2786148958
  9
$TDUSRTIMER
 40
0.2786148958
  9
$USRTIMER
 70
     1
  9
$ANGBASE
 50
0.0
  9
$ANGDIR
 70
     0
  9
$PDMODE
 70
     0
  9
$PDSIZE
 40
0.0
  9
$PLINEWID
 40
0.0
  9
$COORDS
 70
     1
  9
$SPLFRAME
 70
     0
  9
$SPLINETYPE
 70
     6
  9
$SPLINESEGS
 70
     8
  9
$ATTDIA
 70
     0
  9
$ATTREQ
 70
     1
  9
$HANDLING
 70
     1
  9
$HANDSEED
  5
D25B
  9
$SURFTAB1
 70
     6
  9
$SURFTAB2
 70
     6
  9
$SURFTYPE
 70
     6
  9
$SURFU
 70
     6
  9
$SURFV
 70
     6
  9
$UCSNAME
  2

  9
$UCSORG
 10
0.0
 20
0.0
 30
0.0
  9
$UCSXDIR
 10
1.0
 20
0.0
 30
0.0
  9
$UCSYDIR
 10
0.0
 20
1.0
 30
0.0
  9
$PUCSNAME
  2

  9
$PUCSORG
 10
0.0
 20
0.0
 30
0.0
  9
$PUCSXDIR
 10
1.0
 20
0.0
 30
0.0
  9
$PUCSYDIR
 10
0.0
 20
1.0
 30
0.0
  9
$USERI1
 70
     0
  9
$USERI2
 70
     1
  9
$USERI3
 70
     1
  9
$USERI4
 70
     0
  9
$USERI5
 70
     0
  9
$USERR1
 40
0.0
  9
$USERR2
 40
0.0
  9
$USERR3
 40
0.0
  9
$USERR4
 40
0.0
  9
$USERR5
 40
0.0
  9
$WORLDVIEW
 70
     1
  9
$SHADEDGE
 70
     3
  9
$SHADEDIF
 70
    70
  9
$TILEMODE
 70
     1
  9
$MAXACTVP
 70
    16
  9
$PLIMCHECK
 70
     0
  9
$PEXTMIN
 10
1.0000000000000000E+020
 20
1.0000000000000000E+020
 30
1.0000000000000000E+020
  9
$PEXTMAX
 10
-1.0000000000000000E+020
 20
-1.0000000000000000E+020
 30
-1.0000000000000000E+020
  9
$PLIMMIN
 10
0.0
 20
0.0
  9
$PLIMMAX
 10
12.0
 20
9.0
  9
$UNITMODE
 70
     0
  9
$VISRETAIN
 70
     0
  9
$PLINEGEN
 70
     0
  9
$PSLTSCALE
 70
     0
  0
ENDSEC
  0
SECTION
  2
TABLES
  0
TABLE
  2
VPORT
 70
     1
  0
VPORT
  2
*ACTIVE
 70
     0
 10
0.0
 20
0.0
 11
1.0
 21
1.0
 12
172.54273504273499
 22
95.0
 13
0.0
 23
0.0
 14
5.0
 24
5.0
 15
5.0
 25
5.0
 16
0.0
 26
0.0
 36
1.0
 17
0.0
 27
0.0
 37
0.0
 40
190.0
 41
1.816239316239316
 42
50.0
 43
0.0
 44
0.0
 50
0.0
 51
0.0
 71
     0
 72
   500
 73
     1
 74
     0
 75
     0
 76
     0
 77
     0
 78
     2
  0
ENDTAB
  0
TABLE
  2
LTYPE
 70
     4
  0
LTYPE
  2
CONTINUOUS
 70
     0
  3
Solid Line
 72
    65
 73
     0
 40
0.0
  0
LTYPE
  2
CENTER
 70
     0
  3
____ _ ____ _ ____ _ ____ _ ____ _ ____ _ ____
 72
    65
 73
     4
 40
2.0
 49
1.25
 49
-0.25
 49
0.25
 49
-0.25
  0
LTYPE
  2
HIDDEN
 70
     0
  3
_ _ _ _ _ _ _ _ _ _ _ _ _ _ _ _ _ _ _ _ _ _ _
 72
    65
 73
     2
 40
0.375
 49
0.25
 49
-0.125
  0
LTYPE
  2
PHANTOM2
 70
     0
  3
___ _ _ ___ _ _ ___ _ _ ___ _ _
 72
    65
 73
     6
 40
1.25
 49
0.625
 49
-0.125
 49
0.125
 49
-0.125
 49
0.125
 49
-0.125
  0
ENDTAB
  0
TABLE
  2
LAYER
 70
     5
  0
LAYER
  2
0
 70
     0
 62
     7
  6
CONTINUOUS
  0
LAYER
  2
1
 70
     0
 62
     1
  6
CENTER
  0
LAYER
  2
2
 70
     0
 62
     2
  6
HIDDEN
  0
LAYER
  2
DEFPOINTS
 70
     0
 62
     7
  6
CONTINUOUS
  0
LAYER
  2
3
 70
     0
 62
     3
  6
CONTINUOUS
  0
ENDTAB
  0
TABLE
  2
STYLE
 70
     2
  0
STYLE
  2
STANDARD
 70
     0
 40
0.0
 41
1.0
 50
0.0
 71
     0
 42
0.2
  3
TXT
  4
BIGFONT
  0
STYLE
  2
STANDARD1
 70
     0
 40
0.0
 41
1.0
 50
0.0
 71
     0
 42
3.0
  3
txt
  4

  0
ENDTAB
  0
TABLE
  2
VIEW
 70
     2
  0
VIEW
  2
ALL
 70
     0
 40
135.0
 10
110.4957983193277
 20
67.5
 41
0.0
 11
0.0
 21
0.0
 31
1.0
 12
0.0
 22
0.0
 32
0.0
 42
0.0
 43
0.0
 44
0.0
 50
0.0
 71
     0
  0
VIEW
  2
OLE1
 70
     0
 40
167.61635794673921
 10
902.4035316351866
 20
-84.898870369570844
 41
190.6608896488849
 11
0.0
 21
0.0
 31
1.0
 12
0.0
 22
0.0
 32
0.0
 42
50.0
 43
0.0
 44
0.0
 50
0.0
 71
     0
  0
ENDTAB
  0
TABLE
  2
UCS
 70
     0
  0
ENDTAB
  0
TABLE
  2
APPID
 70
    43
  0
APPID
  2
ACAD
 70
     0
  0
APPID
  2
GENIUS_GENODEF_13
 70
     0
  0
APPID
  2
GENIUS_GENFIL_13
 70
     0
  0
APPID
  2
GENIUS_GENOBJ-N-CHA_13
 70
     0
  0
APPID
  2
ACAD_MLEADERVER
 70
     0
  0
APPID
  2
ACAD_EXEMPT_FROM_CAD_STANDARDS
 70
     0
  0
APPID
  2
ACAD_DSTYLE_DIMRADIAL_EXTENSION
 70
     0
  0
APPID
  2
ACAD_DSTYLE_DIMJAG
 70
     0
  0
APPID
  2
ACAD_DSTYLE_DIMTALN
 70
     0
  0
APPID
  2
ACAD_NAV_VCDISPLAY
 70
     0
  0
APPID
  2
GENIUS_GENOREF_13
 70
     0
  0
APPID
  2
DCO15
 70
     0
  0
APPID
  2
GENIUS_GENOENT_13
 70
     0
  0
APPID
  2
GENIUS_GENBH_13
 70
     0
  0
APPID
  2
GENIUS_GENOBJ_13
 70
     0
  0
APPID
  2
GENIUS_GENOLIS_13
 70
     0
  0
APPID
  2
GENIUS_GENOBJ-NBEHI-BHF_13
 70
     0
  0
APPID
  2
GENIUS_GENOBJ-NBEHI-BHB_13
 70
     0
  0
APPID
  2
GENIUS_GENOBJ-F-PART_13
 70
     0
  0
APPID
  2
GENIUS_GEFSTDP_13
 70
     0
  0
APPID
  2
GENIUS_GENOBJ-N-RSSYM_13
 70
     0
  0
APPID
  2
GENIUS_GENSYMENT_13
 70
     0
  0
APPID
  2
GENIUS_GENOBJ-N-TIT_13
 70
     0
  0
APPID
  2
GENIUS_GENTITLE_13
 70
     0
  0
APPID
  2
GENIUS_GENZVEED_13
 70
     0
  0
APPID
  2
GENIUS_GENOBJ-N-LEADER_13
 70
     0
  0
APPID
  2
GENIUS_GENOBJ-N-FIL_13
 70
     0
  0
APPID
  2
GENIUS_GENOBJ-N-SEC_13
 70
     0
  0
APPID
  2
GENIUS_GENOBJ-N-CRS_13
 70
     0
  0
APPID
  2
GENIUS_GENOBJ-N-ZOO_13
 70
     0
  0
APPID
  2
GENIUS_GENZOO_13
 70
     0
  0
APPID
  2
GENIUS_GENOBJ-F-TOL_13
 70
     0
  0
APPID
  2
_CALL_MAC$
 70
     0
  0
APPID
  2
ASM_BASE
 70
     0
  0
APPID
  2
ASM_EXPLO_VER_2_00
 70
     0
  0
APPID
  2
ASM_CADM_VER_12_00
 70
     0
  0
APPID
  2
ASM_BASEFORO
 70
     0
  0
APPID
  2
ASM_BASETRAVI
 70
     0
  0
APPID
  2
ASM_BASETRAVI1
 70
     0
  0
APPID
  2
ASM_GRUPPI
 70
     0
  0
APPID
  2
ASM_CADM_ALBERO
 70
     0
  0
APPID
  2
ASM_GOLE
 70
     0
  0
APPID
  2
ACCMTRANSPARENCY
 70
     0
  0
ENDTAB
  0
TABLE
  2
DIMSTYLE
 70
     1
  0
DIMSTYLE
  2
STANDARD
 70
     0
  3

  4

  5

  6

  7

 40
1.0
 41
0.18
 42
0.0625
 43
0.38
 44
0.18
 45
0.0
 46
0.0
 47
0.0
 48
0.0
140
0.18
141
0.09
142
0.0
143
25.399999999999999
144
1.0
145
0.0
146
1.0
147
0.09
 71
     0
 72
     0
 73
     1
 74
     1
 75
     0
 76
     0
 77
     0
 78
     0
170
     0
171
     2
172
     0
173
     0
174
     0
175
     0
176
     0
177
     0
178
     0
  0
ENDTAB
  0
ENDSEC
  0
SECTION
  2
BLOCKS
  0
BLOCK
  8
0
  2
$MODEL_SPACE
 70
     0
 10
0.0
 20
0.0
 30
0.0
  3
$MODEL_SPACE
  1

  0
ENDBLK
  5
3C9
  8
0
  0
BLOCK
 67
     1
  8
0
  2
$PAPER_SPACE
 70
     0
 10
0.0
 20
0.0
 30
0.0
  3
$PAPER_SPACE
  1

  0
ENDBLK
  5
3C7
 67
     1
  8
0
  0
ENDSEC
  0
SECTION
  2
ENTITIES
  0
TEXT
  5
BE37
  8
0
 62
     3
 10
0.0
 20
0.0
 30
0.0
 40
10.0
  1
TRIK25-M5X10
  7
STANDARD1
  0
LINE
  5
C210
  8
1
 10
107.8069869736419
 20
85.11672222736162
 30
0.0
 11
71.806986973641813
 21
85.11672222736162
 31
0.0
  0
POLYLINE
  5
C211
  8
0
 66
     1
 10
0.0
 20
0.0
 30
0.0
  0
VERTEX
  5
D0A4
  8
0
 10
81.073658210485874
 20
72.95909284197792
 30
0.0
  0
VERTEX
  5
D0A5
  8
0
 10
81.398035890347117
 20
72.826212567813585
 30
0.0
  0
VERTEX
  5
D0A6
  8
0
 10
81.572674900118557
 20
72.779256215963031
 30
0.0
  0
VERTEX
  5
D0A7
  8
0
 10
81.757067628136269
 20
72.745479173540232
 30
0.0
  0
VERTEX
  5
D0A8
  8
0
 10
81.879947170570276
 20
72.730708977738644
 30
0.0
  0
VERTEX
  5
D0A9
  8
0
 10
82.012071343864534
 20
72.72053317427698
 30
0.0
  0
VERTEX
  5
D0AA
  8
0
 10
82.108294697370525
 20
72.716126448418962
 30
0.0
  0
VERTEX
  5
D0AB
  8
0
 10
82.211998826049353
 20
72.713582009333564
 30
0.0
  0
VERTEX
  5
D0AC
  8
0
 10
82.386633502602649
 20
72.713369850170878
 30
0.0
  0
VERTEX
  5
D0AD
  8
0
 10
82.491009044456518
 20
72.715639723994073
 30
0.0
  0
VERTEX
  5
D0AE
  8
0
 10
82.592636869436589
 20
72.720009568433355
 30
0.0
  0
VERTEX
  5
D0AF
  8
0
 10
82.719422478608124
 20
72.729320838929553
 30
0.0
  0
VERTEX
  5
D0B0
  8
0
 10
82.838436911360546
 20
72.742893118895111
 30
0.0
  0
VERTEX
  5
D0B1
  8
0
 10
83.066290418024224
 20
72.785043375120566
 30
0.0
  0
VERTEX
  5
D0B2
  8
0
 10
83.292154046799126
 20
72.851762449754304
 30
0.0
  0
VERTEX
  5
D0B3
  8
0
 10
83.506728612195673
 20
72.942263610114836
 30
0.0
  0
VERTEX
  5
D0B4
  8
0
 10
83.717610117644654
 20
73.061270006245891
 30
0.0
  0
VERTEX
  5
D0B5
  8
0
 10
83.917863159334274
 20
73.207263443269326
 30
0.0
  0
VERTEX
  5
D0B6
  8
0
 10
84.054194431276642
 20
73.328964116069031
 30
0.0
  0
VERTEX
  5
D0B7
  8
0
 10
84.134758128861904
 20
73.411069129032981
 30
0.0
  0
SEQEND
  5
D0B8
  8
0
  0
POLYLINE
  5
C215
  8
0
 66
     1
 10
0.0
 20
0.0
 30
0.0
  0
VERTEX
  5
D0B9
  8
0
 10
84.134758128861904
 20
73.411069129032981
 30
0.0
  0
VERTEX
  5
D0BA
  8
0
 10
84.183653719239246
 20
73.465149042723013
 30
0.0
  0
VERTEX
  5
D0BB
  8
0
 10
84.308198658503841
 20
73.619971705653782
 30
0.0
  0
VERTEX
  5
D0BC
  8
0
 10
84.423153232862944
 20
73.790163648572459
 30
0.0
  0
SEQEND
  5
D0BD
  8
0
  0
LINE
  5
C216
  8
0
 10
84.806986973641884
 20
75.22547634331535
 30
0.0
 11
84.806986973641884
 21
95.007968111407848
 31
0.0
  0
POLYLINE
  5
C217
  8
0
 66
     1
 10
0.0
 20
0.0
 30
0.0
  0
VERTEX
  5
D0BE
  8
0
 10
84.423153232862944
 20
96.443280806149744
 30
0.0
  0
VERTEX
  5
D0BF
  8
0
 10
84.299826428839836
 20
96.624740666045724
 30
0.0
  0
VERTEX
  5
D0C0
  8
0
 10
84.165637820714949
 20
96.78861978276943
 30
0.0
  0
VERTEX
  5
D0C1
  8
0
 10
84.13433912550596
 20
96.822824243060197
 30
0.0
  0
SEQEND
  5
D0C2
  8
0
  0
POLYLINE
  5
C21B
  8
0
 66
     1
 10
0.0
 20
0.0
 30
0.0
  0
VERTEX
  5
D0C3
  8
0
 10
84.13433912550596
 20
96.822824243060197
 30
0.0
  0
VERTEX
  5
D0C4
  8
0
 10
84.017501551624164
 20
96.939243047665187
 30
0.0
  0
VERTEX
  5
D0C5
  8
0
 10
83.860857310242224
 20
97.071409198458554
 30
0.0
  0
VERTEX
  5
D0C6
  8
0
 10
83.666664710765019
 20
97.203938152453574
 30
0.0
  0
VERTEX
  5
D0C7
  8
0
 10
83.462933320230661
 20
97.311995426445279
 30
0.0
  0
VERTEX
  5
D0C8
  8
0
 10
83.243604670470688
 20
97.398349352747957
 30
0.0
  0
VERTEX
  5
D0C9
  8
0
 10
83.011989310961837
 20
97.460571538816495
 30
0.0
  0
VERTEX
  5
D0CA
  8
0
 10
82.871336011716664
 20
97.485849565899329
 30
0.0
  0
VERTEX
  5
D0CB
  8
0
 10
82.721575590605539
 20
97.503928737149877
 30
0.0
  0
VERTEX
  5
D0CC
  8
0
 10
82.603845706451239
 20
97.512798588974519
 30
0.0
  0
VERTEX
  5
D0CD
  8
0
 10
82.475212918721752
 20
97.518279418315686
 30
0.0
  0
VERTEX
  5
D0CE
  8
0
 10
82.388528250404136
 20
97.520050519438698
 30
0.0
  0
VERTEX
  5
D0CF
  8
0
 10
82.297120222998387
 20
97.520561486649299
 30
0.0
  0
VERTEX
  5
D0D0
  8
0
 10
82.208311400442014
 20
97.51980556355393
 30
0.0
  0
VERTEX
  5
D0D1
  8
0
 10
82.119797752533813
 20
97.517703448146605
 30
0.0
  0
VERTEX
  5
D0D2
  8
0
 10
81.981533137736392
 20
97.511021094853731
 30
0.0
  0
VERTEX
  5
D0D3
  8
0
 10
81.850517923881398
 20
97.499703065959906
 30
0.0
  0
VERTEX
  5
D0D4
  8
0
 10
81.641785661618414
 20
97.468626845381493
 30
0.0
  0
VERTEX
  5
D0D5
  8
0
 10
81.447010343817908
 20
97.421985124160486
 30
0.0
  0
VERTEX
  5
D0D6
  8
0
 10
81.256445059119685
 20
97.35708872829359
 30
0.0
  0
VERTEX
  5
D0D7
  8
0
 10
81.073658210485874
 20
97.274351612745292
 30
0.0
  0
SEQEND
  5
D0D8
  8
0
  0
LINE
  5
C21C
  8
0
 10
94.806986973641798
 20
80.86672222736162
 30
0.0
 11
94.806986973641798
 21
89.366722227361592
 31
0.0
  0
LINE
  5
C21D
  8
0
 10
94.806986973641798
 20
89.366722227361592
 30
0.0
 11
94.506986973641858
 21
89.366722227361592
 31
0.0
  0
LINE
  5
C21E
  8
0
 10
94.506986973641858
 20
80.86672222736162
 30
0.0
 11
94.806986973641798
 21
80.86672222736162
 31
0.0
  0
LINE
  5
C21F
  8
0
 10
94.506986973641858
 20
79.516722227361655
 30
0.0
 11
94.506986973641858
 21
90.716722227361586
 31
0.0
  0
LINE
  5
C220
  8
0
 10
94.506986973641858
 20
90.716722227361586
 30
0.0
 11
94.106986973641824
 21
91.116722227361578
 31
0.0
  0
LINE
  5
C221
  8
0
 10
94.106986973641824
 20
79.11672222736162
 30
0.0
 11
94.506986973641858
 21
79.516722227361655
 31
0.0
  0
LINE
  5
C222
  8
0
 10
94.106986973641824
 20
79.11672222736162
 30
0.0
 11
94.106986973641824
 21
91.116722227361578
 31
0.0
  0
LINE
  5
C223
  8
0
 10
94.106986973641824
 20
91.116722227361578
 30
0.0
 11
86.006986973641844
 21
91.116722227361578
 31
0.0
  0
LINE
  5
C224
  8
0
 10
86.006986973641844
 20
79.11672222736162
 30
0.0
 11
94.106986973641824
 21
79.11672222736162
 31
0.0
  0
ARC
  5
C226
  8
0
 10
86.006986973641844
 20
92.316722227361581
 30
0.0
 40
1.199999999999994
 50
180.0000008537736
 51
270.0
  0
ARC
  5
C227
  8
0
 10
86.006986973641844
 20
77.916722227361632
 30
0.0
 40
1.199999999999992
 50
90.0
 51
180.0000008537736
  0
ARC
  5
C228
  8
0
 10
99.806986973641827
 20
85.11672222736162
 30
0.0
 40
25.0
 50
162.15866003340781
 51
197.8413399665921
  0
ARC
  5
C22A
  8
0
 10
78.389043966396116
 20
92.010321964682106
 30
0.0
 40
2.4999999999997531
 50
137.25955416184269
 51
162.15866340035399
  0
ARC
  5
C22B
  8
0
 10
78.389043966396173
 20
78.223122490041149
 30
0.0
 40
2.4999999999997722
 50
197.84133659964581
 51
222.7404458381572
  0
POLYLINE
  5
C22D
  8
0
 66
     1
 10
0.0
 20
0.0
 30
0.0
  0
VERTEX
  5
D0D9
  8
0
 10
84.806986973641884
 20
75.22547634331535
 30
0.0
  0
VERTEX
  5
D0DA
  8
0
 10
84.798212859757257
 20
74.984584783174185
 30
0.0
  0
VERTEX
  5
D0DB
  8
0
 10
84.769585615474227
 20
74.737932200959733
 30
0.0
  0
VERTEX
  5
D0DC
  8
0
 10
84.721721363303416
 20
74.503332452527118
 30
0.0
  0
VERTEX
  5
D0DD
  8
0
 10
84.650980556164598
 20
74.267828981421204
 30
0.0
  0
VERTEX
  5
D0DE
  8
0
 10
84.551466657893457
 20
74.026460083217003
 30
0.0
  0
VERTEX
  5
D0DF
  8
0
 10
84.423153232861637
 20
73.790163648571095
 30
0.0
  0
SEQEND
  5
D0E0
  8
0
  0
POLYLINE
  5
C22F
  8
0
 66
     1
 10
0.0
 20
0.0
 30
0.0
  0
VERTEX
  5
D0E1
  8
0
 10
84.423153232868458
 20
96.44328080615206
 30
0.0
  0
VERTEX
  5
D0E2
  8
0
 10
84.55083993849928
 20
96.208305946460214
 30
0.0
  0
VERTEX
  5
D0E3
  8
0
 10
84.650033149828275
 20
95.968295083266852
 30
0.0
  0
VERTEX
  5
D0E4
  8
0
 10
84.724753849479271
 20
95.717852067228662
 30
0.0
  0
VERTEX
  5
D0E5
  8
0
 10
84.773754053245057
 20
95.468541725452084
 30
0.0
  0
VERTEX
  5
D0E6
  8
0
 10
84.799101324777723
 20
95.236566258542766
 30
0.0
  0
VERTEX
  5
D0E7
  8
0
 10
84.806986973641884
 20
95.007968111407848
 30
0.0
  0
SEQEND
  5
D0E8
  8
0
  0
POLYLINE
  5
C234
  8
0
 66
     1
 10
0.0
 20
0.0
 30
0.0
  0
VERTEX
  5
D0E9
  8
0
 10
79.723411782987114
 20
91.057953769786238
 30
0.0
  0
VERTEX
  5
D0EA
  8
0
 10
79.194049663856561
 20
91.104316882376068
 30
0.0
  0
VERTEX
  5
D0EB
  8
0
 10
78.696469538334156
 20
91.173909472072054
 30
0.0
  0
VERTEX
  5
D0EC
  8
0
 10
78.377832922865082
 20
91.236792889254261
 30
0.0
  0
VERTEX
  5
D0ED
  8
0
 10
78.078261515879774
 20
91.313763251273357
 30
0.0
  0
VERTEX
  5
D0EE
  8
0
 10
77.800584935354493
 20
91.406053574354402
 30
0.0
  0
VERTEX
  5
D0EF
  8
0
 10
77.541487954176091
 20
91.517895654938684
 30
0.0
  0
VERTEX
  5
D0F0
  8
0
 10
77.310911414232237
 20
91.648614574590368
 30
0.0
  0
VERTEX
  5
D0F1
  8
0
 10
77.107842908243754
 20
91.803438728709423
 30
0.0
  0
VERTEX
  5
D0F2
  8
0
 10
76.942075546765693
 20
91.980155874620067
 30
0.0
  0
VERTEX
  5
D0F3
  8
0
 10
76.819708090179631
 20
92.174723813562409
 30
0.0
  0
VERTEX
  5
D0F4
  8
0
 10
76.739564138365381
 20
92.390169919869706
 30
0.0
  0
VERTEX
  5
D0F5
  8
0
 10
76.703687179248732
 20
92.635381679391131
 30
0.0
  0
VERTEX
  5
D0F6
  8
0
 10
76.716944431261254
 20
92.899730491086999
 30
0.0
  0
VERTEX
  5
D0F7
  8
0
 10
76.764754853613397
 20
93.129684274905557
 30
0.0
  0
VERTEX
  5
D0F8
  8
0
 10
76.844631896582882
 20
93.368764571457703
 30
0.0
  0
VERTEX
  5
D0F9
  8
0
 10
76.958578121957885
 20
93.621832418029285
 30
0.0
  0
VERTEX
  5
D0FA
  8
0
 10
77.102592790336985
 20
93.880384377744676
 30
0.0
  0
VERTEX
  5
D0FB
  8
0
 10
77.326208712592575
 20
94.214951129043968
 30
0.0
  0
VERTEX
  5
D0FC
  8
0
 10
77.589855150480275
 20
94.551728252581128
 30
0.0
  0
VERTEX
  5
D0FD
  8
0
 10
77.897667191209734
 20
94.897052149827104
 30
0.0
  0
VERTEX
  5
D0FE
  8
0
 10
78.238058201821786
 20
95.238826953446164
 30
0.0
  0
VERTEX
  5
D0FF
  8
0
 10
78.577071593189828
 20
95.548745884028349
 30
0.0
  0
VERTEX
  5
D100
  8
0
 10
78.937483049052048
 20
95.852363110840386
 30
0.0
  0
VERTEX
  5
D101
  8
0
 10
79.321773376483861
 20
96.152162765203386
 30
0.0
  0
VERTEX
  5
D102
  8
0
 10
79.723411782970004
 20
96.44328080615206
 30
0.0
  0
SEQEND
  5
D103
  8
0
  0
POLYLINE
  5
C235
  8
0
 66
     1
 10
0.0
 20
0.0
 30
0.0
  0
VERTEX
  5
D104
  8
0
 10
81.073658210485874
 20
97.274351612745292
 30
0.0
  0
VERTEX
  5
D105
  8
0
 10
80.864307905207227
 20
97.162810816516583
 30
0.0
  0
VERTEX
  5
D106
  8
0
 10
80.643942729161893
 20
97.037342741608512
 30
0.0
  0
VERTEX
  5
D107
  8
0
 10
80.412687727295463
 20
96.898050884823462
 30
0.0
  0
VERTEX
  5
D108
  8
0
 10
80.289698825140988
 20
96.821081365112093
 30
0.0
  0
SEQEND
  5
D109
  8
0
  0
POLYLINE
  5
C236
  8
0
 66
     1
 10
0.0
 20
0.0
 30
0.0
  0
VERTEX
  5
D10A
  8
0
 10
79.723411782987114
 20
73.790163648571152
 30
0.0
  0
VERTEX
  5
D10B
  8
0
 10
80.069454232009491
 20
73.554870181731772
 30
0.0
  0
VERTEX
  5
D10C
  8
0
 10
80.286918554066062
 20
73.41412517026636
 30
0.0
  0
SEQEND
  5
D10D
  8
0
  0
POLYLINE
  5
C237
  8
0
 66
     1
 10
0.0
 20
0.0
 30
0.0
  0
VERTEX
  5
D10E
  8
0
 10
79.723411782987057
 20
73.790163648571152
 30
0.0
  0
VERTEX
  5
D10F
  8
0
 10
79.194056836246489
 20
74.178447950090757
 30
0.0
  0
VERTEX
  5
D110
  8
0
 10
78.696482925002385
 20
74.581425563047972
 30
0.0
  0
VERTEX
  5
D111
  8
0
 10
78.377850125655868
 20
74.863613501552734
 30
0.0
  0
VERTEX
  5
D112
  8
0
 10
78.078281855475211
 20
75.150674209037462
 30
0.0
  0
VERTEX
  5
D113
  8
0
 10
77.800607585703517
 20
75.440914423737141
 30
0.0
  0
VERTEX
  5
D114
  8
0
 10
77.541507429852516
 20
75.740107703458833
 30
0.0
  0
VERTEX
  5
D115
  8
0
 10
77.310927672780835
 20
76.039571748002189
 30
0.0
  0
VERTEX
  5
D116
  8
0
 10
77.107855863982422
 20
76.344475767120244
 30
0.0
  0
VERTEX
  5
D117
  8
0
 10
76.942085211898473
 20
76.644669583851794
 30
0.0
  0
VERTEX
  5
D118
  8
0
 10
76.819714590220485
 20
76.930895552148357
 30
0.0
  0
VERTEX
  5
D119
  8
0
 10
76.739567627068823
 20
77.206609412927506
 30
0.0
  0
VERTEX
  5
D11A
  8
0
 10
76.703687792008111
 20
77.478846755512635
 30
0.0
  0
VERTEX
  5
D11B
  8
0
 10
76.716942539725153
 20
77.733212900097854
 30
0.0
  0
VERTEX
  5
D11C
  8
0
 10
76.764751082807038
 20
77.927165969123408
 30
0.0
  0
VERTEX
  5
D11D
  8
0
 10
76.844626422981605
 20
78.106246395784481
 30
0.0
  0
VERTEX
  5
D11E
  8
0
 10
76.958571134377735
 20
78.274025422447565
 30
0.0
  0
VERTEX
  5
D11F
  8
0
 10
77.102584517568914
 20
78.425337241025616
 30
0.0
  0
VERTEX
  5
D120
  8
0
 10
77.326197770841532
 20
78.59466853457117
 30
0.0
  0
VERTEX
  5
D121
  8
0
 10
77.589841457678972
 20
78.7387987292487
 30
0.0
  0
VERTEX
  5
D122
  8
0
 10
77.897650630522037
 20
78.862380402157399
 30
0.0
  0
VERTEX
  5
D123
  8
0
 10
78.238038751960119
 20
78.963219270748382
 30
0.0
  0
VERTEX
  5
D124
  8
0
 10
78.577055884022954
 20
79.037933557734291
 30
0.0
  0
VERTEX
  5
D125
  8
0
 10
78.937471819958262
 20
79.096985263823356
 30
0.0
  0
VERTEX
  5
D126
  8
0
 10
79.32176748670804
 20
79.142560436475904
 30
0.0
  0
VERTEX
  5
D127
  8
0
 10
79.723411782987171
 20
79.175490684936975
 30
0.0
  0
SEQEND
  5
D128
  8
0
  0
ARC
  5
C239
  8
0
 10
90.323600055326594
 20
89.251619517891797
 30
0.0
 40
18.749965407136429
 50
222.740438960944
 51
237.63637407638939
  0
ARC
  5
C23A
  8
0
 10
90.323616730673265
 20
80.981807388399915
 30
0.0
 40
18.74998956384545
 50
122.3535817706998
 51
137.259556238426
  0
POLYLINE
  5
C23B
  8
0
 66
     1
 10
0.0
 20
0.0
 30
0.0
  0
VERTEX
  5
D129
  8
0
 10
80.289698825140988
 20
96.821081365112093
 30
0.0
  0
VERTEX
  5
D12A
  8
0
 10
80.175054241428867
 20
96.747631804761895
 30
0.0
  0
VERTEX
  5
D12B
  8
0
 10
79.950773475609253
 20
96.599404582885128
 30
0.0
  0
VERTEX
  5
D12C
  8
0
 10
79.723411782977166
 20
96.443280806145125
 30
0.0
  0
SEQEND
  5
D12D
  8
0
  0
POLYLINE
  5
C23C
  8
0
 66
     1
 10
0.0
 20
0.0
 30
0.0
  0
VERTEX
  5
D12E
  8
0
 10
80.286918554066062
 20
73.41412517026636
 30
0.0
  0
VERTEX
  5
D12F
  8
0
 10
80.410939737424712
 20
73.336473898914463
 30
0.0
  0
VERTEX
  5
D130
  8
0
 10
80.749779008369785
 20
73.13489743431883
 30
0.0
  0
VERTEX
  5
D131
  8
0
 10
80.914413277637436
 20
73.043205602178048
 30
0.0
  0
VERTEX
  5
D132
  8
0
 10
81.073658210485874
 20
72.95909284197792
 30
0.0
  0
SEQEND
  5
D133
  8
0
  0
POLYLINE
  5
C23E
  8
0
 66
     1
 10
0.0
 20
0.0
 30
0.0
  0
VERTEX
  5
D134
  8
0
 10
84.423153232867605
 20
79.175490684936975
 30
0.0
  0
VERTEX
  5
D135
  8
0
 10
84.550317683025355
 20
79.149903108799791
 30
0.0
  0
VERTEX
  5
D136
  8
0
 10
84.650039118638063
 20
79.116058590869514
 30
0.0
  0
VERTEX
  5
D137
  8
0
 10
84.724562582011956
 20
79.072647756696611
 30
0.0
  0
VERTEX
  5
D138
  8
0
 10
84.77375930427138
 20
79.020038615272441
 30
0.0
  0
VERTEX
  5
D139
  8
0
 10
84.799102545902414
 20
78.962618052434053
 30
0.0
  0
VERTEX
  5
D13A
  8
0
 10
84.806986973641884
 20
78.897348467476775
 30
0.0
  0
SEQEND
  5
D13B
  8
0
  0
POLYLINE
  5
C23F
  8
0
 66
     1
 10
0.0
 20
0.0
 30
0.0
  0
VERTEX
  5
D13C
  8
0
 10
84.806986973641884
 20
91.336095987246424
 30
0.0
  0
VERTEX
  5
D13D
  8
0
 10
84.798209820528484
 20
91.267550069865109
 30
0.0
  0
VERTEX
  5
D13E
  8
0
 10
84.769572256259096
 20
91.207253172843025
 30
0.0
  0
VERTEX
  5
D13F
  8
0
 10
84.721909972822104
 20
91.158752019115965
 30
0.0
  0
VERTEX
  5
D140
  8
0
 10
84.650965071918208
 20
91.117796258188704
 30
0.0
  0
VERTEX
  5
D141
  8
0
 10
84.552073058542646
 20
91.084001997373193
 30
0.0
  0
VERTEX
  5
D142
  8
0
 10
84.423153232861566
 20
91.057953769786238
 30
0.0
  0
SEQEND
  5
D143
  8
0
  0
LINE
  5
C251
  8
1
 10
107.8069869736419
 20
40.2134759297522
 30
0.0
 11
71.806986973641813
 21
40.2134759297522
 31
0.0
  0
LINE
  5
C252
  8
0
 10
94.806986973641884
 20
35.963475929752207
 30
0.0
 11
94.506986973641858
 21
35.963475929752207
 31
0.0
  0
LINE
  5
C253
  8
0
 10
94.506986973641858
 20
44.463475929752207
 30
0.0
 11
94.806986973641884
 21
44.463475929752207
 31
0.0
  0
LINE
  5
C254
  8
0
 10
94.806986973641884
 20
44.463475929752207
 30
0.0
 11
94.806986973641884
 21
35.963475929752207
 31
0.0
  0
LINE
  5
C255
  8
0
 10
94.106986973641867
 20
34.213475929752207
 30
0.0
 11
86.006986973641844
 21
34.213475929752207
 31
0.0
  0
LINE
  5
C256
  8
0
 10
86.006986973641844
 20
46.213475929752207
 30
0.0
 11
94.106986973641867
 21
46.213475929752207
 31
0.0
  0
LINE
  5
C257
  8
0
 10
94.506986973641858
 20
34.613475929752212
 30
0.0
 11
94.106986973641867
 21
34.213475929752207
 31
0.0
  0
LINE
  5
C258
  8
0
 10
94.106986973641867
 20
46.213475929752207
 30
0.0
 11
94.506986973641858
 21
45.813475929752201
 31
0.0
  0
LINE
  5
C259
  8
0
 10
94.106986973641867
 20
46.213475929752207
 30
0.0
 11
94.106986973641867
 21
34.213475929752207
 31
0.0
  0
LINE
  5
C25A
  8
0
 10
94.506986973641858
 20
45.813475929752201
 30
0.0
 11
94.506986973641858
 21
34.613475929752212
 31
0.0
  0
POLYLINE
  5
C25B
  8
0
 66
     1
 10
0.0
 20
0.0
 30
0.0
  0
VERTEX
  5
D144
  8
0
 10
81.073658210485917
 20
51.063623772809649
 30
0.0
  0
VERTEX
  5
D145
  8
0
 10
81.288308275261386
 20
51.257316546272698
 30
0.0
  0
VERTEX
  5
D146
  8
0
 10
81.514882157441775
 20
51.42899861497483
 30
0.0
  0
VERTEX
  5
D147
  8
0
 10
81.757067628136213
 20
51.574451927469617
 30
0.0
  0
VERTEX
  5
D148
  8
0
 10
81.880470076166077
 20
51.633113070205859
 30
0.0
  0
VERTEX
  5
D149
  8
0
 10
82.012071343864406
 20
51.681761962383547
 30
0.0
  0
VERTEX
  5
D14A
  8
0
 10
82.109426902244195
 20
51.70751210106399
 30
0.0
  0
VERTEX
  5
D14B
  8
0
 10
82.211998826049296
 20
51.724161047476457
 30
0.0
  0
VERTEX
  5
D14C
  8
0
 10
82.386633502602578
 20
51.725666292227032
 30
0.0
  0
VERTEX
  5
D14D
  8
0
 10
82.492306498037237
 20
51.710069423100748
 30
0.0
  0
VERTEX
  5
D14E
  8
0
 10
82.592636869436589
 20
51.684609897066203
 30
0.0
  0
VERTEX
  5
D14F
  8
0
 10
82.761971374054554
 20
51.62128137531635
 30
0.0
  0
VERTEX
  5
D150
  8
0
 10
82.918662882885258
 20
51.541557452019127
 30
0.0
  0
VERTEX
  5
D151
  8
0
 10
83.066290418024039
 20
51.450068811879142
 30
0.0
  0
VERTEX
  5
D152
  8
0
 10
83.369541558026015
 20
51.220395990918831
 30
0.0
  0
VERTEX
  5
D153
  8
0
 10
83.653460480871047
 20
50.950582533415741
 30
0.0
  0
VERTEX
  5
D154
  8
0
 10
83.917863159334104
 20
50.646097952958691
 30
0.0
  0
VERTEX
  5
D155
  8
0
 10
84.100237580213786
 20
50.400784925874348
 30
0.0
  0
VERTEX
  5
D156
  8
0
 10
84.269898417475474
 20
50.138365771085553
 30
0.0
  0
VERTEX
  5
D157
  8
0
 10
84.423153232861637
 20
49.862087588328961
 30
0.0
  0
SEQEND
  5
D158
  8
0
  0
ARC
  5
C25C
  8
0
 10
82.306986973641884
 20
50.213475929752207
 30
0.0
 40
2.5000000000000031
 50
0.0
 51
119.55978796498719
  0
ARC
  5
C25D
  8
0
 10
86.006986973641844
 20
33.013475929752218
 30
0.0
 40
1.199999999999994
 50
90.0
 51
179.99999914622629
  0
ARC
  5
C25E
  8
0
 10
86.006986973641844
 20
47.413475929752188
 30
0.0
 40
1.199999999999992
 50
179.99999914622629
 51
270.0
  0
ARC
  5
C260
  8
0
 10
99.806986973641926
 20
40.213475929752171
 30
0.0
 40
25.000000000000071
 50
162.15866003340889
 51
197.84133996659091
  0
LINE
  5
C261
  8
0
 10
83.684197667076646
 20
30.0
 30
0.0
 11
80.918690369821263
 21
30.000000190530809
 31
0.0
  0
POLYLINE
  5
C262
  8
0
 66
     1
 10
0.0
 20
0.0
 30
0.0
  0
VERTEX
  5
D159
  8
0
 10
83.684198013385014
 20
30.000000027137052
 30
0.0
  0
VERTEX
  5
D15A
  8
0
 10
83.917863159334161
 20
30.018310248263109
 30
0.0
  0
VERTEX
  5
D15B
  8
0
 10
84.100237580213786
 20
30.06345970583283
 30
0.0
  0
VERTEX
  5
D15C
  8
0
 10
84.269898417475545
 20
30.138113288292381
 30
0.0
  0
VERTEX
  5
D15D
  8
0
 10
84.423153232862944
 20
30.243912654959129
 30
0.0
  0
SEQEND
  5
D15E
  8
0
  0
ARC
  5
C264
  8
0
 10
78.389043966396173
 20
33.319876192431707
 30
0.0
 40
2.4999999999997531
 50
197.8413365996455
 51
222.7404458381572
  0
ARC
  5
C265
  8
0
 10
78.389043966396173
 20
47.107075667072699
 30
0.0
 40
2.4999999999997722
 50
137.25955416184269
 51
162.15866340035441
  0
POLYLINE
  5
C268
  8
0
 66
     1
 10
0.0
 20
0.0
 30
0.0
  0
VERTEX
  5
D15F
  8
0
 10
84.806986973641884
 20
48.044145762841588
 30
0.0
  0
VERTEX
  5
D160
  8
0
 10
84.798209820528484
 20
48.361925626775673
 30
0.0
  0
VERTEX
  5
D161
  8
0
 10
84.769572256259138
 20
48.681597407830878
 30
0.0
  0
VERTEX
  5
D162
  8
0
 10
84.721705309265985
 20
48.980543992859083
 30
0.0
  0
VERTEX
  5
D163
  8
0
 10
84.650965071918208
 20
49.276027752773189
 30
0.0
  0
VERTEX
  5
D164
  8
0
 10
84.551456404667007
 20
49.574296730264621
 30
0.0
  0
VERTEX
  5
D165
  8
0
 10
84.423153232861637
 20
49.862087588328961
 30
0.0
  0
SEQEND
  5
D166
  8
0
  0
POLYLINE
  5
C269
  8
0
 66
     1
 10
0.0
 20
0.0
 30
0.0
  0
VERTEX
  5
D167
  8
0
 10
79.723411782987114
 20
49.862087588328961
 30
0.0
  0
VERTEX
  5
D168
  8
0
 10
80.070676566998202
 20
50.158460695621642
 30
0.0
  0
VERTEX
  5
D169
  8
0
 10
80.410939737424712
 20
50.455204820434091
 30
0.0
  0
VERTEX
  5
D16A
  8
0
 10
80.639887761024283
 20
50.659513159625817
 30
0.0
  0
VERTEX
  5
D16B
  8
0
 10
80.861889797534957
 20
50.862814545586481
 30
0.0
  0
VERTEX
  5
D16C
  8
0
 10
81.073658210485917
 20
51.063623772809649
 30
0.0
  0
SEQEND
  5
D16D
  8
0
  0
POLYLINE
  5
C26A
  8
0
 66
     1
 10
0.0
 20
0.0
 30
0.0
  0
VERTEX
  5
D16E
  8
0
 10
79.723411782987114
 20
49.862087588328961
 30
0.0
  0
VERTEX
  5
D16F
  8
0
 10
79.293225166345906
 20
49.480328709389909
 30
0.0
  0
VERTEX
  5
D170
  8
0
 10
78.881890012988777
 20
49.077324569136039
 30
0.0
  0
VERTEX
  5
D171
  8
0
 10
78.493365483188938
 20
48.654487169685119
 30
0.0
  0
VERTEX
  5
D172
  8
0
 10
78.131610737219773
 20
48.213228513154888
 30
0.0
  0
VERTEX
  5
D173
  8
0
 10
77.800584935354493
 20
47.754960601663072
 30
0.0
  0
VERTEX
  5
D174
  8
0
 10
77.538942365395599
 20
47.340199386260927
 30
0.0
  0
VERTEX
  5
D175
  8
0
 10
77.305810528411371
 20
46.912650806951312
 30
0.0
  0
VERTEX
  5
D176
  8
0
 10
77.105438547751476
 20
46.475899897330798
 30
0.0
  0
VERTEX
  5
D177
  8
0
 10
76.942075546765693
 20
46.033531690996028
 30
0.0
  0
VERTEX
  5
D178
  8
0
 10
76.818639238043431
 20
45.582854797245659
 30
0.0
  0
VERTEX
  5
D179
  8
0
 10
76.73870585886624
 20
45.130164716214317
 30
0.0
  0
VERTEX
  5
D17A
  8
0
 10
76.704174544762679
 20
44.68219574301127
 30
0.0
  0
VERTEX
  5
D17B
  8
0
 10
76.716944431261254
 20
44.245682172745632
 30
0.0
  0
VERTEX
  5
D17C
  8
0
 10
76.765809624471615
 20
43.884982979726878
 30
0.0
  0
VERTEX
  5
D17D
  8
0
 10
76.847799534227477
 20
43.535383077876958
 30
0.0
  0
VERTEX
  5
D17E
  8
0
 10
76.960773982269174
 20
43.199589790599532
 30
0.0
  0
VERTEX
  5
D17F
  8
0
 10
77.102592790336985
 20
42.880310441298263
 30
0.0
  0
VERTEX
  5
D180
  8
0
 10
77.329266114423888
 20
42.487315852199231
 30
0.0
  0
VERTEX
  5
D181
  8
0
 10
77.597836815130506
 20
42.121664098475179
 30
0.0
  0
VERTEX
  5
D182
  8
0
 10
77.902651856311593
 20
41.78398878493541
 30
0.0
  0
VERTEX
  5
D183
  8
0
 10
78.238058201821786
 20
41.474923516389232
 30
0.0
  0
VERTEX
  5
D184
  8
0
 10
78.697644855950671
 20
41.1243456107104
 30
0.0
  0
VERTEX
  5
D185
  8
0
 10
79.194998423501303
 20
40.811602783387421
 30
0.0
  0
VERTEX
  5
D186
  8
0
 10
79.723411782970061
 20
40.534427545968981
 30
0.0
  0
SEQEND
  5
D187
  8
0
  0
POLYLINE
  5
C26B
  8
0
 66
     1
 10
0.0
 20
0.0
 30
0.0
  0
VERTEX
  5
D188
  8
0
 10
79.723411782987114
 20
30.243912654958709
 30
0.0
  0
VERTEX
  5
D189
  8
0
 10
80.070676566998202
 20
30.131364616525499
 30
0.0
  0
VERTEX
  5
D18A
  8
0
 10
80.410939737424712
 20
30.051216189785269
 30
0.0
  0
VERTEX
  5
D18B
  8
0
 10
80.639887761024283
 20
30.01653065339605
 30
0.0
  0
VERTEX
  5
D18C
  8
0
 10
80.861889797534957
 20
30.00070021479436
 30
0.0
  0
VERTEX
  5
D18D
  8
0
 10
80.918690369821263
 20
30.000000190530809
 30
0.0
  0
SEQEND
  5
D18E
  8
0
  0
POLYLINE
  5
C26C
  8
0
 66
     1
 10
0.0
 20
0.0
 30
0.0
  0
VERTEX
  5
D18F
  8
0
 10
79.723411782987114
 20
30.243912654958709
 30
0.0
  0
VERTEX
  5
D190
  8
0
 10
79.19405325114235
 20
30.441322770228879
 30
0.0
  0
VERTEX
  5
D191
  8
0
 10
78.696476233701944
 20
30.633804838973852
 30
0.0
  0
VERTEX
  5
D192
  8
0
 10
78.377841526872714
 20
30.76042209082345
 30
0.0
  0
VERTEX
  5
D193
  8
0
 10
78.078271688762641
 20
30.881719703142721
 30
0.0
  0
VERTEX
  5
D194
  8
0
 10
77.800596263958425
 20
30.996008176523279
 30
0.0
  0
VERTEX
  5
D195
  8
0
 10
77.541497694960242
 20
31.104175447159982
 30
0.0
  0
VERTEX
  5
D196
  8
0
 10
77.310919545962463
 20
31.20160043730667
 30
0.0
  0
VERTEX
  5
D197
  8
0
 10
77.107849388066029
 20
31.288248974467852
 30
0.0
  0
VERTEX
  5
D198
  8
0
 10
76.942080380783963
 20
31.35953806770712
 30
0.0
  0
VERTEX
  5
D199
  8
0
 10
76.819711341170375
 20
31.412456556992939
 30
0.0
  0
VERTEX
  5
D19A
  8
0
 10
76.739565883229645
 20
31.447251768383691
 30
0.0
  0
VERTEX
  5
D19B
  8
0
 10
76.703687485704165
 20
31.462854462735411
 30
0.0
  0
VERTEX
  5
D19C
  8
0
 10
76.702270322682523
 20
31.46347592975232
 30
0.0
  0
SEQEND
  5
D19D
  8
0
  0
ARC
  5
C26D
  8
0
 10
90.323623934155805
 20
36.078553508906452
 30
0.0
 40
18.750000000000171
 50
119.55978796498719
 51
137.25955416184269
  0
ARC
  5
C26E
  8
0
 10
90.323623934218631
 20
44.34839835065668
 30
0.0
 40
18.750000000086182
 50
222.7404458381572
 51
223.4085449297703
  0
POLYLINE
  5
C271
  8
0
 66
     1
 10
0.0
 20
0.0
 30
0.0
  0
VERTEX
  5
D19E
  8
0
 10
84.423153232868515
 20
40.534427545968981
 30
0.0
  0
VERTEX
  5
D19F
  8
0
 10
84.55083993849928
 20
40.699831214187547
 30
0.0
  0
VERTEX
  5
D1A0
  8
0
 10
84.650033149828275
 20
40.877283906062303
 30
0.0
  0
VERTEX
  5
D1A1
  8
0
 10
84.724753849479313
 20
41.072218277084737
 30
0.0
  0
VERTEX
  5
D1A2
  8
0
 10
84.773754053245057
 20
41.276684718880936
 30
0.0
  0
VERTEX
  5
D1A3
  8
0
 10
84.799101324777723
 20
41.476923315389357
 30
0.0
  0
VERTEX
  5
D1A4
  8
0
 10
84.806986973641884
 20
41.684276684898123
 30
0.0
  0
SEQEND
  5
D1A5
  8
0
  0
LINE
  5
C272
  8
0
 10
84.806986973641884
 20
50.213475929752207
 30
0.0
 11
84.806986973641884
 21
30.912005341516931
 31
0.0
  0
POLYLINE
  5
C273
  8
0
 66
     1
 10
0.0
 20
0.0
 30
0.0
  0
VERTEX
  5
D1A6
  8
0
 10
84.806986973641884
 20
30.912005341516931
 30
0.0
  0
VERTEX
  5
D1A7
  8
0
 10
84.798211339733143
 20
30.81248660301765
 30
0.0
  0
VERTEX
  5
D1A8
  8
0
 10
84.769578934092465
 20
30.704879403517388
 30
0.0
  0
VERTEX
  5
D1A9
  8
0
 10
84.721713333968808
 20
30.597517496830161
 30
0.0
  0
VERTEX
  5
D1AA
  8
0
 10
84.650972811706367
 20
30.485128131840561
 30
0.0
  0
VERTEX
  5
D1AB
  8
0
 10
84.55146152969138
 20
30.365367213365829
 30
0.0
  0
VERTEX
  5
D1AC
  8
0
 10
84.423153232861637
 20
30.243912654958709
 30
0.0
  0
SEQEND
  5
D1AD
  8
0
  0
LINE
  5
C282
  8
1
 10
26.903846755613809
 20
40.2134759297522
 30
0.0
 11
57.903846755613813
 21
40.2134759297522
 31
0.0
  0
LINE
  5
C283
  8
1
 10
42.403846755613813
 20
24.713475929752189
 30
0.0
 11
42.403846755613813
 21
55.713475929752221
 31
0.0
  0
POLYLINE
  5
C284
  8
0
 66
     1
 10
0.0
 20
0.0
 30
0.0
  0
VERTEX
  5
D1AE
  8
0
 10
35.768468807188178
 20
30.005991977732659
 30
0.0
  0
VERTEX
  5
D1AF
  8
0
 10
35.5281543838326
 20
30.034843221849972
 30
0.0
  0
VERTEX
  5
D1B0
  8
0
 10
35.301714439585972
 20
30.08368457274392
 30
0.0
  0
VERTEX
  5
D1B1
  8
0
 10
35.097302157818092
 20
30.14683040546743
 30
0.0
  0
VERTEX
  5
D1B2
  8
0
 10
35.01051315636164
 20
30.17983108005572
 30
0.0
  0
VERTEX
  5
D1B3
  8
0
 10
34.936381724448381
 20
30.21093270221186
 30
0.0
  0
VERTEX
  5
D1B4
  8
0
 10
34.896220845694131
 20
30.228993107330041
 30
0.0
  0
VERTEX
  5
D1B5
  8
0
 10
34.869895519816509
 20
30.241292016450931
 30
0.0
  0
VERTEX
  5
D1B6
  8
0
 10
34.861796832696371
 20
30.245151950255149
 30
0.0
  0
SEQEND
  5
D1B7
  8
0
  0
ARC
  5
C285
  8
0
 10
42.403847095975372
 20
40.213476106055872
 30
0.0
 40
12.500000345958069
 50
187.1112080909802
 51
232.8887914552912
  0
POLYLINE
  5
C286
  8
0
 66
     1
 10
0.0
 20
0.0
 30
0.0
  0
VERTEX
  5
D1B8
  8
0
 10
30.0
 20
38.66603115756331
 30
0.0
  0
VERTEX
  5
D1B9
  8
0
 10
30.000007496326081
 20
38.666128242774533
 30
0.0
  0
VERTEX
  5
D1BA
  8
0
 10
30.0028655348288
 20
38.700112542932352
 30
0.0
  0
VERTEX
  5
D1BB
  8
0
 10
30.009658381017289
 20
38.76495964571842
 30
0.0
  0
VERTEX
  5
D1BC
  8
0
 10
30.020865917015499
 20
38.848594677379282
 30
0.0
  0
VERTEX
  5
D1BD
  8
0
 10
30.066612574470071
 20
39.073946200292603
 30
0.0
  0
VERTEX
  5
D1BE
  8
0
 10
30.141290044410429
 20
39.32039479924947
 30
0.0
  0
VERTEX
  5
D1BF
  8
0
 10
30.246217370230109
 20
39.570812038714308
 30
0.0
  0
SEQEND
  5
D1C0
  8
0
  0
POLYLINE
  5
C287
  8
0
 66
     1
 10
0.0
 20
0.0
 30
0.0
  0
VERTEX
  5
D1C1
  8
0
 10
54.56147614099752
 20
39.570812038714308
 30
0.0
  0
VERTEX
  5
D1C2
  8
0
 10
54.656647442338972
 20
39.348268021133919
 30
0.0
  0
VERTEX
  5
D1C3
  8
0
 10
54.727569563832958
 20
39.12774460153782
 30
0.0
  0
VERTEX
  5
D1C4
  8
0
 10
54.775089809435201
 20
38.919145456319477
 30
0.0
  0
VERTEX
  5
D1C5
  8
0
 10
54.789904887627983
 20
38.827483638995012
 30
0.0
  0
VERTEX
  5
D1C6
  8
0
 10
54.800035808698453
 20
38.747733124661181
 30
0.0
  0
VERTEX
  5
D1C7
  8
0
 10
54.804475478440573
 20
38.703922580862553
 30
0.0
  0
VERTEX
  5
D1C8
  8
0
 10
54.80698697364187
 20
38.674974725329207
 30
0.0
  0
VERTEX
  5
D1C9
  8
0
 10
54.807693516438967
 20
38.666031090053252
 30
0.0
  0
SEQEND
  5
D1CA
  8
0
  0
ARC
  5
C288
  8
0
 10
42.40384676043027
 20
40.213475928135253
 30
0.0
 40
12.49999999502044
 50
307.11120775741063
 51
352.88879221646999
  0
POLYLINE
  5
C289
  8
0
 66
     1
 10
0.0
 20
0.0
 30
0.0
  0
VERTEX
  5
D1CB
  8
0
 10
49.945896674992689
 20
30.245151948560761
 30
0.0
  0
VERTEX
  5
D1CC
  8
0
 10
49.945808638191863
 20
30.24510979723868
 30
0.0
  0
VERTEX
  5
D1CD
  8
0
 10
49.914946357445437
 20
30.230591862102418
 30
0.0
  0
VERTEX
  5
D1CE
  8
0
 10
49.855387833450379
 20
30.204049926414768
 30
0.0
  0
VERTEX
  5
D1CF
  8
0
 10
49.777350812948328
 20
30.171937366093971
 30
0.0
  0
VERTEX
  5
D1D0
  8
0
 10
49.559318731459648
 20
30.098880539740861
 30
0.0
  0
VERTEX
  5
D1D1
  8
0
 10
49.308552317162189
 20
30.040330117079009
 30
0.0
  0
VERTEX
  5
D1D2
  8
0
 10
49.039224704039441
 20
30.005991977732659
 30
0.0
  0
SEQEND
  5
D1D3
  8
0
  0
POLYLINE
  5
C28A
  8
0
 66
     1
 10
0.0
 20
0.0
 30
0.0
  0
VERTEX
  5
D1D4
  8
0
 10
36.881595318655741
 20
51.063623772809649
 30
0.0
  0
VERTEX
  5
D1D5
  8
0
 10
37.026738440669881
 20
51.257316546272698
 30
0.0
  0
VERTEX
  5
D1D6
  8
0
 10
37.182256263422524
 20
51.42899861497483
 30
0.0
  0
VERTEX
  5
D1D7
  8
0
 10
37.339148299588089
 20
51.574451927469617
 30
0.0
  0
VERTEX
  5
D1D8
  8
0
 10
37.411122222851823
 20
51.633113070205859
 30
0.0
  0
VERTEX
  5
D1D9
  8
0
 10
37.475122733694548
 20
51.681761962383547
 30
0.0
  0
VERTEX
  5
D1DA
  8
0
 10
37.510843942706693
 20
51.70751210106399
 30
0.0
  0
VERTEX
  5
D1DB
  8
0
 10
37.53465777338301
 20
51.724161047476457
 30
0.0
  0
VERTEX
  5
D1DC
  8
0
 10
37.542049917671882
 20
51.729244749356823
 30
0.0
  0
SEQEND
  5
D1DD
  8
0
  0
ARC
  5
C28B
  8
0
 10
42.403846755613813
 20
40.2134759297522
 30
0.0
 40
12.500000000000011
 50
67.111207788141755
 51
112.8887922118476
  0
POLYLINE
  5
C28C
  8
0
 66
     1
 10
0.0
 20
0.0
 30
0.0
  0
VERTEX
  5
D1DE
  8
0
 10
47.265643593557847
 20
51.729244749355942
 30
0.0
  0
VERTEX
  5
D1DF
  8
0
 10
47.265724259082042
 20
51.729189484930032
 30
0.0
  0
VERTEX
  5
D1E0
  8
0
 10
47.293730095615722
 20
51.709719664012759
 30
0.0
  0
VERTEX
  5
D1E1
  8
0
 10
47.34649778906617
 20
51.67140953606264
 30
0.0
  0
VERTEX
  5
D1E2
  8
0
 10
47.413329105234027
 20
51.619881535405113
 30
0.0
  0
VERTEX
  5
D1E3
  8
0
 10
47.585612504328139
 20
51.467589248871981
 30
0.0
  0
VERTEX
  5
D1E4
  8
0
 10
47.761699209149519
 20
51.279696389637188
 30
0.0
  0
VERTEX
  5
D1E5
  8
0
 10
47.926098192571878
 20
51.063623772809649
 30
0.0
  0
SEQEND
  5
D1E6
  8
0
  0
POLYLINE
  5
C28D
  8
0
 66
     1
 10
0.0
 20
0.0
 30
0.0
  0
VERTEX
  5
D1E7
  8
0
 10
47.926098192571878
 20
51.063623772809649
 30
0.0
  0
VERTEX
  5
D1E8
  8
0
 10
48.047164796962143
 20
50.86450987096822
 30
0.0
  0
VERTEX
  5
D1E9
  8
0
 10
48.145557121093191
 20
50.663244830249617
 30
0.0
  0
VERTEX
  5
D1EA
  8
0
 10
48.224792649502547
 20
50.456310872092807
 30
0.0
  0
VERTEX
  5
D1EB
  8
0
 10
48.284039550437171
 20
50.248762587638907
 30
0.0
  0
VERTEX
  5
D1EC
  8
0
 10
48.322314810563292
 20
50.055506303001863
 30
0.0
  0
VERTEX
  5
D1ED
  8
0
 10
48.345078298038459
 20
49.862087588328933
 30
0.0
  0
SEQEND
  5
D1EE
  8
0
  0
POLYLINE
  5
C28F
  8
0
 66
     1
 10
0.0
 20
0.0
 30
0.0
  0
VERTEX
  5
D1EF
  8
0
 10
36.462615213189167
 20
49.862087588328961
 30
0.0
  0
VERTEX
  5
D1F0
  8
0
 10
36.503593088071447
 20
50.157439668259599
 30
0.0
  0
VERTEX
  5
D1F1
  8
0
 10
36.582544894726539
 20
50.455204820434091
 30
0.0
  0
VERTEX
  5
D1F2
  8
0
 10
36.706403295240371
 20
50.759474953505269
 30
0.0
  0
VERTEX
  5
D1F3
  8
0
 10
36.881595318655741
 20
51.063623772809649
 30
0.0
  0
SEQEND
  5
D1F4
  8
0
  0
POLYLINE
  5
C290
  8
0
 66
     1
 10
0.0
 20
0.0
 30
0.0
  0
VERTEX
  5
D1F5
  8
0
 10
36.462615213189167
 20
49.862087588328961
 30
0.0
  0
VERTEX
  5
D1F6
  8
0
 10
36.415623970755462
 20
49.381514261241989
 30
0.0
  0
VERTEX
  5
D1F7
  8
0
 10
36.344599187165223
 20
48.86829677667788
 30
0.0
  0
VERTEX
  5
D1F8
  8
0
 10
36.245557465444847
 20
48.325192951272811
 30
0.0
  0
VERTEX
  5
D1F9
  8
0
 10
36.11451540862101
 20
47.754960601663072
 30
0.0
  0
VERTEX
  5
D1FA
  8
0
 10
36.001174548915969
 20
47.340199386260927
 30
0.0
  0
VERTEX
  5
D1FB
  8
0
 10
35.868076042901691
 20
46.912650806951312
 30
0.0
  0
VERTEX
  5
D1FC
  8
0
 10
35.714671644680656
 20
46.475899897330798
 30
0.0
  0
VERTEX
  5
D1FD
  8
0
 10
35.540413108355331
 20
46.033531690996028
 30
0.0
  0
VERTEX
  5
D1FE
  8
0
 10
35.341815814183413
 20
45.582854797245659
 30
0.0
  0
VERTEX
  5
D1FF
  8
0
 10
35.120491368942169
 20
45.130164716214317
 30
0.0
  0
VERTEX
  5
D200
  8
0
 10
34.879234139290823
 20
44.68219574301127
 30
0.0
  0
VERTEX
  5
D201
  8
0
 10
34.620838491888378
 20
44.245682172745632
 30
0.0
  0
VERTEX
  5
D202
  8
0
 10
34.308054431923381
 20
43.767082729553039
 30
0.0
  0
VERTEX
  5
D203
  8
0
 10
33.978949821205731
 20
43.309819699344239
 30
0.0
  0
VERTEX
  5
D204
  8
0
 10
33.640184605230729
 20
42.880310441298263
 30
0.0
  0
VERTEX
  5
D205
  8
0
 10
33.301621058220178
 20
42.487315852199231
 30
0.0
  0
VERTEX
  5
D206
  8
0
 10
32.95970960324491
 20
42.121664098475179
 30
0.0
  0
VERTEX
  5
D207
  8
0
 10
32.618425005337201
 20
41.78398878493541
 30
0.0
  0
VERTEX
  5
D208
  8
0
 10
32.281742029529312
 20
41.474923516389232
 30
0.0
  0
VERTEX
  5
D209
  8
0
 10
31.86758441107424
 20
41.1243456107104
 30
0.0
  0
VERTEX
  5
D20A
  8
0
 10
31.464874706663981
 20
40.811602783387421
 30
0.0
  0
VERTEX
  5
D20B
  8
0
 10
31.077288176823341
 20
40.534427545968981
 30
0.0
  0
SEQEND
  5
D20C
  8
0
  0
POLYLINE
  5
C291
  8
0
 66
     1
 10
0.0
 20
0.0
 30
0.0
  0
VERTEX
  5
D20D
  8
0
 10
30.246217370230109
 20
39.570812038714308
 30
0.0
  0
VERTEX
  5
D20E
  8
0
 10
30.358121765276341
 20
39.775215744586973
 30
0.0
  0
VERTEX
  5
D20F
  8
0
 10
30.483226241366939
 20
39.96105851718125
 30
0.0
  0
VERTEX
  5
D210
  8
0
 10
30.622818541831808
 20
40.133145476744488
 30
0.0
  0
VERTEX
  5
D211
  8
0
 10
30.77293717821351
 20
40.288228940276383
 30
0.0
  0
VERTEX
  5
D212
  8
0
 10
30.92116440009028
 20
40.418004430203041
 30
0.0
  0
VERTEX
  5
D213
  8
0
 10
31.077288176823341
 20
40.534427545968981
 30
0.0
  0
SEQEND
  5
D214
  8
0
  0
POLYLINE
  5
C293
  8
0
 66
     1
 10
0.0
 20
0.0
 30
0.0
  0
VERTEX
  5
D215
  8
0
 10
37.01851971924799
 20
30.243912654958709
 30
0.0
  0
VERTEX
  5
D216
  8
0
 10
36.742248377526323
 20
30.131724495634529
 30
0.0
  0
VERTEX
  5
D217
  8
0
 10
36.44490028805393
 20
30.051216189785269
 30
0.0
  0
VERTEX
  5
D218
  8
0
 10
36.119465422944529
 20
30.006345644566721
 30
0.0
  0
VERTEX
  5
D219
  8
0
 10
35.768468807188178
 20
30.005991977732659
 30
0.0
  0
SEQEND
  5
D21A
  8
0
  0
POLYLINE
  5
C294
  8
0
 66
     1
 10
0.0
 20
0.0
 30
0.0
  0
VERTEX
  5
D21B
  8
0
 10
37.01851971924799
 20
30.243912654958709
 30
0.0
  0
VERTEX
  5
D21C
  8
0
 10
37.453169494500692
 20
30.441322770228879
 30
0.0
  0
VERTEX
  5
D21D
  8
0
 10
37.92574189411431
 20
30.633804838973852
 30
0.0
  0
VERTEX
  5
D21E
  8
0
 10
38.45048964070287
 20
30.8218414456374
 30
0.0
  0
VERTEX
  5
D21F
  8
0
 10
39.01737842851918
 20
30.996008176523279
 30
0.0
  0
VERTEX
  5
D220
  8
0
 10
39.428412741422619
 20
31.104175447159982
 30
0.0
  0
VERTEX
  5
D221
  8
0
 10
39.858594599619273
 20
31.20160043730667
 30
0.0
  0
VERTEX
  5
D222
  8
0
 10
40.318321600300457
 20
31.288248974467852
 30
0.0
  0
VERTEX
  5
D223
  8
0
 10
40.795231365919669
 20
31.35953806770712
 30
0.0
  0
VERTEX
  5
D224
  8
0
 10
41.276024101990522
 20
31.412456556992939
 30
0.0
  0
VERTEX
  5
D225
  8
0
 10
41.767182942600073
 20
31.447251768383691
 30
0.0
  0
VERTEX
  5
D226
  8
0
 10
42.2846309625819
 20
31.462854462735411
 30
0.0
  0
VERTEX
  5
D227
  8
0
 10
42.803344975436062
 20
31.457090345619179
 30
0.0
  0
VERTEX
  5
D228
  8
0
 10
43.227251122751511
 20
31.43630505689714
 30
0.0
  0
VERTEX
  5
D229
  8
0
 10
43.645411211607659
 20
31.401663808282279
 30
0.0
  0
VERTEX
  5
D22A
  8
0
 10
44.066257528668579
 20
31.35242191233726
 30
0.0
  0
VERTEX
  5
D22B
  8
0
 10
44.476120845254677
 20
31.29050639525374
 30
0.0
  0
VERTEX
  5
D22C
  8
0
 10
44.980017938680412
 20
31.195107936107259
 30
0.0
  0
VERTEX
  5
D22D
  8
0
 10
45.460924308224612
 20
31.083883383188891
 30
0.0
  0
VERTEX
  5
D22E
  8
0
 10
45.929828932564128
 20
30.955860589026539
 30
0.0
  0
VERTEX
  5
D22F
  8
0
 10
46.3724417049213
 20
30.816756240633708
 30
0.0
  0
VERTEX
  5
D230
  8
0
 10
46.757076347468001
 20
30.680958828005771
 30
0.0
  0
VERTEX
  5
D231
  8
0
 10
47.119746909573109
 20
30.53975710022689
 30
0.0
  0
VERTEX
  5
D232
  8
0
 10
47.465123580064009
 20
30.392978893267159
 30
0.0
  0
VERTEX
  5
D233
  8
0
 10
47.789173791979628
 20
30.243912654958681
 30
0.0
  0
SEQEND
  5
D234
  8
0
  0
POLYLINE
  5
C295
  8
0
 66
     1
 10
0.0
 20
0.0
 30
0.0
  0
VERTEX
  5
D235
  8
0
 10
49.039224704039441
 20
30.005991977732659
 30
0.0
  0
VERTEX
  5
D236
  8
0
 10
48.806253704603023
 20
30.000702173701509
 30
0.0
  0
VERTEX
  5
D237
  8
0
 10
48.582756904381483
 20
30.01612444182593
 30
0.0
  0
VERTEX
  5
D238
  8
0
 10
48.363929075507308
 20
30.05097144041958
 30
0.0
  0
VERTEX
  5
D239
  8
0
 10
48.154563538191042
 20
30.103436261341582
 30
0.0
  0
VERTEX
  5
D23A
  8
0
 10
47.968061056191338
 20
30.16691705605448
 30
0.0
  0
VERTEX
  5
D23B
  8
0
 10
47.789173791979628
 20
30.243912654958681
 30
0.0
  0
SEQEND
  5
D23C
  8
0
  0
POLYLINE
  5
C297
  8
0
 66
     1
 10
0.0
 20
0.0
 30
0.0
  0
VERTEX
  5
D23D
  8
0
 10
53.730405334404281
 20
40.534427545968981
 30
0.0
  0
VERTEX
  5
D23E
  8
0
 10
53.965698801243661
 20
40.35126362536252
 30
0.0
  0
VERTEX
  5
D23F
  8
0
 10
54.184095084060971
 20
40.134006779037257
 30
0.0
  0
VERTEX
  5
D240
  8
0
 10
54.385671548656603
 20
39.87460719118463
 30
0.0
  0
VERTEX
  5
D241
  8
0
 10
54.56147614099752
 20
39.570812038714308
 30
0.0
  0
SEQEND
  5
D242
  8
0
  0
POLYLINE
  5
C298
  8
0
 66
     1
 10
0.0
 20
0.0
 30
0.0
  0
VERTEX
  5
D243
  8
0
 10
53.730405334404281
 20
40.534427545968981
 30
0.0
  0
VERTEX
  5
D244
  8
0
 10
53.337717990489409
 20
40.815405537118863
 30
0.0
  0
VERTEX
  5
D245
  8
0
 10
52.928777202794272
 20
41.133518130209119
 30
0.0
  0
VERTEX
  5
D246
  8
0
 10
52.50796278711266
 20
41.490836071258741
 30
0.0
  0
VERTEX
  5
D247
  8
0
 10
52.079654559238293
 20
41.889430106286653
 30
0.0
  0
VERTEX
  5
D248
  8
0
 10
51.77713019971543
 20
42.194966137086787
 30
0.0
  0
VERTEX
  5
D249
  8
0
 10
51.473410316855109
 20
42.524006612080591
 30
0.0
  0
VERTEX
  5
D24A
  8
0
 10
51.17187376515772
 20
42.875233857554647
 30
0.0
  0
VERTEX
  5
D24B
  8
0
 10
50.875899399123618
 20
43.247330199795492
 30
0.0
  0
VERTEX
  5
D24C
  8
0
 10
50.58489866190024
 20
43.644659216856837
 30
0.0
  0
VERTEX
  5
D24D
  8
0
 10
50.303517893309852
 20
44.062677454143788
 30
0.0
  0
VERTEX
  5
D24E
  8
0
 10
50.036192048564828
 20
44.495597759892739
 30
0.0
  0
VERTEX
  5
D24F
  8
0
 10
49.787356082877579
 20
44.93763298233997
 30
0.0
  0
VERTEX
  5
D250
  8
0
 10
49.529267239147373
 20
45.447812267429292
 30
0.0
  0
VERTEX
  5
D251
  8
0
 10
49.297816557426408
 20
45.961457653960217
 30
0.0
  0
VERTEX
  5
D252
  8
0
 10
49.095231741949817
 20
46.469592684223642
 30
0.0
  0
VERTEX
  5
D253
  8
0
 10
48.924169739557442
 20
46.959293221452917
 30
0.0
  0
VERTEX
  5
D254
  8
0
 10
48.778461151812053
 20
47.43822193927366
 30
0.0
  0
VERTEX
  5
D255
  8
0
 10
48.656667351704812
 20
47.902619777001227
 30
0.0
  0
VERTEX
  5
D256
  8
0
 10
48.557349712227051
 20
48.34872767395094
 30
0.0
  0
VERTEX
  5
D257
  8
0
 10
48.460816643339221
 20
48.882696581750231
 30
0.0
  0
VERTEX
  5
D258
  8
0
 10
48.391326673195238
 20
49.38783296570935
 30
0.0
  0
VERTEX
  5
D259
  8
0
 10
48.345078298038459
 20
49.862087588328933
 30
0.0
  0
SEQEND
  5
D25A
  8
0
  0
LINE
  5
C985
  8
0
 10
79.723411782987114
 20
79.175490684936932
 30
0.0
 11
84.423153232867534
 21
79.175490684936932
 31
0.0
  0
LINE
  5
C986
  8
0
 10
79.723411782987029
 20
91.057953769786238
 30
0.0
 11
84.423153232861523
 21
91.057953769786238
 31
0.0
  0
LINE
  5
CA9C
  8
0
 10
79.723411782970061
 20
40.534427545969059
 30
0.0
 11
84.423153232868458
 21
40.534427545969123
 31
0.0
  0
LINE
  5
CF37
  8
0
 10
104.8069869736419
 20
38.203975929752211
 30
0.0
 11
104.3164869736418
 21
37.713475929752207
 31
0.0
  0
LINE
  5
CF38
  8
0
 10
104.3164869736418
 20
42.7134759297522
 30
0.0
 11
104.8069869736419
 21
42.222975929752209
 31
0.0
  0
LINE
  5
CF39
  8
0
 10
104.8069869736419
 20
42.222975929752209
 30
0.0
 11
104.8069869736419
 21
38.203975929752211
 31
0.0
  0
LINE
  5
CF3A
  8
0
 10
104.3164869736418
 20
37.713475929752207
 30
0.0
 11
94.806986973641884
 21
37.713475929752207
 31
0.0
  0
LINE
  5
CF3B
  8
0
 10
94.806986973641884
 20
42.7134759297522
 30
0.0
 11
104.3164869736418
 21
42.7134759297522
 31
0.0
  0
LINE
  5
CF3C
  8
0
 10
104.3164869736418
 20
42.7134759297522
 30
0.0
 11
104.3164869736418
 21
37.713475929752207
 31
0.0
  0
LINE
  5
CF5B
  8
3
 10
104.8069869736419
 20
42.222975929752209
 30
0.0
 11
95.606986973641881
 21
42.222975929752209
 31
0.0
  0
LINE
  5
CF5C
  8
3
 10
94.806986973641884
 20
42.7134759297522
 30
0.0
 11
95.606986973641881
 21
42.222975929752209
 31
0.0
  0
LINE
  5
CF5D
  8
0
 10
95.606986973641881
 20
42.7134759297522
 30
0.0
 11
95.606986973641881
 21
37.713475929752207
 31
0.0
  0
LINE
  5
CF5E
  8
3
 10
104.8069869736419
 20
38.203975929752211
 30
0.0
 11
95.606986973641881
 21
38.203975929752211
 31
0.0
  0
LINE
  5
CF5F
  8
3
 10
94.806986973641884
 20
37.713475929752207
 30
0.0
 11
95.606986973641881
 21
38.203975929752211
 31
0.0
  0
LINE
  5
CF77
  8
0
 10
104.8069869736419
 20
83.107222227361618
 30
0.0
 11
104.3164869736418
 21
82.61672222736162
 31
0.0
  0
LINE
  5
CF78
  8
0
 10
104.3164869736418
 20
87.61672222736162
 30
0.0
 11
104.8069869736419
 21
87.126222227361623
 31
0.0
  0
LINE
  5
CF79
  8
0
 10
104.8069869736419
 20
87.126222227361623
 30
0.0
 11
104.8069869736419
 21
83.107222227361618
 31
0.0
  0
LINE
  5
CF7A
  8
0
 10
104.3164869736418
 20
82.61672222736162
 30
0.0
 11
94.806986973641884
 21
82.61672222736162
 31
0.0
  0
LINE
  5
CF7B
  8
0
 10
94.806986973641884
 20
87.61672222736162
 30
0.0
 11
104.3164869736418
 21
87.61672222736162
 31
0.0
  0
LINE
  5
CF7C
  8
0
 10
104.3164869736418
 20
87.61672222736162
 30
0.0
 11
104.3164869736418
 21
82.61672222736162
 31
0.0
  0
LINE
  5
CF7D
  8
3
 10
104.8069869736419
 20
87.126222227361623
 30
0.0
 11
95.606986973641881
 21
87.126222227361623
 31
0.0
  0
LINE
  5
CF7E
  8
3
 10
94.806986973641884
 20
87.61672222736162
 30
0.0
 11
95.606986973641881
 21
87.126222227361623
 31
0.0
  0
LINE
  5
CF7F
  8
0
 10
95.606986973641881
 20
87.61672222736162
 30
0.0
 11
95.606986973641881
 21
82.61672222736162
 31
0.0
  0
LINE
  5
CF80
  8
3
 10
104.8069869736419
 20
83.107222227361618
 30
0.0
 11
95.606986973641881
 21
83.107222227361618
 31
0.0
  0
LINE
  5
CF81
  8
3
 10
94.806986973641884
 20
82.61672222736162
 30
0.0
 11
95.606986973641881
 21
83.107222227361618
 31
0.0
  0
ENDSEC
  0
EOF
