  0
SECTION
  2
HEADER
  9
$ACADVER
  1
AC1009
  9
$INSBASE
 10
0.0
 20
0.0
 30
0.0
  9
$EXTMIN
 10
-0.0057216093476882
 20
-1.484383008997838
 30
-0.0015258207003583
  9
$EXTMAX
 10
64.138412768531566
 20
65.260474635454784
 30
0.0000000349246037
  9
$LIMMIN
 10
0.0
 20
0.0
  9
$LIMMAX
 10
187.5
 20
135.0
  9
$ORTHOMODE
 70
     1
  9
$REGENMODE
 70
     1
  9
$FILLMODE
 70
     1
  9
$QTEXTMODE
 70
     0
  9
$MIRRTEXT
 70
     0
  9
$DRAGMODE
 70
     2
  9
$LTSCALE
 40
5.0
  9
$OSMODE
 70
   743
  9
$ATTMODE
 70
     1
  9
$TEXTSIZE
 40
1.6000000000000001
  9
$TRACEWID
 40
0.05
  9
$TEXTSTYLE
  7
STANDARD
  9
$CLAYER
  8
0
  9
$CELTYPE
  6
BYLAYER
  9
$CECOLOR
 62
   256
  9
$DIMSCALE
 40
0.5
  9
$DIMASZ
 40
3.0
  9
$DIMEXO
 40
2.0
  9
$DIMDLI
 40
10.0
  9
$DIMRND
 40
0.0
  9
$DIMDLE
 40
0.0
  9
$DIMEXE
 40
2.0
  9
$DIMTP
 40
0.0
  9
$DIMTM
 40
0.0
  9
$DIMTXT
 40
3.2000000000000002
  9
$DIMCEN
 40
0.09
  9
$DIMTSZ
 40
0.0
  9
$DIMTOL
 70
     0
  9
$DIMLIM
 70
     0
  9
$DIMTIH
 70
     0
  9
$DIMTOH
 70
     0
  9
$DIMSE1
 70
     0
  9
$DIMSE2
 70
     0
  9
$DIMTAD
 70
     1
  9
$DIMZIN
 70
     8
  9
$DIMBLK
  1

  9
$DIMASO
 70
     0
  9
$DIMSHO
 70
     0
  9
$DIMPOST
  1

  9
$DIMAPOST
  1

  9
$DIMALT
 70
     0
  9
$DIMALTD
 70
     2
  9
$DIMALTF
 40
25.399999999999999
  9
$DIMLFAC
 40
1.0
  9
$DIMTOFL
 70
     1
  9
$DIMTVP
 40
1.6000000000000001
  9
$DIMTIX
 70
     1
  9
$DIMSOXD
 70
     0
  9
$DIMSAH
 70
     0
  9
$DIMBLK1
  1

  9
$DIMBLK2
  1

  9
$DIMSTYLE
  2
STANDARD
  9
$DIMCLRD
 70
     0
  9
$DIMCLRE
 70
     0
  9
$DIMCLRT
 70
     0
  9
$DIMTFAC
 40
1.0
  9
$DIMGAP
 40
0.09
  9
$LUNITS
 70
     2
  9
$LUPREC
 70
     2
  9
$SKETCHINC
 40
0.1
  9
$FILLETRAD
 40
0.0
  9
$AUNITS
 70
     0
  9
$AUPREC
 70
     2
  9
$MENU
  1
E:\r13\win\SUPPORT\ACAD
  9
$ELEVATION
 40
0.0
  9
$PELEVATION
 40
0.0
  9
$THICKNESS
 40
0.0
  9
$LIMCHECK
 70
     0
  9
$BLIPMODE
 70
     0
  9
$CHAMFERA
 40
0.0
  9
$CHAMFERB
 40
0.0
  9
$SKPOLY
 70
     0
  9
$TDCREATE
 40
2449840.594537037
  9
$TDUPDATE
 40
2457872.4732447341
  9
$TDINDWG
 40
0.0543677083
  9
$TDUSRTIMER
 40
0.0543677083
  9
$USRTIMER
 70
     1
  9
$ANGBASE
 50
0.0
  9
$ANGDIR
 70
     0
  9
$PDMODE
 70
     0
  9
$PDSIZE
 40
0.0
  9
$PLINEWID
 40
0.0
  9
$COORDS
 70
     2
  9
$SPLFRAME
 70
     0
  9
$SPLINETYPE
 70
     6
  9
$SPLINESEGS
 70
     8
  9
$ATTDIA
 70
     0
  9
$ATTREQ
 70
     1
  9
$HANDLING
 70
     1
  9
$HANDSEED
  5
525
  9
$SURFTAB1
 70
     6
  9
$SURFTAB2
 70
     6
  9
$SURFTYPE
 70
     6
  9
$SURFU
 70
     6
  9
$SURFV
 70
     6
  9
$UCSNAME
  2

  9
$UCSORG
 10
0.0
 20
0.0
 30
0.0
  9
$UCSXDIR
 10
1.0
 20
0.0
 30
0.0
  9
$UCSYDIR
 10
0.0
 20
1.0
 30
0.0
  9
$PUCSNAME
  2

  9
$PUCSORG
 10
0.0
 20
0.0
 30
0.0
  9
$PUCSXDIR
 10
1.0
 20
0.0
 30
0.0
  9
$PUCSYDIR
 10
0.0
 20
1.0
 30
0.0
  9
$USERI1
 70
     0
  9
$USERI2
 70
     1
  9
$USERI3
 70
     0
  9
$USERI4
 70
     0
  9
$USERI5
 70
     0
  9
$USERR1
 40
0.0
  9
$USERR2
 40
0.0
  9
$USERR3
 40
0.0
  9
$USERR4
 40
0.0
  9
$USERR5
 40
0.0
  9
$WORLDVIEW
 70
     1
  9
$SHADEDGE
 70
     3
  9
$SHADEDIF
 70
    70
  9
$TILEMODE
 70
     1
  9
$MAXACTVP
 70
    16
  9
$PLIMCHECK
 70
     0
  9
$PEXTMIN
 10
1.0000000000000000E+020
 20
1.0000000000000000E+020
 30
1.0000000000000000E+020
  9
$PEXTMAX
 10
-1.0000000000000000E+020
 20
-1.0000000000000000E+020
 30
-1.0000000000000000E+020
  9
$PLIMMIN
 10
0.0
 20
0.0
  9
$PLIMMAX
 10
12.0
 20
9.0
  9
$UNITMODE
 70
     0
  9
$VISRETAIN
 70
     0
  9
$PLINEGEN
 70
     0
  9
$PSLTSCALE
 70
     0
  0
ENDSEC
  0
SECTION
  2
TABLES
  0
TABLE
  2
VPORT
 70
     3
  0
VPORT
  2
*ACTIVE
 70
     0
 10
0.0
 20
0.0
 11
1.0
 21
1.0
 12
55.0
 22
45.0
 13
0.0
 23
0.0
 14
5.0
 24
5.0
 15
5.0
 25
5.0
 16
0.0
 26
0.0
 36
1.0
 17
0.0
 27
0.0
 37
0.0
 40
90.0
 41
1.3163418290854569
 42
50.0
 43
0.0
 44
0.0
 50
0.0
 51
0.0
 71
     0
 72
   100
 73
     1
 74
     0
 75
     0
 76
     0
 77
     0
 78
     0
  0
ENDTAB
  0
TABLE
  2
LTYPE
 70
     4
  0
LTYPE
  2
CONTINUOUS
 70
     0
  3
Solid Line
 72
    65
 73
     0
 40
0.0
  0
LTYPE
  2
CENTER
 70
     0
  3
____ _ ____ _ ____ _ ____ _ ____ _ ____ _ ____
 72
    65
 73
     4
 40
2.0
 49
1.25
 49
-0.25
 49
0.25
 49
-0.25
  0
LTYPE
  2
HIDDEN
 70
     0
  3
_ _ _ _ _ _ _ _ _ _ _ _ _ _ _ _ _ _ _ _ _ _ _
 72
    65
 73
     2
 40
0.375
 49
0.25
 49
-0.125
  0
LTYPE
  2
PHANTOM2
 70
     0
  3
___ _ _ ___ _ _ ___ _ _ ___ _ _
 72
    65
 73
     6
 40
1.25
 49
0.625
 49
-0.125
 49
0.125
 49
-0.125
 49
0.125
 49
-0.125
  0
ENDTAB
  0
TABLE
  2
LAYER
 70
     4
  0
LAYER
  2
0
 70
     0
 62
     7
  6
CONTINUOUS
  0
LAYER
  2
1
 70
     0
 62
     1
  6
CENTER
  0
LAYER
  2
2
 70
     0
 62
     2
  6
HIDDEN
  0
LAYER
  2
3
 70
     0
 62
     3
  6
CONTINUOUS
  0
ENDTAB
  0
TABLE
  2
STYLE
 70
     2
  0
STYLE
  2
STANDARD
 70
     0
 40
0.0
 41
1.0
 50
0.0
 71
     0
 42
1.6000000000000001
  3
TXT
  4
BIGFONT
  0
STYLE
  2
STANDARD1
 70
     0
 40
0.0
 41
1.0
 50
0.0
 71
     0
 42
3.0
  3
txt
  4

  0
ENDTAB
  0
TABLE
  2
VIEW
 70
     1
  0
VIEW
  2
ALL
 70
     0
 40
135.0
 10
110.49579799999999
 20
67.5
 41
0.0
 11
0.0
 21
0.0
 31
1.0
 12
0.0
 22
0.0
 32
0.0
 42
0.0
 43
0.0
 44
0.0
 50
0.0
 71
     0
  0
ENDTAB
  0
TABLE
  2
UCS
 70
     0
  0
ENDTAB
  0
TABLE
  2
APPID
 70
     7
  0
APPID
  2
ACAD
 70
     0
  0
APPID
  2
ACAD_MLEADERVER
 70
     0
  0
APPID
  2
ACAD_NAV_VCDISPLAY
 70
     0
  0
APPID
  2
ACAD_EXEMPT_FROM_CAD_STANDARDS
 70
     0
  0
APPID
  2
ACAD_DSTYLE_DIMJAG
 70
     0
  0
APPID
  2
ACAD_DSTYLE_DIMTALN
 70
     0
  0
APPID
  2
ACAD_PSEXT
 70
     0
  0
ENDTAB
  0
TABLE
  2
DIMSTYLE
 70
     1
  0
DIMSTYLE
  2
STANDARD
 70
     0
  3

  4

  5

  6

  7

 40
1.0
 41
0.18
 42
0.0625
 43
0.38
 44
0.18
 45
0.0
 46
0.0
 47
0.0
 48
0.0
140
0.18
141
0.09
142
0.0
143
25.399999999999999
144
1.0
145
0.0
146
1.0
147
0.09
 71
     0
 72
     0
 73
     1
 74
     1
 75
     0
 76
     0
 77
     0
 78
     0
170
     0
171
     2
172
     0
173
     0
174
     0
175
     0
176
     0
177
     0
178
     0
  0
ENDTAB
  0
ENDSEC
  0
SECTION
  2
BLOCKS
  0
BLOCK
  8
0
  2
$MODEL_SPACE
 70
     0
 10
0.0
 20
0.0
 30
0.0
  3
$MODEL_SPACE
  1

  0
ENDBLK
  5
12B
  8
0
  0
BLOCK
 67
     1
  8
0
  2
$PAPER_SPACE
 70
     0
 10
0.0
 20
0.0
 30
0.0
  3
$PAPER_SPACE
  1

  0
ENDBLK
  5
129
 67
     1
  8
0
  0
ENDSEC
  0
SECTION
  2
ENTITIES
  0
TEXT
  5
1E0
  8
0
 62
     3
 10
0.0
 20
0.0
 30
0.0
 40
5.0
  1
TRIG-HRC
  7
STANDARD1
  0
LINE
  5
340
  8
0
 10
63.906330512846857
 20
53.78000000000003
 30
0.0
 11
58.653280551917668
 21
62.878549427027018
 31
0.0
  0
LINE
  5
341
  8
0
 10
58.653280551917668
 20
63.260000000000019
 30
0.0
 11
58.653280551917668
 21
62.878549427027018
 31
0.0
  0
LINE
  5
342
  8
0
 10
64.126561103835314
 20
53.780000000000058
 30
0.0
 11
58.653280551917668
 21
63.260000000000019
 31
0.0
  0
CIRCLE
  5
344
  8
0
 10
58.653280551917668
 20
57.179999999999978
 30
0.0
 40
1.6000000000000001
  0
LINE
  5
345
  8
0
 10
58.653280551917668
 20
62.878549427027018
 30
0.0
 11
53.400230590988613
 21
53.779999999999973
 31
0.0
  0
LINE
  5
347
  8
0
 10
58.653280551917668
 20
63.260000000000019
 30
0.0
 11
53.180000000000057
 21
53.780000000000001
 31
0.0
  0
LINE
  5
348
  8
0
 10
64.126561103836167
 20
53.779999999998552
 30
0.0
 11
53.180000000000057
 21
53.780000000000001
 31
0.0
  0
LINE
  5
349
  8
0
 10
63.472971265349152
 20
53.780000000000058
 30
0.0
 11
63.472971265349152
 21
53.180000000000042
 31
0.0
  0
LINE
  5
34A
  8
0
 10
53.833589838486333
 20
53.179999999999971
 30
0.0
 11
53.833589838486333
 21
53.780000000000001
 31
0.0
  0
LINE
  5
34B
  8
0
 10
53.833589838486333
 20
53.179999999999971
 30
0.0
 11
63.472971265349152
 21
53.180000000000042
 31
0.0
  0
LINE
  5
35F
  8
3
 10
53.833589838486333
 20
30.700000000000021
 30
0.0
 11
53.833589838486333
 21
32.480000000000018
 31
0.0
  0
LINE
  5
360
  8
3
 10
53.833589838486333
 20
32.480000000000018
 30
0.0
 11
63.472971265349152
 21
32.480000000000018
 31
0.0
  0
LINE
  5
361
  8
3
 10
63.472971265349152
 20
32.480000000000018
 30
0.0
 11
63.472971265349152
 21
30.700000000000021
 31
0.0
  0
LINE
  5
362
  8
3
 10
63.472971265349152
 20
30.700000000000021
 30
0.0
 11
53.833589838486333
 21
30.700000000000021
 31
0.0
  0
LINE
  5
363
  8
0
 10
64.126561103835314
 20
31.000000000000231
 30
0.0
 11
63.906330512846857
 21
33.180000000000007
 31
0.0
  0
LINE
  5
364
  8
0
 10
64.126561103835286
 20
30.0
 30
0.0
 11
64.126561103835314
 21
31.000000000000231
 31
0.0
  0
LINE
  5
365
  8
0
 10
53.180000000000057
 20
31.0
 30
0.0
 11
53.180000000000042
 21
30.0
 31
0.0
  0
LINE
  5
366
  8
0
 10
53.400230590988613
 20
33.180000000000007
 30
0.0
 11
53.180000000000057
 21
31.0
 31
0.0
  0
LINE
  5
367
  8
0
 10
63.906330512846857
 20
33.180000000000007
 30
0.0
 11
53.400230590988613
 21
33.180000000000007
 31
0.0
  0
LINE
  5
368
  8
0
 10
53.180000000000042
 20
30.0
 30
0.0
 11
64.126561103835286
 21
30.0
 31
0.0
  0
LINE
  5
37B
  8
0
 10
33.180000000000007
 20
53.78000000000003
 30
0.0
 11
33.179999999999993
 21
62.878549427027018
 31
0.0
  0
LINE
  5
37C
  8
0
 10
31.0
 20
63.260000000000019
 30
0.0
 11
33.179999999999993
 21
62.878549427027018
 31
0.0
  0
LINE
  5
37D
  8
0
 10
31.000000000000242
 20
53.780000000000058
 30
0.0
 11
31.0
 21
63.260000000000019
 31
0.0
  0
LINE
  5
37E
  8
0
 10
30.0
 20
53.780000000000079
 30
0.0
 11
33.180000000000007
 21
53.78000000000003
 31
0.0
  0
LINE
  5
380
  8
0
 10
30.0
 20
63.260000000000019
 30
0.0
 11
31.0
 21
63.260000000000019
 31
0.0
  0
LINE
  5
381
  8
0
 10
30.000000000000011
 20
53.78000000000003
 30
0.0
 11
30.0
 21
63.260000000000019
 31
0.0
  0
LINE
  5
382
  8
0
 10
32.480000000000011
 20
53.180000000000042
 30
0.0
 11
30.70000000000001
 21
53.180000000000042
 31
0.0
  0
LINE
  5
383
  8
0
 10
32.480000000000011
 20
53.780000000000058
 30
0.0
 11
32.480000000000011
 21
53.180000000000042
 31
0.0
  0
LINE
  5
384
  8
0
 10
30.70000000000001
 20
53.78000000000003
 30
0.0
 11
30.70000000000001
 21
53.180000000000042
 31
0.0
  0
LINE
  5
3EA
  8
1
 10
58.653280551917668
 20
28.000000000000028
 30
0.0
 11
58.653280551917661
 21
35.180000000000007
 31
0.0
  0
LINE
  5
3EB
  8
1
 10
61.753280551917669
 20
57.179999999999978
 30
0.0
 11
55.553280551917659
 21
57.179999999999978
 31
0.0
  0
LINE
  5
3F2
  8
1
 10
58.653280551917668
 20
51.179999999999978
 30
0.0
 11
58.653280551917668
 21
65.260000000000019
 31
0.0
  0
LINE
  5
3F6
  8
1
 10
34.68
 20
57.179999999999978
 30
0.0
 11
28.5
 21
57.179999999999978
 31
0.0
  0
LINE
  5
4F0
  8
2
 10
57.053280551917673
 20
31.579999999999981
 30
0.0
 11
57.053280551917673
 21
30.000000000000011
 31
0.0
  0
LINE
  5
4F1
  8
2
 10
60.253280551917662
 20
30.000000000000011
 30
0.0
 11
60.253280551917662
 21
31.580000000000052
 31
0.0
  0
LINE
  5
4F2
  8
2
 10
60.903280551917668
 20
32.880000000000017
 30
0.0
 11
56.403280551917661
 21
32.880000000000017
 31
0.0
  0
LINE
  5
4F3
  8
2
 10
60.253280551917662
 20
31.580000000000052
 30
0.0
 11
60.903280551917653
 21
32.880000000000017
 31
0.0
  0
LINE
  5
4F4
  8
2
 10
56.403280551917661
 20
32.880000000000017
 30
0.0
 11
57.053280551917673
 21
31.579999999999981
 31
0.0
  0
LINE
  5
4F5
  8
2
 10
60.903280551917653
 20
33.180000000000007
 30
0.0
 11
60.903280551917653
 21
32.880000000000017
 31
0.0
  0
LINE
  5
4F6
  8
2
 10
56.403280551917661
 20
33.180000000000007
 30
0.0
 11
56.403280551917639
 21
32.880000000000017
 31
0.0
  0
LINE
  5
4F7
  8
2
 10
57.053280551917673
 20
31.579999999999981
 30
0.0
 11
60.253280551917662
 21
31.579999999999981
 31
0.0
  0
LINE
  5
508
  8
2
 10
31.579999999999959
 20
58.780000000000037
 30
0.0
 11
29.999999999999989
 21
58.780000000000058
 31
0.0
  0
LINE
  5
509
  8
2
 10
29.999999999999989
 20
55.580000000000062
 30
0.0
 11
31.58000000000003
 21
55.580000000000062
 31
0.0
  0
LINE
  5
50A
  8
2
 10
32.88000000000001
 20
54.930000000000049
 30
0.0
 11
32.880000000000003
 21
59.430000000000057
 31
0.0
  0
LINE
  5
50B
  8
2
 10
31.58000000000003
 20
55.580000000000062
 30
0.0
 11
32.880000000000003
 21
54.930000000000057
 31
0.0
  0
LINE
  5
50C
  8
2
 10
32.880000000000003
 20
59.430000000000057
 30
0.0
 11
31.579999999999959
 21
58.780000000000037
 31
0.0
  0
LINE
  5
50D
  8
2
 10
33.18
 20
54.930000000000057
 30
0.0
 11
32.880000000000003
 21
54.930000000000057
 31
0.0
  0
LINE
  5
50E
  8
2
 10
33.18
 20
59.430000000000057
 30
0.0
 11
32.880000000000003
 21
59.430000000000057
 31
0.0
  0
LINE
  5
50F
  8
2
 10
31.579999999999959
 20
58.780000000000037
 30
0.0
 11
31.579999999999959
 21
55.580000000000062
 31
0.0
  0
CIRCLE
  5
510
  8
0
 10
58.653280551917668
 20
57.179999999999978
 30
0.0
 40
2.25
  0
ENDSEC
  0
EOF
