  0
SECTION
  2
HEADER
  9
$ACADVER
  1
AC1009
  9
$INSBASE
 10
0.0
 20
0.0
 30
0.0
  9
$EXTMIN
 10
0.0
 20
-2.960436562073669
 30
0.0
  9
$EXTMAX
 10
436.0
 20
315.0
 30
0.0
  9
$LIMMIN
 10
0.0
 20
0.0
  9
$LIMMAX
 10
750.0
 20
540.0
  9
$ORTHOMODE
 70
     1
  9
$REGENMODE
 70
     1
  9
$FILLMODE
 70
     1
  9
$QTEXTMODE
 70
     0
  9
$MIRRTEXT
 70
     0
  9
$DRAGMODE
 70
     2
  9
$LTSCALE
 40
10.0
  9
$OSMODE
 70
    55
  9
$ATTMODE
 70
     1
  9
$TEXTSIZE
 40
0.2
  9
$TRACEWID
 40
0.05
  9
$TEXTSTYLE
  7
STANDARD
  9
$CLAYER
  8
0
  9
$CELTYPE
  6
BYLAYER
  9
$CECOLOR
 62
   256
  9
$DIMSCALE
 40
2.0
  9
$DIMASZ
 40
3.0
  9
$DIMEXO
 40
2.0
  9
$DIMDLI
 40
0.38
  9
$DIMRND
 40
0.0
  9
$DIMDLE
 40
0.0
  9
$DIMEXE
 40
2.0
  9
$DIMTP
 40
0.0
  9
$DIMTM
 40
0.0
  9
$DIMTXT
 40
3.2000000000000002
  9
$DIMCEN
 40
0.0
  9
$DIMTSZ
 40
0.0
  9
$DIMTOL
 70
     0
  9
$DIMLIM
 70
     0
  9
$DIMTIH
 70
     0
  9
$DIMTOH
 70
     0
  9
$DIMSE1
 70
     0
  9
$DIMSE2
 70
     0
  9
$DIMTAD
 70
     1
  9
$DIMZIN
 70
     0
  9
$DIMBLK
  1

  9
$DIMASO
 70
     0
  9
$DIMSHO
 70
     0
  9
$DIMPOST
  1

  9
$DIMAPOST
  1

  9
$DIMALT
 70
     0
  9
$DIMALTD
 70
     2
  9
$DIMALTF
 40
25.399999999999999
  9
$DIMLFAC
 40
1.0
  9
$DIMTOFL
 70
     1
  9
$DIMTVP
 40
1.6000000000000001
  9
$DIMTIX
 70
     1
  9
$DIMSOXD
 70
     0
  9
$DIMSAH
 70
     0
  9
$DIMBLK1
  1

  9
$DIMBLK2
  1

  9
$DIMSTYLE
  2
STANDARD
  9
$DIMCLRD
 70
     0
  9
$DIMCLRE
 70
     0
  9
$DIMCLRT
 70
     0
  9
$DIMTFAC
 40
1.0
  9
$DIMGAP
 40
0.09
  9
$LUNITS
 70
     2
  9
$LUPREC
 70
     4
  9
$SKETCHINC
 40
0.1
  9
$FILLETRAD
 40
0.0
  9
$AUNITS
 70
     0
  9
$AUPREC
 70
     4
  9
$MENU
  1
E:\r13\win\SUPPORT\ACAD
  9
$ELEVATION
 40
0.0
  9
$PELEVATION
 40
0.0
  9
$THICKNESS
 40
0.0
  9
$LIMCHECK
 70
     0
  9
$BLIPMODE
 70
     0
  9
$CHAMFERA
 40
0.0
  9
$CHAMFERB
 40
0.0
  9
$SKPOLY
 70
     0
  9
$TDCREATE
 40
2449840.631145834
  9
$TDUPDATE
 40
2456598.4523181831
  9
$TDINDWG
 40
0.009648287
  9
$TDUSRTIMER
 40
0.009648287
  9
$USRTIMER
 70
     1
  9
$ANGBASE
 50
0.0
  9
$ANGDIR
 70
     0
  9
$PDMODE
 70
     0
  9
$PDSIZE
 40
0.0
  9
$PLINEWID
 40
0.0
  9
$COORDS
 70
     1
  9
$SPLFRAME
 70
     0
  9
$SPLINETYPE
 70
     6
  9
$SPLINESEGS
 70
     8
  9
$ATTDIA
 70
     0
  9
$ATTREQ
 70
     1
  9
$HANDLING
 70
     1
  9
$HANDSEED
  5
2E5
  9
$SURFTAB1
 70
     6
  9
$SURFTAB2
 70
     6
  9
$SURFTYPE
 70
     6
  9
$SURFU
 70
     6
  9
$SURFV
 70
     6
  9
$UCSNAME
  2

  9
$UCSORG
 10
0.0
 20
0.0
 30
0.0
  9
$UCSXDIR
 10
1.0
 20
0.0
 30
0.0
  9
$UCSYDIR
 10
0.0
 20
1.0
 30
0.0
  9
$PUCSNAME
  2

  9
$PUCSORG
 10
0.0
 20
0.0
 30
0.0
  9
$PUCSXDIR
 10
1.0
 20
0.0
 30
0.0
  9
$PUCSYDIR
 10
0.0
 20
1.0
 30
0.0
  9
$USERI1
 70
     0
  9
$USERI2
 70
     1
  9
$USERI3
 70
     0
  9
$USERI4
 70
     0
  9
$USERI5
 70
     0
  9
$USERR1
 40
0.0
  9
$USERR2
 40
0.0
  9
$USERR3
 40
0.0
  9
$USERR4
 40
0.0
  9
$USERR5
 40
0.0
  9
$WORLDVIEW
 70
     1
  9
$SHADEDGE
 70
     3
  9
$SHADEDIF
 70
    70
  9
$TILEMODE
 70
     1
  9
$MAXACTVP
 70
    16
  9
$PLIMCHECK
 70
     0
  9
$PEXTMIN
 10
1.0000000000000000E+020
 20
1.0000000000000000E+020
 30
1.0000000000000000E+020
  9
$PEXTMAX
 10
-1.0000000000000000E+020
 20
-1.0000000000000000E+020
 30
-1.0000000000000000E+020
  9
$PLIMMIN
 10
0.0
 20
0.0
  9
$PLIMMAX
 10
12.0
 20
9.0
  9
$UNITMODE
 70
     0
  9
$VISRETAIN
 70
     0
  9
$PLINEGEN
 70
     0
  9
$PSLTSCALE
 70
     0
  0
ENDSEC
  0
SECTION
  2
TABLES
  0
TABLE
  2
VPORT
 70
     1
  0
VPORT
  2
*ACTIVE
 70
     0
 10
0.0
 20
0.0
 11
1.0
 21
1.0
 12
374.98855678130462
 22
394.89452070385119
 13
0.0
 23
0.0
 14
20.0
 24
20.0
 15
20.0
 25
20.0
 16
0.0
 26
0.0
 36
1.0
 17
0.0
 27
0.0
 37
0.0
 40
802.76084457946263
 41
1.7807262569832401
 42
50.0
 43
0.0
 44
0.0
 50
0.0
 51
0.0
 71
     0
 72
   500
 73
     1
 74
     0
 75
     0
 76
     0
 77
     0
 78
     2
  0
ENDTAB
  0
TABLE
  2
LTYPE
 70
     5
  0
LTYPE
  2
CONTINUOUS
 70
     0
  3
Solid Line
 72
    65
 73
     0
 40
0.0
  0
LTYPE
  2
CENTER
 70
     0
  3
____ _ ____ _ ____ _ ____ _ ____ _ ____ _ ____
 72
    65
 73
     4
 40
2.0
 49
1.25
 49
-0.25
 49
0.25
 49
-0.25
  0
LTYPE
  2
HIDDEN
 70
     0
  3
_ _ _ _ _ _ _ _ _ _ _ _ _ _ _ _ _ _ _ _ _ _ _
 72
    65
 73
     2
 40
0.375
 49
0.25
 49
-0.125
  0
LTYPE
  2
PHANTOM
 70
     0
  3
_____ _ _ _____ _ _ _____ _ _ _____ _ _ ____
 72
    65
 73
     6
 40
2.5
 49
1.25
 49
-0.25
 49
0.25
 49
-0.25
 49
0.25
 49
-0.25
  0
LTYPE
  2
PHANTOM2
 70
     0
  3
___ _ _ ___ _ _ ___ _ _ ___ _ _
 72
    65
 73
     6
 40
1.25
 49
0.625
 49
-0.125
 49
0.125
 49
-0.125
 49
0.125
 49
-0.125
  0
ENDTAB
  0
TABLE
  2
LAYER
 70
     4
  0
LAYER
  2
0
 70
     0
 62
     7
  6
CONTINUOUS
  0
LAYER
  2
1
 70
     0
 62
     1
  6
CENTER
  0
LAYER
  2
2
 70
     0
 62
     2
  6
HIDDEN
  0
LAYER
  2
5
 70
     0
 62
     3
  6
PHANTOM
  0
ENDTAB
  0
TABLE
  2
STYLE
 70
     2
  0
STYLE
  2
STANDARD
 70
     0
 40
0.0
 41
1.0
 50
0.0
 71
     0
 42
0.2
  3
simplex.shx
  4
BIGFONT.shx
  0
STYLE
  2
STANDARD1
 70
     0
 40
0.0
 41
1.0
 50
0.0
 71
     0
 42
3.0
  3
txt
  4

  0
ENDTAB
  0
TABLE
  2
VIEW
 70
     1
  0
VIEW
  2
ALL
 70
     0
 40
540.0
 10
441.98319327731087
 20
270.0
 41
0.0
 11
0.0
 21
0.0
 31
1.0
 12
0.0
 22
0.0
 32
0.0
 42
0.0
 43
0.0
 44
0.0
 50
0.0
 71
     0
  0
ENDTAB
  0
TABLE
  2
UCS
 70
     0
  0
ENDTAB
  0
TABLE
  2
APPID
 70
     3
  0
APPID
  2
ACAD
 70
     0
  0
APPID
  2
ACAD_MLEADERVER
 70
     0
  0
APPID
  2
ACAD_NAV_VCDISPLAY
 70
     0
  0
ENDTAB
  0
TABLE
  2
DIMSTYLE
 70
     1
  0
DIMSTYLE
  2
STANDARD
 70
     0
  3

  4

  5

  6

  7

 40
1.0
 41
0.18
 42
0.0625
 43
0.38
 44
0.18
 45
0.0
 46
0.0
 47
0.0
 48
0.0
140
0.18
141
0.09
142
0.0
143
25.399999999999999
144
1.0
145
0.0
146
1.0
147
0.09
 71
     0
 72
     0
 73
     1
 74
     1
 75
     0
 76
     0
 77
     0
 78
     0
170
     0
171
     2
172
     0
173
     0
174
     0
175
     0
176
     0
177
     0
178
     0
  0
ENDTAB
  0
ENDSEC
  0
SECTION
  2
BLOCKS
  0
BLOCK
  8
0
  2
$MODEL_SPACE
 70
     0
 10
0.0
 20
0.0
 30
0.0
  3
$MODEL_SPACE
  1

  0
ENDBLK
  5
142
  8
0
  0
BLOCK
 67
     1
  8
0
  2
$PAPER_SPACE
 70
     0
 10
0.0
 20
0.0
 30
0.0
  3
$PAPER_SPACE
  1

  0
ENDBLK
  5
140
 67
     1
  8
0
  0
ENDSEC
  0
SECTION
  2
ENTITIES
  0
LINE
  5
37
  8
1
 10
335.0
 20
225.0
 30
0.0
 11
335.0
 21
315.0
 31
0.0
  0
LINE
  5
38
  8
0
 10
235.0
 20
306.0
 30
0.0
 11
235.0
 21
234.0
 31
0.0
  0
LINE
  5
39
  8
0
 10
239.0
 20
230.0
 30
0.0
 11
431.0
 21
230.0
 31
0.0
  0
LINE
  5
3A
  8
0
 10
431.0
 20
310.0
 30
0.0
 11
239.0
 21
310.0
 31
0.0
  0
LINE
  5
3B
  8
0
 10
418.0
 20
306.0
 30
0.0
 11
252.0
 21
306.0
 31
0.0
  0
LINE
  5
3C
  8
0
 10
252.0
 20
234.0
 30
0.0
 11
418.0
 21
234.0
 31
0.0
  0
LINE
  5
3D
  8
0
 10
250.0
 20
304.0
 30
0.0
 11
250.0
 21
236.0
 31
0.0
  0
LINE
  5
3E
  8
0
 10
254.19999999999999
 20
236.1999999999999
 30
0.0
 11
415.7999999999999
 21
236.1999999999999
 31
0.0
  0
LINE
  5
3F
  8
0
 10
252.19999999999999
 20
303.80000000000001
 30
0.0
 11
252.19999999999999
 21
238.1999999999999
 31
0.0
  0
LINE
  5
40
  8
0
 10
404.0
 20
281.99999999999989
 30
0.0
 11
266.0
 21
281.99999999999989
 31
0.0
  0
LINE
  5
41
  8
0
 10
264.0
 20
303.80000000000001
 30
0.0
 11
264.0
 21
283.99999999999989
 31
0.0
  0
LINE
  5
42
  8
0
 10
264.0
 20
303.80000000000001
 30
0.0
 11
252.19999999999999
 21
303.80000000000001
 31
0.0
  0
ARC
  5
43
  8
0
 10
252.0
 20
236.0
 30
0.0
 40
2.0
 50
180.0
 51
270.0
  0
ARC
  5
44
  8
0
 10
266.0
 20
283.99999999999989
 30
0.0
 40
2.0
 50
180.0
 51
269.99999999999989
  0
ARC
  5
45
  8
0
 10
252.0
 20
304.0
 30
0.0
 40
2.0
 50
89.999999999999915
 51
180.0
  0
ARC
  5
46
  8
0
 10
254.19999999999999
 20
238.1999999999999
 30
0.0
 40
2.0
 50
180.0
 51
270.0
  0
CIRCLE
  5
47
  8
0
 10
243.0
 20
245.0
 30
0.0
 40
2.1000000000000001
  0
CIRCLE
  5
48
  8
0
 10
243.0
 20
245.0
 30
0.0
 40
4.0
  0
LINE
  5
49
  8
1
 10
252.0
 20
245.0
 30
0.0
 11
234.0
 21
245.0
 31
0.0
  0
LINE
  5
4A
  8
1
 10
243.0
 20
236.0
 30
0.0
 11
243.0
 21
254.0
 31
0.0
  0
LINE
  5
4B
  8
1
 10
243.0
 20
304.0
 30
0.0
 11
243.0
 21
286.0
 31
0.0
  0
CIRCLE
  5
4C
  8
0
 10
243.0
 20
295.0
 30
0.0
 40
4.0
  0
CIRCLE
  5
4D
  8
0
 10
243.0
 20
295.0
 30
0.0
 40
2.1000000000000001
  0
LINE
  5
4E
  8
1
 10
252.0
 20
295.0
 30
0.0
 11
234.0
 21
295.0
 31
0.0
  0
LINE
  5
66
  8
0
 10
253.25
 20
301.00000000000227
 30
0.0
 11
253.25
 21
241.0
 31
0.0
  0
LINE
  5
70
  8
0
 10
256.25
 20
237.99999999999989
 30
0.0
 11
413.75
 21
237.99999999999989
 31
0.0
  0
LINE
  5
71
  8
0
 10
273.44999999999999
 20
253.5
 30
0.0
 11
396.55000000000001
 21
253.5
 31
0.0
  0
LINE
  5
85
  8
0
 10
263.44999999999999
 20
301.00000000000227
 30
0.0
 11
263.44999999999999
 21
263.49999999999989
 31
0.0
  0
LINE
  5
86
  8
0
 10
255.25
 20
303.00000000000227
 30
0.0
 11
261.44999999999999
 21
303.00000000000227
 31
0.0
  0
LINE
  5
87
  8
0
 10
252.19999999999999
 20
286.49999999999989
 30
0.0
 11
253.24999999999989
 21
286.49999999999989
 31
0.0
  0
LINE
  5
88
  8
0
 10
252.19999999999999
 20
283.99999999999989
 30
0.0
 11
253.24999999999989
 21
283.99999999999989
 31
0.0
  0
LINE
  5
89
  8
0
 10
263.44999999999999
 20
283.99999999999989
 30
0.0
 11
264.0
 21
283.99999999999989
 31
0.0
  0
LINE
  5
8A
  8
0
 10
263.44999999999999
 20
286.49999999999989
 30
0.0
 11
264.0
 21
286.49999999999989
 31
0.0
  0
LINE
  5
8B
  8
0
 10
264.0
 20
295.5
 30
0.0
 11
263.44999999999999
 21
295.5
 31
0.0
  0
LINE
  5
8C
  8
0
 10
253.25
 20
295.5
 30
0.0
 11
252.19999999999999
 21
295.5
 31
0.0
  0
LINE
  5
8D
  8
0
 10
253.25
 20
299.5
 30
0.0
 11
252.19999999999999
 21
299.5
 31
0.0
  0
LINE
  5
8E
  8
0
 10
264.0
 20
299.5
 30
0.0
 11
263.44999999999999
 21
299.5
 31
0.0
  0
ARC
  5
8F
  8
0
 10
255.25
 20
301.00000000000227
 30
0.0
 40
2.0
 50
89.999999999999986
 51
180.0
  0
ARC
  5
90
  8
0
 10
261.44999999999999
 20
301.00000000000227
 30
0.0
 40
2.0
 50
0.0
 51
89.999999999999915
  0
ARC
  5
91
  8
0
 10
273.44999999999999
 20
263.49999999999989
 30
0.0
 40
10.0
 50
180.0
 51
269.99999999999989
  0
ARC
  5
92
  8
0
 10
256.25
 20
241.0
 30
0.0
 40
3.0
 50
180.0
 51
269.99999999999989
  0
LINE
  5
93
  8
1
 10
245.0
 20
98.000000000000114
 30
0.0
 11
270.5
 21
98.000000000000114
 31
0.0
  0
ARC
  5
94
  8
0
 10
251.0
 20
87.0
 30
0.0
 40
1.0
 50
180.0
 51
269.99999999999989
  0
LINE
  5
95
  8
0
 10
333.0
 20
83.499999999999986
 30
0.0
 11
332.5
 21
86.0
 31
0.0
  0
LINE
  5
96
  8
0
 10
337.0
 20
83.499999999999986
 30
0.0
 11
333.0
 21
83.499999999999986
 31
0.0
  0
LINE
  5
97
  8
0
 10
337.5
 20
86.0
 30
0.0
 11
337.0
 21
83.499999999999986
 31
0.0
  0
LINE
  5
98
  8
0
 10
250.0
 20
104.0
 30
0.0
 11
250.0
 21
106.5
 31
0.0
  0
LINE
  5
99
  8
0
 10
250.0
 20
87.0
 30
0.0
 11
250.0
 21
102.0
 31
0.0
  0
LINE
  5
9A
  8
0
 10
235.0
 20
102.0
 30
0.0
 11
435.0
 21
102.0
 31
0.0
  0
LINE
  5
9B
  8
0
 10
235.0
 20
104.0
 30
0.0
 11
435.0
 21
104.0
 31
0.0
  0
LINE
  5
9C
  8
1
 10
335.0
 20
78.5
 30
0.0
 11
335.0
 21
111.5
 31
0.0
  0
LINE
  5
9D
  8
0
 10
250.0
 20
106.5
 30
0.0
 11
420.0
 21
106.5
 31
0.0
  0
LINE
  5
9E
  8
0
 10
235.0
 20
102.0
 30
0.0
 11
235.0
 21
104.0
 31
0.0
  0
LINE
  5
9F
  8
0
 10
419.0
 20
86.0
 30
0.0
 11
251.0
 21
86.0
 31
0.0
  0
CIRCLE
  5
A0
  8
2
 10
335.0
 20
244.0
 30
0.0
 40
4.0
  0
LINE
  5
A1
  8
1
 10
326.0
 20
244.0
 30
0.0
 11
344.0
 21
244.0
 31
0.0
  0
LINE
  5
A2
  8
1
 10
243.0
 20
109.5
 30
0.0
 11
243.0
 21
96.5
 31
0.0
  0
LINE
  5
A3
  8
1
 10
427.0
 20
109.5
 30
0.0
 11
427.0
 21
96.5
 31
0.0
  0
LINE
  5
A4
  8
0
 10
435.0
 20
102.0
 30
0.0
 11
435.0
 21
104.0
 31
0.0
  0
LINE
  5
A5
  8
0
 10
420.0
 20
87.0
 30
0.0
 11
420.0
 21
102.0
 31
0.0
  0
LINE
  5
A6
  8
0
 10
420.0
 20
104.0
 30
0.0
 11
420.0
 21
106.5
 31
0.0
  0
ARC
  5
A7
  8
0
 10
419.0
 20
87.0
 30
0.0
 40
1.0
 50
270.00000000000023
 51
0.000000000000014
  0
LINE
  5
A8
  8
1
 10
425.0
 20
98.000000000000114
 30
0.0
 11
399.5
 21
98.000000000000114
 31
0.0
  0
ARC
  5
A9
  8
0
 10
413.75
 20
241.0
 30
0.0
 40
3.0
 50
270.00000000000011
 51
0.0
  0
ARC
  5
AA
  8
0
 10
396.55000000000001
 20
263.49999999999989
 30
0.0
 40
10.0
 50
270.00000000000011
 51
0.0
  0
ARC
  5
AB
  8
0
 10
408.55000000000001
 20
301.00000000000227
 30
0.0
 40
2.0
 50
90.000000000000071
 51
180.0
  0
ARC
  5
AC
  8
0
 10
414.74999999999989
 20
301.00000000000227
 30
0.0
 40
2.0
 50
0.0
 51
90.000000000000057
  0
LINE
  5
AD
  8
0
 10
406.0
 20
299.5
 30
0.0
 11
406.55000000000001
 21
299.5
 31
0.0
  0
LINE
  5
AE
  8
0
 10
416.75
 20
299.5
 30
0.0
 11
417.7999999999999
 21
299.5
 31
0.0
  0
LINE
  5
AF
  8
0
 10
416.75
 20
295.5
 30
0.0
 11
417.7999999999999
 21
295.5
 31
0.0
  0
LINE
  5
B0
  8
0
 10
406.0
 20
295.5
 30
0.0
 11
406.55000000000001
 21
295.5
 31
0.0
  0
LINE
  5
B1
  8
0
 10
406.55000000000001
 20
286.49999999999989
 30
0.0
 11
406.0
 21
286.49999999999989
 31
0.0
  0
LINE
  5
B2
  8
0
 10
406.55000000000001
 20
283.99999999999989
 30
0.0
 11
406.0
 21
283.99999999999989
 31
0.0
  0
LINE
  5
B3
  8
0
 10
417.7999999999999
 20
283.99999999999989
 30
0.0
 11
416.75
 21
283.99999999999989
 31
0.0
  0
LINE
  5
B4
  8
0
 10
417.7999999999999
 20
286.49999999999989
 30
0.0
 11
416.75
 21
286.49999999999989
 31
0.0
  0
LINE
  5
B5
  8
0
 10
414.74999999999989
 20
303.00000000000227
 30
0.0
 11
408.55000000000001
 21
303.00000000000227
 31
0.0
  0
LINE
  5
B6
  8
0
 10
406.55000000000001
 20
301.00000000000227
 30
0.0
 11
406.55000000000001
 21
263.49999999999989
 31
0.0
  0
LINE
  5
B7
  8
0
 10
416.75
 20
301.00000000000227
 30
0.0
 11
416.74999999999989
 21
241.0
 31
0.0
  0
LINE
  5
B8
  8
1
 10
418.0
 20
295.0
 30
0.0
 11
436.0
 21
295.0
 31
0.0
  0
CIRCLE
  5
B9
  8
0
 10
427.0
 20
295.0
 30
0.0
 40
2.1000000000000001
  0
CIRCLE
  5
BA
  8
0
 10
427.0
 20
295.0
 30
0.0
 40
4.0
  0
LINE
  5
BB
  8
1
 10
427.0
 20
304.0
 30
0.0
 11
427.0
 21
286.0
 31
0.0
  0
LINE
  5
BC
  8
1
 10
427.0
 20
236.0
 30
0.0
 11
427.0
 21
254.0
 31
0.0
  0
LINE
  5
BD
  8
1
 10
418.0
 20
245.0
 30
0.0
 11
436.0
 21
245.0
 31
0.0
  0
CIRCLE
  5
BE
  8
0
 10
427.0
 20
245.0
 30
0.0
 40
4.0
  0
CIRCLE
  5
BF
  8
0
 10
427.0
 20
245.0
 30
0.0
 40
2.1000000000000001
  0
ARC
  5
C0
  8
0
 10
415.80000000000001
 20
238.1999999999999
 30
0.0
 40
2.0
 50
270.0
 51
0.0
  0
ARC
  5
C1
  8
0
 10
418.0
 20
304.0
 30
0.0
 40
2.0
 50
0.0
 51
90.000000000000071
  0
ARC
  5
C2
  8
0
 10
404.0
 20
283.99999999999989
 30
0.0
 40
2.0
 50
270.00000000000011
 51
0.0
  0
ARC
  5
C3
  8
0
 10
418.0
 20
236.0
 30
0.0
 40
2.0
 50
270.0
 51
0.0
  0
LINE
  5
C4
  8
0
 10
406.0
 20
303.80000000000001
 30
0.0
 11
417.7999999999999
 21
303.80000000000001
 31
0.0
  0
LINE
  5
C5
  8
0
 10
406.0
 20
303.80000000000001
 30
0.0
 11
406.0
 21
283.99999999999989
 31
0.0
  0
LINE
  5
C6
  8
0
 10
417.7999999999999
 20
303.80000000000001
 30
0.0
 11
417.7999999999999
 21
238.1999999999999
 31
0.0
  0
LINE
  5
C7
  8
0
 10
420.0
 20
304.0
 30
0.0
 11
420.0
 21
236.0
 31
0.0
  0
LINE
  5
C8
  8
0
 10
435.0
 20
306.0
 30
0.0
 11
435.0
 21
234.0
 31
0.0
  0
LINE
  5
C9
  8
2
 10
404.0
 20
306.0
 30
0.0
 11
404.0
 21
284.0
 31
0.0
  0
LINE
  5
CA
  8
2
 10
266.0
 20
284.0
 30
0.0
 11
404.0
 21
284.0
 31
0.0
  0
LINE
  5
CB
  8
2
 10
266.0
 20
306.0
 30
0.0
 11
266.0
 21
284.0
 31
0.0
  0
ARC
  5
CC
  8
0
 10
431.0
 20
306.0
 30
0.0
 40
4.0
 50
0.0
 51
89.999999999999915
  0
ARC
  5
CD
  8
0
 10
431.0
 20
234.0
 30
0.0
 40
4.0
 50
270.0
 51
360.0
  0
ARC
  5
CE
  8
0
 10
239.0
 20
234.0
 30
0.0
 40
4.0
 50
180.0
 51
270.0
  0
ARC
  5
CF
  8
0
 10
239.0
 20
306.0
 30
0.0
 40
4.0
 50
89.999999999999986
 51
180.0
  0
LINE
  5
D0
  8
1
 10
247.19999999999999
 20
297.5
 30
0.0
 11
269.0
 21
297.5
 31
0.0
  0
LINE
  5
D1
  8
1
 10
422.7999999999999
 20
297.5
 30
0.0
 11
401.0
 21
297.5
 31
0.0
  0
LINE
  5
D2
  8
1
 10
79.99999999999892
 20
297.5
 30
0.0
 11
151.5
 21
297.50000000000011
 31
0.0
  0
LINE
  5
D3
  8
5
 10
102.0
 20
292.99999999999977
 30
0.0
 11
95.5
 21
292.99999999999977
 31
0.0
  0
ARC
  5
D4
  8
5
 10
144.5
 20
292.99999999999977
 30
0.0
 40
2.0
 50
270.00000000000011
 51
359.99999999999989
  0
ARC
  5
D5
  8
5
 10
144.5
 20
300.99999999999989
 30
0.0
 40
2.0
 50
0.0000000000000254
 51
89.999999999999986
  0
LINE
  5
D6
  8
5
 10
144.5
 20
302.99999999999989
 30
0.0
 11
95.5
 21
302.99999999999989
 31
0.0
  0
LINE
  5
D7
  8
5
 10
144.5
 20
290.99999999999977
 30
0.0
 11
131.0
 21
290.99999999999989
 31
0.0
  0
LINE
  5
D8
  8
5
 10
102.0
 20
292.99999999999989
 30
0.0
 11
131.0
 21
290.99999999999989
 31
0.0
  0
LINE
  5
D9
  8
5
 10
146.5
 20
300.99999999999989
 30
0.0
 11
146.5
 21
292.99999999999977
 31
0.0
  0
ARC
  5
DA
  8
2
 10
82.499999999999943
 20
240.0
 30
0.0
 40
2.0
 50
180.00000000000011
 51
269.99999999999989
  0
ARC
  5
DB
  8
2
 10
90.500000000000057
 20
239.99999999999989
 30
0.0
 40
2.0
 50
270.00000000000011
 51
0.0
  0
LINE
  5
DC
  8
2
 10
81.5
 20
303.80000000000001
 30
0.0
 11
81.5
 21
286.49999999999989
 31
0.0
  0
LINE
  5
DD
  8
2
 10
77.499999999999943
 20
286.49999999999989
 30
0.0
 11
82.0
 21
286.49999999999989
 31
0.0
  0
LINE
  5
DE
  8
2
 10
77.499999999999943
 20
283.99999999999989
 30
0.0
 11
82.0
 21
283.99999999999989
 31
0.0
  0
LINE
  5
DF
  8
2
 10
82.0
 20
283.99999999999989
 30
0.0
 11
82.0
 21
286.49999999999989
 31
0.0
  0
ARC
  5
E0
  8
2
 10
84.500000000000114
 20
301.0
 30
0.0
 40
2.0
 50
90.000000000000057
 51
180.0
  0
ARC
  5
E1
  8
2
 10
88.000000000000114
 20
298.50000000000222
 30
0.0
 40
4.5000000000001128
 50
0.0000000000002544
 51
89.999999999999346
  0
LINE
  5
E2
  8
2
 10
87.999996185302834
 20
303.0
 30
0.0
 11
84.500000000000114
 21
303.0
 31
0.0
  0
LINE
  5
E3
  8
2
 10
82.499999999999943
 20
282.49999999999989
 30
0.0
 11
82.5
 21
301.0
 31
0.0
  0
LINE
  5
E4
  8
2
 10
82.5
 20
282.49999999999989
 30
0.0
 11
80.5
 21
253.5
 31
0.0
  0
LINE
  5
E5
  8
2
 10
80.499999999999943
 20
240.5
 30
0.0
 11
80.5
 21
253.5
 31
0.0
  0
LINE
  5
E6
  8
2
 10
92.500000000000057
 20
239.99999999999989
 30
0.0
 11
92.500000000000057
 21
298.50000000000227
 31
0.0
  0
LINE
  5
E7
  8
1
 10
87.0
 20
290.5
 30
0.0
 11
87.0
 21
304.5
 31
0.0
  0
ARC
  5
E8
  8
0
 10
76.0
 20
235.0
 30
0.0
 40
1.0
 50
180.00000000000011
 51
270.00000000000011
  0
ARC
  5
E9
  8
0
 10
76.0
 20
305.0
 30
0.0
 40
1.0
 50
90.000000000000071
 51
180.0
  0
ARC
  5
EA
  8
2
 10
78.499999999999943
 20
302.80000000000001
 30
0.0
 40
1.0
 50
90.000000000000142
 51
180.0
  0
ARC
  5
EB
  8
2
 10
78.5
 20
237.1999999999999
 30
0.0
 40
1.0
 50
180.00000000000011
 51
270.00000000000011
  0
LINE
  5
EC
  8
2
 10
78.5
 20
236.1999999999999
 30
0.0
 11
95.5
 21
236.1999999999999
 31
0.0
  0
LINE
  5
ED
  8
2
 10
78.499999999999943
 20
303.80000000000001
 30
0.0
 11
95.5
 21
303.80000000000001
 31
0.0
  0
ARC
  5
EE
  8
2
 10
79.5
 20
247.0
 30
0.0
 40
1.0
 50
0.0000000000000254
 51
90.000000000000057
  0
ARC
  5
EF
  8
2
 10
79.5
 20
241.0
 30
0.0
 40
1.0
 50
270.00000000000011
 51
0.0000000000000254
  0
LINE
  5
F0
  8
0
 10
72.5
 20
242.0
 30
0.0
 11
75.0
 21
241.5
 31
0.0
  0
LINE
  5
F1
  8
0
 10
72.5
 20
246.0
 30
0.0
 11
72.5
 21
242.0
 31
0.0
  0
LINE
  5
F2
  8
0
 10
75.0
 20
246.5
 30
0.0
 11
72.5
 21
246.0
 31
0.0
  0
LINE
  5
F3
  8
2
 10
79.5
 20
240.0
 30
0.0
 11
77.5
 21
240.0
 31
0.0
  0
LINE
  5
F4
  8
2
 10
80.5
 20
247.0
 30
0.0
 11
80.5
 21
240.0
 31
0.0
  0
LINE
  5
F5
  8
2
 10
77.5
 20
248.0
 30
0.0
 11
79.5
 21
248.0
 31
0.0
  0
LINE
  5
F6
  8
2
 10
77.5
 20
237.1999999999999
 30
0.0
 11
77.499999999999943
 21
302.80000000000001
 31
0.0
  0
LINE
  5
F7
  8
1
 10
85.5
 20
244.0
 30
0.0
 11
67.397886310722754
 21
244.0
 31
0.0
  0
LINE
  5
F8
  8
0
 10
93.0
 20
234.0
 30
0.0
 11
95.5
 21
234.0
 31
0.0
  0
LINE
  5
F9
  8
0
 10
91.0
 20
306.0
 30
0.0
 11
76.0
 21
306.0
 31
0.0
  0
LINE
  5
FA
  8
0
 10
95.5
 20
306.0
 30
0.0
 11
93.0
 21
306.0
 31
0.0
  0
LINE
  5
FB
  8
0
 10
76.0
 20
234.0
 30
0.0
 11
91.0
 21
234.0
 31
0.0
  0
LINE
  5
FC
  8
0
 10
91.0
 20
230.0
 30
0.0
 11
91.0
 21
310.0
 31
0.0
  0
LINE
  5
FD
  8
0
 10
93.0
 20
230.0
 30
0.0
 11
93.0
 21
310.0
 31
0.0
  0
LINE
  5
FE
  8
1
 10
70.0
 20
270.0
 30
0.0
 11
100.5
 21
270.0
 31
0.0
  0
LINE
  5
FF
  8
2
 10
90.500000000000057
 20
237.99999999999989
 30
0.0
 11
82.499999999999943
 21
238.0
 31
0.0
  0
CIRCLE
  5
100
  8
0
 10
87.0
 20
297.5
 30
0.0
 40
2.0
  0
LINE
  5
101
  8
0
 10
93.0
 20
310.0
 30
0.0
 11
91.0
 21
310.0
 31
0.0
  0
LINE
  5
102
  8
0
 10
95.5
 20
234.0
 30
0.0
 11
95.5
 21
306.0
 31
0.0
  0
LINE
  5
103
  8
0
 10
91.0
 20
230.0
 30
0.0
 11
93.0
 21
230.0
 31
0.0
  0
LINE
  5
104
  8
0
 10
75.0
 20
305.0
 30
0.0
 11
75.0
 21
235.0
 31
0.0
  0
TEXT
  5
24D
  8
0
 62
     3
 10
0.0
 20
0.0
 30
0.0
 40
10.0
  1
TR1-184
  7
STANDARD1
  0
ENDSEC
  0
EOF
