  0
SECTION
  2
HEADER
  9
$ACADVER
  1
AC1009
  9
$INSBASE
 10
0.0
 20
0.0
 30
0.0
  9
$EXTMIN
 10
0.0
 20
-2.960436562073669
 30
0.0
  9
$EXTMAX
 10
261.464
 20
307.98800000000011
 30
0.0
  9
$LIMMIN
 10
0.0
 20
0.0
  9
$LIMMAX
 10
750.0
 20
540.0
  9
$ORTHOMODE
 70
     1
  9
$REGENMODE
 70
     1
  9
$FILLMODE
 70
     1
  9
$QTEXTMODE
 70
     0
  9
$MIRRTEXT
 70
     0
  9
$DRAGMODE
 70
     2
  9
$LTSCALE
 40
10.0
  9
$OSMODE
 70
    37
  9
$ATTMODE
 70
     1
  9
$TEXTSIZE
 40
0.2
  9
$TRACEWID
 40
0.05
  9
$TEXTSTYLE
  7
STANDARD
  9
$CLAYER
  8
0
  9
$CELTYPE
  6
BYLAYER
  9
$CECOLOR
 62
   256
  9
$DIMSCALE
 40
1.0
  9
$DIMASZ
 40
3.0
  9
$DIMEXO
 40
2.0
  9
$DIMDLI
 40
0.38
  9
$DIMRND
 40
0.0
  9
$DIMDLE
 40
0.0
  9
$DIMEXE
 40
2.0
  9
$DIMTP
 40
0.0
  9
$DIMTM
 40
0.0
  9
$DIMTXT
 40
3.2000000000000002
  9
$DIMCEN
 40
0.0
  9
$DIMTSZ
 40
0.0
  9
$DIMTOL
 70
     0
  9
$DIMLIM
 70
     0
  9
$DIMTIH
 70
     0
  9
$DIMTOH
 70
     0
  9
$DIMSE1
 70
     0
  9
$DIMSE2
 70
     0
  9
$DIMTAD
 70
     1
  9
$DIMZIN
 70
     8
  9
$DIMBLK
  1

  9
$DIMASO
 70
     0
  9
$DIMSHO
 70
     0
  9
$DIMPOST
  1

  9
$DIMAPOST
  1

  9
$DIMALT
 70
     0
  9
$DIMALTD
 70
     2
  9
$DIMALTF
 40
25.399999999999999
  9
$DIMLFAC
 40
1.0
  9
$DIMTOFL
 70
     0
  9
$DIMTVP
 40
1.6000000000000001
  9
$DIMTIX
 70
     1
  9
$DIMSOXD
 70
     0
  9
$DIMSAH
 70
     0
  9
$DIMBLK1
  1

  9
$DIMBLK2
  1

  9
$DIMSTYLE
  2
STANDARD
  9
$DIMCLRD
 70
     0
  9
$DIMCLRE
 70
     0
  9
$DIMCLRT
 70
     0
  9
$DIMTFAC
 40
1.0
  9
$DIMGAP
 40
0.09
  9
$LUNITS
 70
     2
  9
$LUPREC
 70
     1
  9
$SKETCHINC
 40
0.1
  9
$FILLETRAD
 40
0.0
  9
$AUNITS
 70
     0
  9
$AUPREC
 70
     1
  9
$MENU
  1
E:\r13\win\SUPPORT\ACAD
  9
$ELEVATION
 40
0.0
  9
$PELEVATION
 40
0.0
  9
$THICKNESS
 40
0.0
  9
$LIMCHECK
 70
     0
  9
$BLIPMODE
 70
     0
  9
$CHAMFERA
 40
0.0
  9
$CHAMFERB
 40
0.0
  9
$SKPOLY
 70
     0
  9
$TDCREATE
 40
2449840.6227546302
  9
$TDUPDATE
 40
2459439.7256292589
  9
$TDINDWG
 40
0.1673824769
  9
$TDUSRTIMER
 40
2456598.5036456371
  9
$USRTIMER
 70
     1
  9
$ANGBASE
 50
0.0
  9
$ANGDIR
 70
     0
  9
$PDMODE
 70
     0
  9
$PDSIZE
 40
0.0
  9
$PLINEWID
 40
0.0
  9
$COORDS
 70
     1
  9
$SPLFRAME
 70
     0
  9
$SPLINETYPE
 70
     6
  9
$SPLINESEGS
 70
     8
  9
$ATTDIA
 70
     0
  9
$ATTREQ
 70
     1
  9
$HANDLING
 70
     1
  9
$HANDSEED
  5
1AF5
  9
$SURFTAB1
 70
     6
  9
$SURFTAB2
 70
     6
  9
$SURFTYPE
 70
     6
  9
$SURFU
 70
     6
  9
$SURFV
 70
     6
  9
$UCSNAME
  2

  9
$UCSORG
 10
0.0
 20
0.0
 30
0.0
  9
$UCSXDIR
 10
1.0
 20
0.0
 30
0.0
  9
$UCSYDIR
 10
0.0
 20
1.0
 30
0.0
  9
$PUCSNAME
  2

  9
$PUCSORG
 10
0.0
 20
0.0
 30
0.0
  9
$PUCSXDIR
 10
1.0
 20
0.0
 30
0.0
  9
$PUCSYDIR
 10
0.0
 20
1.0
 30
0.0
  9
$USERI1
 70
     0
  9
$USERI2
 70
     1
  9
$USERI3
 70
     0
  9
$USERI4
 70
     0
  9
$USERI5
 70
     0
  9
$USERR1
 40
0.0
  9
$USERR2
 40
0.0
  9
$USERR3
 40
0.0
  9
$USERR4
 40
0.0
  9
$USERR5
 40
0.0
  9
$WORLDVIEW
 70
     1
  9
$SHADEDGE
 70
     3
  9
$SHADEDIF
 70
    70
  9
$TILEMODE
 70
     1
  9
$MAXACTVP
 70
    16
  9
$PLIMCHECK
 70
     0
  9
$PEXTMIN
 10
1.0000000000000000E+020
 20
1.0000000000000000E+020
 30
1.0000000000000000E+020
  9
$PEXTMAX
 10
-1.0000000000000000E+020
 20
-1.0000000000000000E+020
 30
-1.0000000000000000E+020
  9
$PLIMMIN
 10
0.0
 20
0.0
  9
$PLIMMAX
 10
12.0
 20
9.0
  9
$UNITMODE
 70
     0
  9
$VISRETAIN
 70
     0
  9
$PLINEGEN
 70
     0
  9
$PSLTSCALE
 70
     0
  0
ENDSEC
  0
SECTION
  2
TABLES
  0
TABLE
  2
VPORT
 70
     1
  0
VPORT
  2
*ACTIVE
 70
     0
 10
0.0
 20
0.0
 11
1.0
 21
1.0
 12
520.3915171288744
 22
200.0
 13
0.0
 23
0.0
 14
20.0
 24
20.0
 15
20.0
 25
20.0
 16
0.0
 26
0.0
 36
1.0
 17
0.0
 27
0.0
 37
0.0
 40
400.0
 41
2.6019575856443722
 42
50.0
 43
0.0
 44
0.0
 50
0.0
 51
0.0
 71
    16
 72
   100
 73
     1
 74
     0
 75
     0
 76
     0
 77
     0
 78
     2
  0
ENDTAB
  0
TABLE
  2
LTYPE
 70
     4
  0
LTYPE
  2
CONTINUOUS
 70
     0
  3
Solid Line
 72
    65
 73
     0
 40
0.0
  0
LTYPE
  2
CENTER
 70
     0
  3
____ _ ____ _ ____ _ ____ _ ____ _ ____ _ ____
 72
    65
 73
     4
 40
2.0
 49
1.25
 49
-0.25
 49
0.25
 49
-0.25
  0
LTYPE
  2
HIDDEN
 70
     0
  3
_ _ _ _ _ _ _ _ _ _ _ _ _ _ _ _ _ _ _ _ _ _ _
 72
    65
 73
     2
 40
0.375
 49
0.25
 49
-0.125
  0
LTYPE
  2
PHANTOM2
 70
     0
  3
___ _ _ ___ _ _ ___ _ _ ___ _ _
 72
    65
 73
     6
 40
1.25
 49
0.625
 49
-0.125
 49
0.125
 49
-0.125
 49
0.125
 49
-0.125
  0
ENDTAB
  0
TABLE
  2
LAYER
 70
     3
  0
LAYER
  2
0
 70
     0
 62
     7
  6
CONTINUOUS
  0
LAYER
  2
1
 70
     0
 62
     1
  6
CENTER
  0
LAYER
  2
2
 70
     0
 62
     2
  6
HIDDEN
  0
ENDTAB
  0
TABLE
  2
STYLE
 70
     2
  0
STYLE
  2
STANDARD
 70
     0
 40
0.0
 41
1.0
 50
0.0
 71
     0
 42
0.2
  3
TXT
  4
BIGFONT
  0
STYLE
  2
STANDARD1
 70
     0
 40
0.0
 41
1.0
 50
0.0
 71
     0
 42
3.0
  3
txt
  4

  0
ENDTAB
  0
TABLE
  2
VIEW
 70
     1
  0
VIEW
  2
ALL
 70
     0
 40
540.0
 10
441.98319299999991
 20
270.0
 41
0.0
 11
0.0
 21
0.0
 31
1.0
 12
0.0
 22
0.0
 32
0.0
 42
50.0
 43
0.0
 44
0.0
 50
0.0
 71
     0
  0
ENDTAB
  0
TABLE
  2
UCS
 70
     0
  0
ENDTAB
  0
TABLE
  2
APPID
 70
     6
  0
APPID
  2
ACAD
 70
     0
  0
APPID
  2
ACAD_NAV_VCDISPLAY
 70
     0
  0
APPID
  2
ACAD_EXEMPT_FROM_CAD_STANDARDS
 70
     0
  0
APPID
  2
ACAD_DSTYLE_DIMJAG
 70
     0
  0
APPID
  2
ACAD_DSTYLE_DIMTALN
 70
     0
  0
APPID
  2
ACAD_MLEADERVER
 70
     0
  0
ENDTAB
  0
TABLE
  2
DIMSTYLE
 70
     1
  0
DIMSTYLE
  2
STANDARD
 70
     0
  3

  4

  5

  6

  7

 40
1.0
 41
0.18
 42
0.0625
 43
0.38
 44
0.18
 45
0.0
 46
0.0
 47
0.0
 48
0.0
140
0.18
141
0.09
142
0.0
143
25.399999999999999
144
1.0
145
0.0
146
1.0
147
0.09
 71
     0
 72
     0
 73
     1
 74
     1
 75
     0
 76
     0
 77
     0
 78
     0
170
     0
171
     2
172
     0
173
     0
174
     0
175
     0
176
     0
177
     0
178
     0
  0
ENDTAB
  0
ENDSEC
  0
SECTION
  2
BLOCKS
  0
BLOCK
  8
0
  2
$MODEL_SPACE
 70
     0
 10
0.0
 20
0.0
 30
0.0
  3
$MODEL_SPACE
  1

  0
ENDBLK
  5
11D
  8
0
  0
BLOCK
 67
     1
  8
0
  2
$PAPER_SPACE
 70
     0
 10
0.0
 20
0.0
 30
0.0
  3
$PAPER_SPACE
  1

  0
ENDBLK
  5
11B
 67
     1
  8
0
  0
ENDSEC
  0
SECTION
  2
ENTITIES
  0
TEXT
  5
453
  8
0
 62
     3
 10
0.0
 20
0.0
 30
0.0
 40
10.0
  1
TPTRB-10155
  7
STANDARD1
  0
LINE
  5
18F3
  8
0
 10
256.46400000000011
 20
198.04400000000001
 30
0.0
 11
154.864
 21
198.04400000000001
 31
0.0
  0
LINE
  5
18F5
  8
0
 10
154.864
 20
159.94399999999999
 30
0.0
 11
256.46400000000011
 21
159.94399999999999
 31
0.0
  0
LINE
  5
18F7
  8
0
 10
256.46400000000011
 20
154.864
 30
0.0
 11
154.864
 21
154.864
 31
0.0
  0
LINE
  5
18FA
  8
0
 10
256.46400000000011
 20
203.12400000000011
 30
0.0
 11
154.864
 21
203.12400000000011
 31
0.0
  0
LINE
  5
18FB
  8
0
 10
256.46400000000011
 20
203.12400000000011
 30
0.0
 11
256.46400000000011
 21
154.864
 31
0.0
  0
LINE
  5
18FC
  8
0
 10
154.864
 20
203.12400000000011
 30
0.0
 11
154.86400000000009
 21
154.864
 31
0.0
  0
ARC
  5
18FD
  8
2
 10
231.06400000000011
 20
144.32780300162619
 30
0.0
 40
27.913821233384031
 50
70.325324921088253
 51
109.6746750789117
  0
ARC
  5
18FE
  8
2
 10
180.26400000000001
 20
144.32780300162619
 30
0.0
 40
27.913821233384091
 50
70.325324921088253
 51
109.6746750789117
  0
ARC
  5
18FF
  8
2
 10
180.26400000000001
 20
213.66019699837381
 30
0.0
 40
27.913821233384009
 50
250.32532492109519
 51
289.67467507891178
  0
ARC
  5
1900
  8
2
 10
231.06399999999999
 20
213.66019699837389
 30
0.0
 40
27.913821233384109
 50
250.32532492109519
 51
289.67467507891178
  0
LINE
  5
1901
  8
2
 10
221.666
 20
167.56399999999999
 30
0.0
 11
240.4620000000001
 21
167.56399999999999
 31
0.0
  0
LINE
  5
1902
  8
2
 10
170.8660000000001
 20
167.56399999999999
 30
0.0
 11
189.66200000000001
 21
167.56399999999999
 31
0.0
  0
LINE
  5
1903
  8
2
 10
240.4620000000001
 20
170.61199999999999
 30
0.0
 11
256.46400000000011
 21
170.61199999999999
 31
0.0
  0
LINE
  5
1904
  8
2
 10
189.66200000000009
 20
170.61199999999999
 30
0.0
 11
221.666
 21
170.61199999999999
 31
0.0
  0
LINE
  5
1905
  8
2
 10
154.864
 20
170.61199999999999
 30
0.0
 11
170.8660000000001
 21
170.61199999999999
 31
0.0
  0
LINE
  5
1906
  8
2
 10
170.8660000000001
 20
187.376
 30
0.0
 11
154.864
 21
187.376
 31
0.0
  0
LINE
  5
1907
  8
2
 10
221.666
 20
187.376
 30
0.0
 11
189.66200000000001
 21
187.376
 31
0.0
  0
LINE
  5
1908
  8
2
 10
256.46400000000011
 20
187.376
 30
0.0
 11
240.4620000000001
 21
187.376
 31
0.0
  0
LINE
  5
1909
  8
2
 10
221.666
 20
170.61199999999999
 30
0.0
 11
221.666
 21
167.56399999999999
 31
0.0
  0
LINE
  5
190A
  8
2
 10
240.4620000000001
 20
167.56399999999999
 30
0.0
 11
240.4620000000001
 21
170.61199999999999
 31
0.0
  0
LINE
  5
190B
  8
2
 10
221.666
 20
203.12400000000011
 30
0.0
 11
221.666
 21
187.376
 31
0.0
  0
LINE
  5
190C
  8
2
 10
240.4620000000001
 20
187.376
 30
0.0
 11
240.4620000000001
 21
203.12400000000011
 31
0.0
  0
LINE
  5
190D
  8
2
 10
170.8660000000001
 20
203.12400000000011
 30
0.0
 11
170.8660000000001
 21
187.376
 31
0.0
  0
LINE
  5
190E
  8
2
 10
189.66200000000001
 20
187.376
 30
0.0
 11
189.66200000000001
 21
203.12400000000011
 31
0.0
  0
LINE
  5
190F
  8
2
 10
170.8660000000001
 20
170.61199999999999
 30
0.0
 11
170.8660000000001
 21
167.56399999999999
 31
0.0
  0
LINE
  5
1910
  8
2
 10
189.66200000000001
 20
167.56399999999999
 30
0.0
 11
189.66200000000001
 21
170.61199999999999
 31
0.0
  0
LINE
  5
1911
  8
2
 10
236.14400000000009
 20
154.864
 30
0.0
 11
236.14400000000009
 21
167.56399999999999
 31
0.0
  0
LINE
  5
1912
  8
2
 10
225.98400000000001
 20
167.56399999999999
 30
0.0
 11
225.98400000000001
 21
154.864
 31
0.0
  0
LINE
  5
1913
  8
2
 10
185.34399999999999
 20
154.864
 30
0.0
 11
185.34399999999999
 21
167.56399999999999
 31
0.0
  0
LINE
  5
1914
  8
2
 10
175.18400000000011
 20
167.56399999999999
 30
0.0
 11
175.18400000000011
 21
154.864
 31
0.0
  0
LINE
  5
1915
  8
0
 10
256.46400000000011
 20
307.98800000000011
 30
0.0
 11
154.864
 21
307.98800000000011
 31
0.0
  0
LINE
  5
1916
  8
0
 10
154.864
 20
253.124
 30
0.0
 11
256.46400000000011
 21
253.124
 31
0.0
  0
LINE
  5
1918
  8
0
 10
154.864
 20
296.30400000000009
 30
0.0
 11
256.46400000000011
 21
296.30400000000009
 31
0.0
  0
CIRCLE
  5
191B
  8
0
 10
180.26400000000001
 20
280.55599999999998
 30
0.0
 40
9.3980000000000246
  0
LINE
  5
191C
  8
0
 10
256.46400000000011
 20
264.80800000000011
 30
0.0
 11
154.864
 21
264.80800000000011
 31
0.0
  0
CIRCLE
  5
191D
  8
0
 10
231.06399999999999
 20
280.55599999999998
 30
0.0
 40
9.3979999999999677
  0
LINE
  5
1923
  8
0
 10
256.46400000000011
 20
253.124
 30
0.0
 11
256.46400000000011
 21
307.98800000000011
 31
0.0
  0
LINE
  5
1924
  8
0
 10
154.864
 20
307.98800000000011
 30
0.0
 11
154.86400000000009
 21
253.124
 31
0.0
  0
CIRCLE
  5
1927
  8
0
 10
180.26400000000001
 20
280.55599999999998
 30
0.0
 40
5.0799999999999841
  0
CIRCLE
  5
1928
  8
0
 10
231.06399999999999
 20
280.55599999999998
 30
0.0
 40
5.08000000000004
  0
POLYLINE
  5
192D
  8
0
 66
     1
 10
0.0
 20
0.0
 30
0.0
 70
   128
  0
VERTEX
  5
1ABB
  8
0
 10
92.926000000000045
 20
178.994
 30
0.0
  0
VERTEX
  5
1ABC
  8
0
 10
92.852741903391802
 20
179.80813182643121
 30
0.0
  0
VERTEX
  5
1ABD
  8
0
 10
92.630849147356116
 20
180.62226365286219
 30
0.0
  0
VERTEX
  5
1ABE
  8
0
 10
92.292920148918938
 20
181.3655260417905
 30
0.0
  0
VERTEX
  5
1ABF
  8
0
 10
91.845836411841333
 20
182.0688318415543
 30
0.0
  0
VERTEX
  5
1AC0
  8
0
 10
90.934181530854516
 20
183.10530207460229
 30
0.0
  0
VERTEX
  5
1AC1
  8
0
 10
89.843598429132825
 20
184.01134983952079
 30
0.0
  0
VERTEX
  5
1AC2
  8
0
 10
88.600321140701112
 20
184.80378712002721
 30
0.0
  0
VERTEX
  5
1AC3
  8
0
 10
87.334256892282383
 20
185.44077578779809
 30
0.0
  0
VERTEX
  5
1AC4
  8
0
 10
86.009938579967738
 20
185.97421916668449
 30
0.0
  0
VERTEX
  5
1AC5
  8
0
 10
84.112657250713355
 20
186.5568048281192
 30
0.0
  0
VERTEX
  5
1AC6
  8
0
 10
82.156883323689826
 20
186.97675368733479
 30
0.0
  0
VERTEX
  5
1AC7
  8
0
 10
80.133514992213804
 20
187.24760611359321
 30
0.0
  0
VERTEX
  5
1AC8
  8
0
 10
78.084182656946254
 20
187.36857115073769
 30
0.0
  0
VERTEX
  5
1AC9
  8
0
 10
76.012279075371339
 20
187.34073767000501
 30
0.0
  0
VERTEX
  5
1ACA
  8
0
 10
73.936889519586884
 20
187.1599542563045
 30
0.0
  0
VERTEX
  5
1ACB
  8
0
 10
72.250524892575982
 20
186.89340460564841
 30
0.0
  0
VERTEX
  5
1ACC
  8
0
 10
70.578617771578806
 20
186.511437576367
 30
0.0
  0
VERTEX
  5
1ACD
  8
0
 10
68.045858090719094
 20
185.66291221196201
 30
0.0
  0
VERTEX
  5
1ACE
  8
0
 10
66.809464781784641
 20
185.0959924866454
 30
0.0
  0
VERTEX
  5
1ACF
  8
0
 10
65.618923856668744
 20
184.417755735621
 30
0.0
  0
VERTEX
  5
1AD0
  8
0
 10
64.583886748180134
 20
183.6787437987303
 30
0.0
  0
VERTEX
  5
1AD1
  8
0
 10
63.633659799565059
 20
182.8066812759657
 30
0.0
  0
VERTEX
  5
1AD2
  8
0
 10
62.95287985472384
 20
181.97771541534971
 30
0.0
  0
VERTEX
  5
1AD3
  8
0
 10
62.400767420873763
 20
181.02726967777869
 30
0.0
  0
VERTEX
  5
1AD4
  8
0
 10
62.118898728202218
 20
180.27110698366559
 30
0.0
  0
VERTEX
  5
1AD5
  8
0
 10
61.961688903357867
 20
179.45732666386851
 30
0.0
  0
VERTEX
  5
1AD6
  8
0
 10
61.937999999999988
 20
178.994
 30
0.0
  0
SEQEND
  5
1AD7
  8
0
  0
POLYLINE
  5
192E
  8
0
 66
     1
 10
0.0
 20
0.0
 30
0.0
 70
   128
  0
VERTEX
  5
1AD8
  8
0
 10
61.937999999999988
 20
178.994
 30
0.0
  0
VERTEX
  5
1AD9
  8
0
 10
62.011258096608231
 20
178.17986817356891
 30
0.0
  0
VERTEX
  5
1ADA
  8
0
 10
62.233150852643917
 20
177.3657363471377
 30
0.0
  0
VERTEX
  5
1ADB
  8
0
 10
62.571079851081102
 20
176.62247395820941
 30
0.0
  0
VERTEX
  5
1ADC
  8
0
 10
63.018163588158693
 20
175.9191681584457
 30
0.0
  0
VERTEX
  5
1ADD
  8
0
 10
63.929818469145509
 20
174.88269792539759
 30
0.0
  0
VERTEX
  5
1ADE
  8
0
 10
65.020401570867193
 20
173.97665016047921
 30
0.0
  0
VERTEX
  5
1ADF
  8
0
 10
66.263678859298921
 20
173.18421287997279
 30
0.0
  0
VERTEX
  5
1AE0
  8
0
 10
67.529743107717536
 20
172.54722421220191
 30
0.0
  0
VERTEX
  5
1AE1
  8
0
 10
68.854061420032281
 20
172.01378083331551
 30
0.0
  0
VERTEX
  5
1AE2
  8
0
 10
70.751342749286664
 20
171.4311951718808
 30
0.0
  0
VERTEX
  5
1AE3
  8
0
 10
72.707116676310079
 20
171.01124631266521
 30
0.0
  0
VERTEX
  5
1AE4
  8
0
 10
74.730485007786115
 20
170.74039388640679
 30
0.0
  0
VERTEX
  5
1AE5
  8
0
 10
76.779817343053764
 20
170.61942884926231
 30
0.0
  0
VERTEX
  5
1AE6
  8
0
 10
78.85172092462858
 20
170.6472623299949
 30
0.0
  0
VERTEX
  5
1AE7
  8
0
 10
80.927110480413134
 20
170.8280457436955
 30
0.0
  0
VERTEX
  5
1AE8
  8
0
 10
82.613475107424051
 20
171.09459539435159
 30
0.0
  0
VERTEX
  5
1AE9
  8
0
 10
84.285382228421213
 20
171.476562423633
 30
0.0
  0
VERTEX
  5
1AEA
  8
0
 10
86.818141909280925
 20
172.32508778803791
 30
0.0
  0
VERTEX
  5
1AEB
  8
0
 10
88.054535218215378
 20
172.89200751335451
 30
0.0
  0
VERTEX
  5
1AEC
  8
0
 10
89.245076143331275
 20
173.570244264379
 30
0.0
  0
VERTEX
  5
1AED
  8
0
 10
90.280113251819898
 20
174.3092562012697
 30
0.0
  0
VERTEX
  5
1AEE
  8
0
 10
91.230340200434966
 20
175.18131872403421
 30
0.0
  0
VERTEX
  5
1AEF
  8
0
 10
91.911120145276186
 20
176.01028458465021
 30
0.0
  0
VERTEX
  5
1AF0
  8
0
 10
92.463232579126256
 20
176.96073032222131
 30
0.0
  0
VERTEX
  5
1AF1
  8
0
 10
92.745101271797793
 20
177.71689301633441
 30
0.0
  0
VERTEX
  5
1AF2
  8
0
 10
92.902311096642165
 20
178.53067333613151
 30
0.0
  0
VERTEX
  5
1AF3
  8
0
 10
92.926000000000045
 20
178.994
 30
0.0
  0
SEQEND
  5
1AF4
  8
0
  0
LINE
  5
192F
  8
0
 10
93.179999999999964
 20
154.864
 30
0.0
 11
61.684000000000083
 21
154.864
 31
0.0
  0
LINE
  5
1930
  8
0
 10
61.684000000000083
 20
154.864
 30
0.0
 11
54.063999999999957
 21
159.94399999999999
 31
0.0
  0
ARC
  5
1931
  8
0
 10
96.680437499999925
 20
178.994
 30
0.0
 40
46.680437499999911
 50
155.9148497142283
 51
204.08515028577239
  0
LINE
  5
1932
  8
0
 10
54.063999999999957
 20
198.04400000000001
 30
0.0
 11
61.684000000000083
 21
203.124
 31
0.0
  0
LINE
  5
1933
  8
0
 10
61.684000000000083
 20
203.124
 30
0.0
 11
93.179999999999964
 21
203.124
 31
0.0
  0
LINE
  5
1934
  8
0
 10
93.179999999999964
 20
203.124
 30
0.0
 11
100.8
 21
198.04400000000001
 31
0.0
  0
ARC
  5
1935
  8
0
 10
58.183562500000107
 20
178.994
 30
0.0
 40
46.680437499999911
 50
335.91484971422841
 51
24.08515028577165
  0
LINE
  5
1936
  8
0
 10
100.8
 20
159.94399999999999
 30
0.0
 11
93.179999999999964
 21
154.864
 31
0.0
  0
LINE
  5
1938
  8
2
 10
68.033999999999992
 20
167.56399999999999
 30
0.0
 11
86.829999999999913
 21
167.56399999999999
 31
0.0
  0
LINE
  5
1939
  8
2
 10
68.033999999999992
 20
203.124
 30
0.0
 11
68.033999999999992
 21
185.67215381927389
 31
0.0
  0
LINE
  5
193A
  8
2
 10
86.830000000000055
 20
185.67215381927389
 30
0.0
 11
86.830000000000055
 21
203.124
 31
0.0
  0
LINE
  5
193B
  8
2
 10
68.033999999999992
 20
172.31584618072611
 30
0.0
 11
68.033999999999992
 21
167.56399999999999
 31
0.0
  0
LINE
  5
193C
  8
2
 10
86.830000000000055
 20
167.56399999999999
 30
0.0
 11
86.830000000000055
 21
172.31584618072611
 31
0.0
  0
LINE
  5
193D
  8
2
 10
82.512000000000057
 20
154.864
 30
0.0
 11
82.512000000000057
 21
167.56399999999999
 31
0.0
  0
LINE
  5
193E
  8
2
 10
72.351999999999975
 20
167.56399999999999
 30
0.0
 11
72.351999999999975
 21
154.864
 31
0.0
  0
LINE
  5
193F
  8
0
 10
154.864
 20
50.0
 30
0.0
 11
256.46400000000011
 21
50.0
 31
0.0
  0
LINE
  5
1940
  8
0
 10
256.46400000000011
 20
104.864
 30
0.0
 11
154.864
 21
104.864
 31
0.0
  0
LINE
  5
1941
  8
0
 10
256.46400000000011
 20
61.684000000000012
 30
0.0
 11
154.864
 21
61.684000000000012
 31
0.0
  0
CIRCLE
  5
1945
  8
0
 10
231.06399999999999
 20
77.432000000000031
 30
0.0
 40
5.08000000000004
  0
CIRCLE
  5
1946
  8
0
 10
180.26400000000001
 20
77.432000000000016
 30
0.0
 40
5.0799999999999841
  0
LINE
  5
1947
  8
0
 10
256.46400000000011
 20
93.180000000000035
 30
0.0
 11
154.864
 21
93.179999999999993
 31
0.0
  0
LINE
  5
194F
  8
0
 10
256.46400000000011
 20
104.864
 30
0.0
 11
256.46400000000011
 21
50.0
 31
0.0
  0
LINE
  5
1950
  8
0
 10
154.864
 20
104.864
 30
0.0
 11
154.86399999999989
 21
50.0
 31
0.0
  0
CIRCLE
  5
1951
  8
2
 10
231.06399999999999
 20
77.432000000000031
 30
0.0
 40
9.3979999999999677
  0
CIRCLE
  5
1952
  8
2
 10
180.26400000000001
 20
77.432000000000016
 30
0.0
 40
9.3980000000000246
  0
LINE
  5
1997
  8
1
 10
77.431999999999903
 20
208.124
 30
0.0
 11
77.431999999999903
 21
149.864
 31
0.0
  0
LINE
  5
1998
  8
1
 10
109.864
 20
178.994
 30
0.0
 11
45.0
 21
178.994
 31
0.0
  0
LINE
  5
19D5
  8
1
 10
180.26400000000001
 20
292.95400000000012
 30
0.0
 11
180.26400000000001
 21
268.15800000000007
 31
0.0
  0
LINE
  5
19D6
  8
1
 10
231.06399999999999
 20
292.95399999999989
 30
0.0
 11
231.06399999999999
 21
268.15800000000007
 31
0.0
  0
LINE
  5
19D7
  8
1
 10
149.86400000000009
 20
280.55599999999998
 30
0.0
 11
261.464
 21
280.55599999999998
 31
0.0
  0
LINE
  5
1A24
  8
1
 10
180.26400000000001
 20
89.830000000000041
 30
0.0
 11
180.26400000000001
 21
65.033999999999992
 31
0.0
  0
LINE
  5
1A25
  8
1
 10
231.06399999999999
 20
89.829999999999998
 30
0.0
 11
231.06399999999999
 21
65.034000000000063
 31
0.0
  0
LINE
  5
1A26
  8
1
 10
261.464
 20
77.432000000000031
 30
0.0
 11
149.86399999999989
 21
77.432000000000031
 31
0.0
  0
LINE
  5
1A32
  8
1
 10
231.06400000000011
 20
208.12400000000011
 30
0.0
 11
231.06400000000011
 21
149.864
 31
0.0
  0
LINE
  5
1A33
  8
1
 10
180.26400000000001
 20
208.12400000000011
 30
0.0
 11
180.26400000000001
 21
149.864
 31
0.0
  0
LINE
  5
1A34
  8
1
 10
261.464
 20
178.994
 30
0.0
 11
149.86400000000009
 21
178.994
 31
0.0
  0
ENDSEC
  0
EOF
