  0
SECTION
  2
HEADER
  9
$ACADVER
  1
AC1009
  9
$INSBASE
 10
0.0
 20
0.0
 30
0.0
  9
$EXTMIN
 10
2.4999998535936778
 20
-2.9604365655360301
 30
0.0
  9
$EXTMAX
 10
96.722409419859616
 20
123.9381073957682
 30
0.0
  9
$LIMMIN
 10
0.0
 20
0.0
  9
$LIMMAX
 10
750.0
 20
540.0
  9
$ORTHOMODE
 70
     1
  9
$REGENMODE
 70
     1
  9
$FILLMODE
 70
     1
  9
$QTEXTMODE
 70
     0
  9
$MIRRTEXT
 70
     0
  9
$DRAGMODE
 70
     2
  9
$LTSCALE
 40
10.0
  9
$OSMODE
 70
  3071
  9
$ATTMODE
 70
     1
  9
$TEXTSIZE
 40
0.2
  9
$TRACEWID
 40
0.05
  9
$TEXTSTYLE
  7
STANDARD
  9
$CLAYER
  8
0
  9
$CELTYPE
  6
BYLAYER
  9
$CECOLOR
 62
   256
  9
$DIMSCALE
 40
1.0
  9
$DIMASZ
 40
3.0
  9
$DIMEXO
 40
2.0
  9
$DIMDLI
 40
0.38
  9
$DIMRND
 40
0.0
  9
$DIMDLE
 40
0.0
  9
$DIMEXE
 40
2.0
  9
$DIMTP
 40
0.0
  9
$DIMTM
 40
0.0
  9
$DIMTXT
 40
3.2000000000000002
  9
$DIMCEN
 40
0.0
  9
$DIMTSZ
 40
0.0
  9
$DIMTOL
 70
     0
  9
$DIMLIM
 70
     0
  9
$DIMTIH
 70
     0
  9
$DIMTOH
 70
     0
  9
$DIMSE1
 70
     0
  9
$DIMSE2
 70
     0
  9
$DIMTAD
 70
     1
  9
$DIMZIN
 70
     0
  9
$DIMBLK
  1

  9
$DIMASO
 70
     0
  9
$DIMSHO
 70
     0
  9
$DIMPOST
  1

  9
$DIMAPOST
  1

  9
$DIMALT
 70
     0
  9
$DIMALTD
 70
     2
  9
$DIMALTF
 40
25.399999999999999
  9
$DIMLFAC
 40
1.0
  9
$DIMTOFL
 70
     0
  9
$DIMTVP
 40
1.6000000000000001
  9
$DIMTIX
 70
     1
  9
$DIMSOXD
 70
     0
  9
$DIMSAH
 70
     0
  9
$DIMBLK1
  1

  9
$DIMBLK2
  1

  9
$DIMSTYLE
  2
STANDARD
  9
$DIMCLRD
 70
     0
  9
$DIMCLRE
 70
     0
  9
$DIMCLRT
 70
     0
  9
$DIMTFAC
 40
1.0
  9
$DIMGAP
 40
0.09
  9
$LUNITS
 70
     2
  9
$LUPREC
 70
     4
  9
$SKETCHINC
 40
0.1
  9
$FILLETRAD
 40
0.0
  9
$AUNITS
 70
     0
  9
$AUPREC
 70
     4
  9
$MENU
  1
E:\r13\win\SUPPORT\ACAD
  9
$ELEVATION
 40
0.0
  9
$PELEVATION
 40
0.0
  9
$THICKNESS
 40
0.0
  9
$LIMCHECK
 70
     0
  9
$BLIPMODE
 70
     0
  9
$CHAMFERA
 40
0.0
  9
$CHAMFERB
 40
0.0
  9
$SKPOLY
 70
     0
  9
$TDCREATE
 40
2449840.6227546302
  9
$TDUPDATE
 40
2456602.6114970138
  9
$TDINDWG
 40
0.0231709144
  9
$TDUSRTIMER
 40
2456598.3516260651
  9
$USRTIMER
 70
     1
  9
$ANGBASE
 50
0.0
  9
$ANGDIR
 70
     0
  9
$PDMODE
 70
     0
  9
$PDSIZE
 40
0.0
  9
$PLINEWID
 40
0.0
  9
$COORDS
 70
     1
  9
$SPLFRAME
 70
     0
  9
$SPLINETYPE
 70
     6
  9
$SPLINESEGS
 70
     8
  9
$ATTDIA
 70
     0
  9
$ATTREQ
 70
     1
  9
$HANDLING
 70
     1
  9
$HANDSEED
  5
681
  9
$SURFTAB1
 70
     6
  9
$SURFTAB2
 70
     6
  9
$SURFTYPE
 70
     6
  9
$SURFU
 70
     6
  9
$SURFV
 70
     6
  9
$UCSNAME
  2

  9
$UCSORG
 10
0.0
 20
0.0
 30
0.0
  9
$UCSXDIR
 10
1.0
 20
0.0
 30
0.0
  9
$UCSYDIR
 10
0.0
 20
1.0
 30
0.0
  9
$PUCSNAME
  2

  9
$PUCSORG
 10
0.0
 20
0.0
 30
0.0
  9
$PUCSXDIR
 10
1.0
 20
0.0
 30
0.0
  9
$PUCSYDIR
 10
0.0
 20
1.0
 30
0.0
  9
$USERI1
 70
     0
  9
$USERI2
 70
     1
  9
$USERI3
 70
     0
  9
$USERI4
 70
     0
  9
$USERI5
 70
     0
  9
$USERR1
 40
0.0
  9
$USERR2
 40
0.0
  9
$USERR3
 40
0.0
  9
$USERR4
 40
0.0
  9
$USERR5
 40
0.0
  9
$WORLDVIEW
 70
     1
  9
$SHADEDGE
 70
     3
  9
$SHADEDIF
 70
    70
  9
$TILEMODE
 70
     1
  9
$MAXACTVP
 70
    16
  9
$PLIMCHECK
 70
     0
  9
$PEXTMIN
 10
1.0000000000000000E+020
 20
1.0000000000000000E+020
 30
1.0000000000000000E+020
  9
$PEXTMAX
 10
-1.0000000000000000E+020
 20
-1.0000000000000000E+020
 30
-1.0000000000000000E+020
  9
$PLIMMIN
 10
0.0
 20
0.0
  9
$PLIMMAX
 10
12.0
 20
9.0
  9
$UNITMODE
 70
     0
  9
$VISRETAIN
 70
     0
  9
$PLINEGEN
 70
     0
  9
$PSLTSCALE
 70
     0
  0
ENDSEC
  0
SECTION
  2
TABLES
  0
TABLE
  2
VPORT
 70
     1
  0
VPORT
  2
*ACTIVE
 70
     0
 10
0.0
 20
0.0
 11
1.0
 21
1.0
 12
138.82084590147599
 22
58.66377490942552
 13
0.0
 23
0.0
 14
20.0
 24
20.0
 15
20.0
 25
20.0
 16
0.0
 26
0.0
 36
1.0
 17
0.0
 27
0.0
 37
0.0
 40
197.7972961675236
 41
1.831871345029239
 42
50.0
 43
0.0
 44
0.0
 50
0.0
 51
0.0
 71
    16
 72
   100
 73
     1
 74
     0
 75
     0
 76
     0
 77
     0
 78
     2
  0
ENDTAB
  0
TABLE
  2
LTYPE
 70
     7
  0
LTYPE
  2
CONTINUOUS
 70
     0
  3
Solid Line
 72
    65
 73
     0
 40
0.0
  0
LTYPE
  2
CENTER
 70
     0
  3
____ _ ____ _ ____ _ ____ _ ____ _ ____ _ ____
 72
    65
 73
     4
 40
2.0
 49
1.25
 49
-0.25
 49
0.25
 49
-0.25
  0
LTYPE
  2
HIDDEN
 70
     0
  3
_ _ _ _ _ _ _ _ _ _ _ _ _ _ _ _ _ _ _ _ _ _ _
 72
    65
 73
     2
 40
0.375
 49
0.25
 49
-0.125
  0
LTYPE
  2
PHANTOM2
 70
     0
  3
___ _ _ ___ _ _ ___ _ _ ___ _ _
 72
    65
 73
     6
 40
1.25
 49
0.625
 49
-0.125
 49
0.125
 49
-0.125
 49
0.125
 49
-0.125
  0
LTYPE
  2
CNS_SOLID
 70
     0
  3

 72
    65
 73
     0
 40
0.0
  0
LTYPE
  2
CNS_DASHED
 70
     0
  3

 72
    65
 73
     2
 40
2.0
 49
1.0
 49
-1.0
  0
LTYPE
  2
CNS_CENTER
 70
     0
  3

 72
    65
 73
     4
 40
2.0
 49
0.45
 49
-0.5
 49
0.05
 49
-0.5
  0
ENDTAB
  0
TABLE
  2
LAYER
 70
     4
  0
LAYER
  2
0
 70
     0
 62
     7
  6
CONTINUOUS
  0
LAYER
  2
1
 70
     0
 62
     1
  6
CENTER
  0
LAYER
  2
2
 70
     0
 62
     2
  6
HIDDEN
  0
LAYER
  2
3
 70
     0
 62
     3
  6
CONTINUOUS
  0
ENDTAB
  0
TABLE
  2
STYLE
 70
     2
  0
STYLE
  2
STANDARD
 70
     0
 40
0.0
 41
1.0
 50
0.0
 71
     0
 42
0.2
  3
TXT
  4
BIGFONT
  0
STYLE
  2
STANDARD1
 70
     0
 40
0.0
 41
1.0
 50
0.0
 71
     0
 42
3.0
  3
txt
  4

  0
ENDTAB
  0
TABLE
  2
VIEW
 70
     1
  0
VIEW
  2
ALL
 70
     0
 40
540.0
 10
441.98319299999991
 20
270.0
 41
0.0
 11
0.0
 21
0.0
 31
1.0
 12
0.0
 22
0.0
 32
0.0
 42
0.0
 43
0.0
 44
0.0
 50
0.0
 71
     0
  0
ENDTAB
  0
TABLE
  2
UCS
 70
     0
  0
ENDTAB
  0
TABLE
  2
APPID
 70
     8
  0
APPID
  2
ACAD
 70
     0
  0
APPID
  2
ACAD_NAV_VCDISPLAY
 70
     0
  0
APPID
  2
ACAD_EXEMPT_FROM_CAD_STANDARDS
 70
     0
  0
APPID
  2
ACAD_DSTYLE_DIMJAG
 70
     0
  0
APPID
  2
ACAD_DSTYLE_DIMTALN
 70
     0
  0
APPID
  2
ACAD_MLEADERVER
 70
     0
  0
APPID
  2
ACAD_PSEXT
 70
     0
  0
APPID
  2
ACADANNOTATIVE
 70
     0
  0
ENDTAB
  0
TABLE
  2
DIMSTYLE
 70
     3
  0
DIMSTYLE
  2
STANDARD
 70
     0
  3

  4

  5

  6

  7

 40
1.0
 41
0.18
 42
0.0625
 43
0.38
 44
0.18
 45
0.0
 46
0.0
 47
0.0
 48
0.0
140
0.18
141
0.09
142
0.0
143
25.399999999999999
144
1.0
145
0.0
146
1.0
147
0.09
 71
     0
 72
     0
 73
     1
 74
     1
 75
     0
 76
     0
 77
     0
 78
     0
170
     0
171
     2
172
     0
173
     0
174
     0
175
     0
176
     0
177
     0
178
     0
  0
DIMSTYLE
  2
ISO-25
 70
     0
  3

  4

  5

  6

  7

 40
1.0
 41
2.5
 42
0.625
 43
3.75
 44
1.25
 45
0.0
 46
0.0
 47
0.0
 48
0.0
140
2.5
141
2.5
142
0.0
143
0.03937007874016
144
1.0
145
0.0
146
1.0
147
0.625
 71
     0
 72
     0
 73
     0
 74
     0
 75
     0
 76
     0
 77
     1
 78
     8
170
     0
171
     3
172
     1
173
     0
174
     0
175
     0
176
     0
177
     0
178
     0
  0
DIMSTYLE
  2
ANNOTATIVE
 70
     0
  3

  4

  5

  6

  7

 40
0.0
 41
2.5
 42
0.625
 43
3.75
 44
1.25
 45
0.0
 46
0.0
 47
0.0
 48
0.0
140
2.5
141
2.5
142
0.0
143
0.03937007874016
144
1.0
145
0.0
146
1.0
147
0.625
 71
     0
 72
     0
 73
     0
 74
     0
 75
     0
 76
     0
 77
     1
 78
     8
170
     0
171
     3
172
     1
173
     0
174
     0
175
     0
176
     0
177
     0
178
     0
  0
ENDTAB
  0
ENDSEC
  0
SECTION
  2
BLOCKS
  0
BLOCK
  8
0
  2
$MODEL_SPACE
 70
     0
 10
0.0
 20
0.0
 30
0.0
  3
$MODEL_SPACE
  1

  0
ENDBLK
  5
11D
  8
0
  0
BLOCK
 67
     1
  8
0
  2
$PAPER_SPACE
 70
     0
 10
0.0
 20
0.0
 30
0.0
  3
$PAPER_SPACE
  1

  0
ENDBLK
  5
11B
 67
     1
  8
0
  0
ENDSEC
  0
SECTION
  2
ENTITIES
  0
LINE
  5
370
  8
2
 10
44.823899699063141
 20
65.236328106519153
 30
0.0
 11
44.823899699063141
 21
69.727833099936475
 31
0.0
  0
LINE
  5
371
  8
2
 10
50.148100008166892
 20
65.236328106525065
 30
0.0
 11
50.148100008166892
 21
69.727833099944064
 31
0.0
  0
LINE
  5
372
  8
2
 10
42.789594765412367
 20
87.583928083690665
 30
0.0
 11
42.789594765412367
 21
82.976373306940076
 31
0.0
  0
LINE
  5
373
  8
2
 10
52.182404941815797
 20
87.583928083680377
 30
0.0
 11
52.182404941815797
 21
82.976373306926376
 31
0.0
  0
CIRCLE
  5
374
  8
0
 10
47.485999853593682
 20
116.74170230754601
 30
0.0
 40
4.6964050882221198
  0
LINE
  5
375
  8
1
 10
47.485999853593682
 20
109.5452972193239
 30
0.0
 11
47.485999853593682
 21
123.9381073957682
 31
0.0
  0
LINE
  5
376
  8
1
 10
40.289594765371547
 20
116.74170230754601
 30
0.0
 11
54.682404941815797
 21
116.74170230754601
 31
0.0
  0
LINE
  5
377
  8
0
 10
81.014409419859646
 20
88.166292741280174
 30
0.0
 11
81.014409419859646
 21
65.052292365000937
 31
0.0
  0
LINE
  5
378
  8
0
 10
94.222409419859645
 20
88.166292741280174
 30
0.0
 11
94.222409419859645
 21
65.052292365000937
 31
0.0
  0
LINE
  5
379
  8
1
 10
47.485999853593668
 20
31.436890109562999
 30
0.0
 11
47.485999853593668
 21
41.771109883512281
 31
0.0
  0
LINE
  5
37A
  8
1
 10
42.31934124830272
 20
36.603999996537652
 30
0.0
 11
52.652999852284822
 21
36.603999996537652
 31
0.0
  0
LINE
  5
37B
  8
1
 10
47.486041508719786
 20
90.666278259801473
 30
0.0
 11
47.485958198466577
 21
62.552307222758742
 31
0.0
  0
LINE
  5
37C
  8
1
 10
29.999999853593689
 20
76.609292741280044
 30
0.0
 11
64.971999853593672
 21
76.609292741280044
 31
0.0
  0
LINE
  5
37D
  8
1
 10
78.514409419859646
 20
76.609292741280044
 30
0.0
 11
96.722409419859616
 21
76.609292741280029
 31
0.0
  0
LINE
  5
37E
  8
1
 10
87.618451075029185
 20
90.666292741280088
 30
0.0
 11
87.618367764690106
 21
62.55229274128002
 31
0.0
  0
LINE
  5
37F
  8
0
 10
82.919428284973534
 20
88.166292364884569
 30
0.0
 11
81.014409419859646
 21
88.166292364884654
 31
0.0
  0
LINE
  5
380
  8
0
 10
94.222409419859645
 20
88.166292364884583
 30
0.0
 11
92.317428284973573
 21
88.166292364884569
 31
0.0
  0
LINE
  5
381
  8
0
 10
90.285389030515518
 20
65.052292365000937
 30
0.0
 11
94.222409419859645
 21
65.052292365000937
 31
0.0
  0
LINE
  5
382
  8
0
 10
81.014409419859646
 20
65.052292365000937
 30
0.0
 11
84.951389030515543
 21
65.052292365000937
 31
0.0
  0
LINE
  5
383
  8
2
 10
90.285389030515518
 20
69.497292365000931
 30
0.0
 11
94.22240941985963
 21
69.497292365000931
 31
0.0
  0
LINE
  5
384
  8
2
 10
81.014409419859646
 20
69.497292365000931
 30
0.0
 11
84.951389030515543
 21
69.497292365000931
 31
0.0
  0
LINE
  5
385
  8
2
 10
82.919428284973534
 20
83.721292364884604
 30
0.0
 11
81.014409419859646
 21
83.721292364884675
 31
0.0
  0
LINE
  5
386
  8
2
 10
94.222409419859645
 20
83.721292364884604
 30
0.0
 11
92.317428284973573
 21
83.721292364884604
 31
0.0
  0
LINE
  5
387
  8
2
 10
92.317428284973573
 20
88.166292364884569
 30
0.0
 11
92.317428284973573
 21
83.721292364884604
 31
0.0
  0
LINE
  5
388
  8
2
 10
82.919428284973534
 20
83.721292364884604
 30
0.0
 11
82.919428284973534
 21
88.166292364884569
 31
0.0
  0
LINE
  5
389
  8
2
 10
84.951389030515543
 20
65.052292365000937
 30
0.0
 11
84.951389030515543
 21
69.497292365000931
 31
0.0
  0
LINE
  5
38A
  8
2
 10
90.285389030515518
 20
69.497292365000931
 30
0.0
 11
90.285389030515518
 21
65.052292365000937
 31
0.0
  0
POLYLINE
  5
38B
  8
0
 66
     1
 10
0.0
 20
0.0
 30
0.0
 70
     1
  0
VERTEX
  5
56E
  8
0
 10
32.499999853593692
 20
110.1377023075173
 30
0.0
  0
VERTEX
  5
56F
  8
0
 10
62.471999853593687
 20
110.1377023075173
 30
0.0
  0
VERTEX
  5
570
  8
0
 10
62.471999853593687
 20
123.3457023075173
 30
0.0
  0
VERTEX
  5
571
  8
0
 10
32.499999853593692
 20
123.3457023075173
 30
0.0
  0
SEQEND
  5
572
  8
0
  0
POLYLINE
  5
38C
  8
0
 66
     1
 10
0.0
 20
0.0
 30
0.0
 70
     1
  0
VERTEX
  5
573
  8
0
 10
32.499999853593678
 20
29.999999996537639
 30
0.0
  0
VERTEX
  5
574
  8
0
 10
62.471999853593672
 20
29.999999996537639
 30
0.0
  0
VERTEX
  5
575
  8
0
 10
62.471999853593672
 20
43.207999996537637
 30
0.0
  0
VERTEX
  5
576
  8
0
 10
32.499999853593678
 20
43.207999996537637
 30
0.0
  0
SEQEND
  5
577
  8
0
  0
CIRCLE
  5
38D
  8
0
 10
47.485999853593668
 20
36.603999996537652
 30
0.0
 40
2.6671168046414939
  0
POLYLINE
  5
38E
  8
0
 10
62.471999853593694
 20
76.609292741280044
 30
0.0
 66
     1
 70
     8
  0
VERTEX
  8
0
  5
57D
 10
62.4720
 20
76.6093
 30
0.000000
  70
    32
  0
VERTEX
  8
0
  5
57E
 10
62.4539
 20
77.1764
 30
0.000000
  70
    32
  0
VERTEX
  8
0
  5
57F
 10
62.3998
 20
77.7421
 30
0.000000
  70
    32
  0
VERTEX
  8
0
  5
580
 10
62.3098
 20
78.3051
 30
0.000000
  70
    32
  0
VERTEX
  8
0
  5
581
 10
62.1840
 20
78.8640
 30
0.000000
  70
    32
  0
VERTEX
  8
0
  5
582
 10
62.0229
 20
79.4174
 30
0.000000
  70
    32
  0
VERTEX
  8
0
  5
583
 10
61.8267
 20
79.9641
 30
0.000000
  70
    32
  0
VERTEX
  8
0
  5
584
 10
61.5960
 20
80.5027
 30
0.000000
  70
    32
  0
VERTEX
  8
0
  5
585
 10
61.3313
 20
81.0320
 30
0.000000
  70
    32
  0
VERTEX
  8
0
  5
586
 10
61.0332
 20
81.5505
 30
0.000000
  70
    32
  0
VERTEX
  8
0
  5
587
 10
60.7025
 20
82.0572
 30
0.000000
  70
    32
  0
VERTEX
  8
0
  5
588
 10
60.3399
 20
82.5508
 30
0.000000
  70
    32
  0
VERTEX
  8
0
  5
589
 10
59.9464
 20
83.0300
 30
0.000000
  70
    32
  0
VERTEX
  8
0
  5
58A
 10
59.5229
 20
83.4938
 30
0.000000
  70
    32
  0
VERTEX
  8
0
  5
58B
 10
59.0703
 20
83.9410
 30
0.000000
  70
    32
  0
VERTEX
  8
0
  5
58C
 10
58.5899
 20
84.3705
 30
0.000000
  70
    32
  0
VERTEX
  8
0
  5
58D
 10
58.0827
 20
84.7813
 30
0.000000
  70
    32
  0
VERTEX
  8
0
  5
58E
 10
57.5500
 20
85.1725
 30
0.000000
  70
    32
  0
VERTEX
  8
0
  5
58F
 10
56.9930
 20
85.5430
 30
0.000000
  70
    32
  0
VERTEX
  8
0
  5
590
 10
56.4131
 20
85.8920
 30
0.000000
  70
    32
  0
VERTEX
  8
0
  5
591
 10
55.8118
 20
86.2186
 30
0.000000
  70
    32
  0
VERTEX
  8
0
  5
592
 10
55.1903
 20
86.5221
 30
0.000000
  70
    32
  0
VERTEX
  8
0
  5
593
 10
54.5504
 20
86.8017
 30
0.000000
  70
    32
  0
VERTEX
  8
0
  5
594
 10
53.8933
 20
87.0567
 30
0.000000
  70
    32
  0
VERTEX
  8
0
  5
595
 10
53.2209
 20
87.2866
 30
0.000000
  70
    32
  0
VERTEX
  8
0
  5
596
 10
52.5346
 20
87.4907
 30
0.000000
  70
    32
  0
VERTEX
  8
0
  5
597
 10
51.8362
 20
87.6687
 30
0.000000
  70
    32
  0
VERTEX
  8
0
  5
598
 10
51.1273
 20
87.8199
 30
0.000000
  70
    32
  0
VERTEX
  8
0
  5
599
 10
50.4096
 20
87.9442
 30
0.000000
  70
    32
  0
VERTEX
  8
0
  5
59A
 10
49.6849
 20
88.0412
 30
0.000000
  70
    32
  0
VERTEX
  8
0
  5
59B
 10
48.9549
 20
88.1106
 30
0.000000
  70
    32
  0
VERTEX
  8
0
  5
59C
 10
48.2213
 20
88.1524
 30
0.000000
  70
    32
  0
VERTEX
  8
0
  5
59D
 10
47.4860
 20
88.1663
 30
0.000000
  70
    32
  0
VERTEX
  8
0
  5
59E
 10
46.7507
 20
88.1524
 30
0.000000
  70
    32
  0
VERTEX
  8
0
  5
59F
 10
46.0171
 20
88.1106
 30
0.000000
  70
    32
  0
VERTEX
  8
0
  5
5A0
 10
45.2871
 20
88.0412
 30
0.000000
  70
    32
  0
VERTEX
  8
0
  5
5A1
 10
44.5624
 20
87.9442
 30
0.000000
  70
    32
  0
VERTEX
  8
0
  5
5A2
 10
43.8447
 20
87.8199
 30
0.000000
  70
    32
  0
VERTEX
  8
0
  5
5A3
 10
43.1358
 20
87.6687
 30
0.000000
  70
    32
  0
VERTEX
  8
0
  5
5A4
 10
42.4374
 20
87.4907
 30
0.000000
  70
    32
  0
VERTEX
  8
0
  5
5A5
 10
41.7511
 20
87.2866
 30
0.000000
  70
    32
  0
VERTEX
  8
0
  5
5A6
 10
41.0787
 20
87.0567
 30
0.000000
  70
    32
  0
VERTEX
  8
0
  5
5A7
 10
40.4216
 20
86.8017
 30
0.000000
  70
    32
  0
VERTEX
  8
0
  5
5A8
 10
39.7817
 20
86.5221
 30
0.000000
  70
    32
  0
VERTEX
  8
0
  5
5A9
 10
39.1602
 20
86.2186
 30
0.000000
  70
    32
  0
VERTEX
  8
0
  5
5AA
 10
38.5589
 20
85.8920
 30
0.000000
  70
    32
  0
VERTEX
  8
0
  5
5AB
 10
37.9790
 20
85.5430
 30
0.000000
  70
    32
  0
VERTEX
  8
0
  5
5AC
 10
37.4220
 20
85.1725
 30
0.000000
  70
    32
  0
VERTEX
  8
0
  5
5AD
 10
36.8893
 20
84.7813
 30
0.000000
  70
    32
  0
VERTEX
  8
0
  5
5AE
 10
36.3821
 20
84.3705
 30
0.000000
  70
    32
  0
VERTEX
  8
0
  5
5AF
 10
35.9017
 20
83.9410
 30
0.000000
  70
    32
  0
VERTEX
  8
0
  5
5B0
 10
35.4491
 20
83.4938
 30
0.000000
  70
    32
  0
VERTEX
  8
0
  5
5B1
 10
35.0256
 20
83.0300
 30
0.000000
  70
    32
  0
VERTEX
  8
0
  5
5B2
 10
34.6321
 20
82.5508
 30
0.000000
  70
    32
  0
VERTEX
  8
0
  5
5B3
 10
34.2695
 20
82.0572
 30
0.000000
  70
    32
  0
VERTEX
  8
0
  5
5B4
 10
33.9388
 20
81.5505
 30
0.000000
  70
    32
  0
VERTEX
  8
0
  5
5B5
 10
33.6407
 20
81.0320
 30
0.000000
  70
    32
  0
VERTEX
  8
0
  5
5B6
 10
33.3760
 20
80.5027
 30
0.000000
  70
    32
  0
VERTEX
  8
0
  5
5B7
 10
33.1453
 20
79.9641
 30
0.000000
  70
    32
  0
VERTEX
  8
0
  5
5B8
 10
32.9491
 20
79.4174
 30
0.000000
  70
    32
  0
VERTEX
  8
0
  5
5B9
 10
32.7880
 20
78.8640
 30
0.000000
  70
    32
  0
VERTEX
  8
0
  5
5BA
 10
32.6622
 20
78.3051
 30
0.000000
  70
    32
  0
VERTEX
  8
0
  5
5BB
 10
32.5722
 20
77.7421
 30
0.000000
  70
    32
  0
VERTEX
  8
0
  5
5BC
 10
32.5181
 20
77.1764
 30
0.000000
  70
    32
  0
VERTEX
  8
0
  5
5BD
 10
32.5000
 20
76.6093
 30
0.000000
  70
    32
  0
VERTEX
  8
0
  5
5BE
 10
32.5181
 20
76.0422
 30
0.000000
  70
    32
  0
VERTEX
  8
0
  5
5BF
 10
32.5722
 20
75.4765
 30
0.000000
  70
    32
  0
VERTEX
  8
0
  5
5C0
 10
32.6622
 20
74.9135
 30
0.000000
  70
    32
  0
VERTEX
  8
0
  5
5C1
 10
32.7880
 20
74.3546
 30
0.000000
  70
    32
  0
VERTEX
  8
0
  5
5C2
 10
32.9491
 20
73.8012
 30
0.000000
  70
    32
  0
VERTEX
  8
0
  5
5C3
 10
33.1453
 20
73.2545
 30
0.000000
  70
    32
  0
VERTEX
  8
0
  5
5C4
 10
33.3760
 20
72.7159
 30
0.000000
  70
    32
  0
VERTEX
  8
0
  5
5C5
 10
33.6407
 20
72.1866
 30
0.000000
  70
    32
  0
VERTEX
  8
0
  5
5C6
 10
33.9388
 20
71.6680
 30
0.000000
  70
    32
  0
VERTEX
  8
0
  5
5C7
 10
34.2695
 20
71.1614
 30
0.000000
  70
    32
  0
VERTEX
  8
0
  5
5C8
 10
34.6321
 20
70.6678
 30
0.000000
  70
    32
  0
VERTEX
  8
0
  5
5C9
 10
35.0256
 20
70.1886
 30
0.000000
  70
    32
  0
VERTEX
  8
0
  5
5CA
 10
35.4491
 20
69.7248
 30
0.000000
  70
    32
  0
VERTEX
  8
0
  5
5CB
 10
35.9017
 20
69.2776
 30
0.000000
  70
    32
  0
VERTEX
  8
0
  5
5CC
 10
36.3821
 20
68.8481
 30
0.000000
  70
    32
  0
VERTEX
  8
0
  5
5CD
 10
36.8893
 20
68.4373
 30
0.000000
  70
    32
  0
VERTEX
  8
0
  5
5CE
 10
37.4220
 20
68.0461
 30
0.000000
  70
    32
  0
VERTEX
  8
0
  5
5CF
 10
37.9790
 20
67.6756
 30
0.000000
  70
    32
  0
VERTEX
  8
0
  5
5D0
 10
38.5589
 20
67.3266
 30
0.000000
  70
    32
  0
VERTEX
  8
0
  5
5D1
 10
39.1602
 20
67.0000
 30
0.000000
  70
    32
  0
VERTEX
  8
0
  5
5D2
 10
39.7817
 20
66.6965
 30
0.000000
  70
    32
  0
VERTEX
  8
0
  5
5D3
 10
40.4216
 20
66.4169
 30
0.000000
  70
    32
  0
VERTEX
  8
0
  5
5D4
 10
41.0787
 20
66.1619
 30
0.000000
  70
    32
  0
VERTEX
  8
0
  5
5D5
 10
41.7511
 20
65.9320
 30
0.000000
  70
    32
  0
VERTEX
  8
0
  5
5D6
 10
42.4374
 20
65.7279
 30
0.000000
  70
    32
  0
VERTEX
  8
0
  5
5D7
 10
43.1358
 20
65.5499
 30
0.000000
  70
    32
  0
VERTEX
  8
0
  5
5D8
 10
43.8447
 20
65.3986
 30
0.000000
  70
    32
  0
VERTEX
  8
0
  5
5D9
 10
44.5624
 20
65.2744
 30
0.000000
  70
    32
  0
VERTEX
  8
0
  5
5DA
 10
45.2871
 20
65.1774
 30
0.000000
  70
    32
  0
VERTEX
  8
0
  5
5DB
 10
46.0171
 20
65.1079
 30
0.000000
  70
    32
  0
VERTEX
  8
0
  5
5DC
 10
46.7507
 20
65.0662
 30
0.000000
  70
    32
  0
VERTEX
  8
0
  5
5DD
 10
47.4860
 20
65.0523
 30
0.000000
  70
    32
  0
VERTEX
  8
0
  5
5DE
 10
48.2213
 20
65.0662
 30
0.000000
  70
    32
  0
VERTEX
  8
0
  5
5DF
 10
48.9549
 20
65.1079
 30
0.000000
  70
    32
  0
VERTEX
  8
0
  5
5E0
 10
49.6849
 20
65.1774
 30
0.000000
  70
    32
  0
VERTEX
  8
0
  5
5E1
 10
50.4096
 20
65.2744
 30
0.000000
  70
    32
  0
VERTEX
  8
0
  5
5E2
 10
51.1273
 20
65.3986
 30
0.000000
  70
    32
  0
VERTEX
  8
0
  5
5E3
 10
51.8362
 20
65.5499
 30
0.000000
  70
    32
  0
VERTEX
  8
0
  5
5E4
 10
52.5346
 20
65.7279
 30
0.000000
  70
    32
  0
VERTEX
  8
0
  5
5E5
 10
53.2209
 20
65.9320
 30
0.000000
  70
    32
  0
VERTEX
  8
0
  5
5E6
 10
53.8933
 20
66.1619
 30
0.000000
  70
    32
  0
VERTEX
  8
0
  5
5E7
 10
54.5504
 20
66.4169
 30
0.000000
  70
    32
  0
VERTEX
  8
0
  5
5E8
 10
55.1903
 20
66.6965
 30
0.000000
  70
    32
  0
VERTEX
  8
0
  5
5E9
 10
55.8118
 20
67.0000
 30
0.000000
  70
    32
  0
VERTEX
  8
0
  5
5EA
 10
56.4131
 20
67.3266
 30
0.000000
  70
    32
  0
VERTEX
  8
0
  5
5EB
 10
56.9930
 20
67.6756
 30
0.000000
  70
    32
  0
VERTEX
  8
0
  5
5EC
 10
57.5500
 20
68.0461
 30
0.000000
  70
    32
  0
VERTEX
  8
0
  5
5ED
 10
58.0827
 20
68.4373
 30
0.000000
  70
    32
  0
VERTEX
  8
0
  5
5EE
 10
58.5899
 20
68.8481
 30
0.000000
  70
    32
  0
VERTEX
  8
0
  5
5EF
 10
59.0703
 20
69.2776
 30
0.000000
  70
    32
  0
VERTEX
  8
0
  5
5F0
 10
59.5229
 20
69.7248
 30
0.000000
  70
    32
  0
VERTEX
  8
0
  5
5F1
 10
59.9464
 20
70.1886
 30
0.000000
  70
    32
  0
VERTEX
  8
0
  5
5F2
 10
60.3399
 20
70.6678
 30
0.000000
  70
    32
  0
VERTEX
  8
0
  5
5F3
 10
60.7025
 20
71.1614
 30
0.000000
  70
    32
  0
VERTEX
  8
0
  5
5F4
 10
61.0332
 20
71.6680
 30
0.000000
  70
    32
  0
VERTEX
  8
0
  5
5F5
 10
61.3313
 20
72.1866
 30
0.000000
  70
    32
  0
VERTEX
  8
0
  5
5F6
 10
61.5960
 20
72.7159
 30
0.000000
  70
    32
  0
VERTEX
  8
0
  5
5F7
 10
61.8267
 20
73.2545
 30
0.000000
  70
    32
  0
VERTEX
  8
0
  5
5F8
 10
62.0229
 20
73.8012
 30
0.000000
  70
    32
  0
VERTEX
  8
0
  5
5F9
 10
62.1840
 20
74.3546
 30
0.000000
  70
    32
  0
VERTEX
  8
0
  5
5FA
 10
62.3098
 20
74.9135
 30
0.000000
  70
    32
  0
VERTEX
  8
0
  5
5FB
 10
62.3998
 20
75.4765
 30
0.000000
  70
    32
  0
VERTEX
  8
0
  5
5FC
 10
62.4539
 20
76.0422
 30
0.000000
  70
    32
  0
VERTEX
  8
0
  5
5FD
 10
62.4720
 20
76.6093
 30
0.000000
  70
    32
  0
SEQEND
  8
0
  5
5FE
  0
POLYLINE
  5
38F
  8
0
 10
58.026999853593672
 20
76.609292741280044
 30
0.0
 66
     1
 70
     8
  0
VERTEX
  8
0
  5
5FF
 10
58.0270
 20
76.6093
 30
0.000000
  70
    32
  0
VERTEX
  8
0
  5
600
 10
58.0143
 20
76.9583
 30
0.000000
  70
    32
  0
VERTEX
  8
0
  5
601
 10
57.9762
 20
77.3064
 30
0.000000
  70
    32
  0
VERTEX
  8
0
  5
602
 10
57.9129
 20
77.6528
 30
0.000000
  70
    32
  0
VERTEX
  8
0
  5
603
 10
57.8245
 20
77.9968
 30
0.000000
  70
    32
  0
VERTEX
  8
0
  5
604
 10
57.7111
 20
78.3374
 30
0.000000
  70
    32
  0
VERTEX
  8
0
  5
605
 10
57.5731
 20
78.6738
 30
0.000000
  70
    32
  0
VERTEX
  8
0
  5
606
 10
57.4108
 20
79.0053
 30
0.000000
  70
    32
  0
VERTEX
  8
0
  5
607
 10
57.2246
 20
79.3309
 30
0.000000
  70
    32
  0
VERTEX
  8
0
  5
608
 10
57.0150
 20
79.6501
 30
0.000000
  70
    32
  0
VERTEX
  8
0
  5
609
 10
56.7823
 20
79.9619
 30
0.000000
  70
    32
  0
VERTEX
  8
0
  5
60A
 10
56.5273
 20
80.2656
 30
0.000000
  70
    32
  0
VERTEX
  8
0
  5
60B
 10
56.2505
 20
80.5605
 30
0.000000
  70
    32
  0
VERTEX
  8
0
  5
60C
 10
55.9526
 20
80.8459
 30
0.000000
  70
    32
  0
VERTEX
  8
0
  5
60D
 10
55.6343
 20
81.1211
 30
0.000000
  70
    32
  0
VERTEX
  8
0
  5
60E
 10
55.2964
 20
81.3854
 30
0.000000
  70
    32
  0
VERTEX
  8
0
  5
60F
 10
54.9396
 20
81.6382
 30
0.000000
  70
    32
  0
VERTEX
  8
0
  5
610
 10
54.5649
 20
81.8789
 30
0.000000
  70
    32
  0
VERTEX
  8
0
  5
611
 10
54.1731
 20
82.1069
 30
0.000000
  70
    32
  0
VERTEX
  8
0
  5
612
 10
53.7653
 20
82.3217
 30
0.000000
  70
    32
  0
VERTEX
  8
0
  5
613
 10
53.3423
 20
82.5227
 30
0.000000
  70
    32
  0
VERTEX
  8
0
  5
614
 10
52.9052
 20
82.7095
 30
0.000000
  70
    32
  0
VERTEX
  8
0
  5
615
 10
52.4550
 20
82.8815
 30
0.000000
  70
    32
  0
VERTEX
  8
0
  5
616
 10
51.9929
 20
83.0385
 30
0.000000
  70
    32
  0
VERTEX
  8
0
  5
617
 10
51.5199
 20
83.1799
 30
0.000000
  70
    32
  0
VERTEX
  8
0
  5
618
 10
51.0372
 20
83.3056
 30
0.000000
  70
    32
  0
VERTEX
  8
0
  5
619
 10
50.5459
 20
83.4151
 30
0.000000
  70
    32
  0
VERTEX
  8
0
  5
61A
 10
50.0473
 20
83.5082
 30
0.000000
  70
    32
  0
VERTEX
  8
0
  5
61B
 10
49.5424
 20
83.5846
 30
0.000000
  70
    32
  0
VERTEX
  8
0
  5
61C
 10
49.0327
 20
83.6443
 30
0.000000
  70
    32
  0
VERTEX
  8
0
  5
61D
 10
48.5192
 20
83.6870
 30
0.000000
  70
    32
  0
VERTEX
  8
0
  5
61E
 10
48.0032
 20
83.7127
 30
0.000000
  70
    32
  0
VERTEX
  8
0
  5
61F
 10
47.4860
 20
83.7213
 30
0.000000
  70
    32
  0
VERTEX
  8
0
  5
620
 10
46.9688
 20
83.7127
 30
0.000000
  70
    32
  0
VERTEX
  8
0
  5
621
 10
46.4528
 20
83.6870
 30
0.000000
  70
    32
  0
VERTEX
  8
0
  5
622
 10
45.9393
 20
83.6443
 30
0.000000
  70
    32
  0
VERTEX
  8
0
  5
623
 10
45.4296
 20
83.5846
 30
0.000000
  70
    32
  0
VERTEX
  8
0
  5
624
 10
44.9247
 20
83.5082
 30
0.000000
  70
    32
  0
VERTEX
  8
0
  5
625
 10
44.4261
 20
83.4151
 30
0.000000
  70
    32
  0
VERTEX
  8
0
  5
626
 10
43.9348
 20
83.3056
 30
0.000000
  70
    32
  0
VERTEX
  8
0
  5
627
 10
43.4521
 20
83.1799
 30
0.000000
  70
    32
  0
VERTEX
  8
0
  5
628
 10
42.9791
 20
83.0385
 30
0.000000
  70
    32
  0
VERTEX
  8
0
  5
629
 10
42.5170
 20
82.8815
 30
0.000000
  70
    32
  0
VERTEX
  8
0
  5
62A
 10
42.0668
 20
82.7095
 30
0.000000
  70
    32
  0
VERTEX
  8
0
  5
62B
 10
41.6297
 20
82.5227
 30
0.000000
  70
    32
  0
VERTEX
  8
0
  5
62C
 10
41.2067
 20
82.3217
 30
0.000000
  70
    32
  0
VERTEX
  8
0
  5
62D
 10
40.7989
 20
82.1069
 30
0.000000
  70
    32
  0
VERTEX
  8
0
  5
62E
 10
40.4071
 20
81.8789
 30
0.000000
  70
    32
  0
VERTEX
  8
0
  5
62F
 10
40.0324
 20
81.6382
 30
0.000000
  70
    32
  0
VERTEX
  8
0
  5
630
 10
39.6756
 20
81.3854
 30
0.000000
  70
    32
  0
VERTEX
  8
0
  5
631
 10
39.3377
 20
81.1211
 30
0.000000
  70
    32
  0
VERTEX
  8
0
  5
632
 10
39.0194
 20
80.8459
 30
0.000000
  70
    32
  0
VERTEX
  8
0
  5
633
 10
38.7215
 20
80.5605
 30
0.000000
  70
    32
  0
VERTEX
  8
0
  5
634
 10
38.4447
 20
80.2656
 30
0.000000
  70
    32
  0
VERTEX
  8
0
  5
635
 10
38.1897
 20
79.9619
 30
0.000000
  70
    32
  0
VERTEX
  8
0
  5
636
 10
37.9570
 20
79.6501
 30
0.000000
  70
    32
  0
VERTEX
  8
0
  5
637
 10
37.7474
 20
79.3309
 30
0.000000
  70
    32
  0
VERTEX
  8
0
  5
638
 10
37.5612
 20
79.0053
 30
0.000000
  70
    32
  0
VERTEX
  8
0
  5
639
 10
37.3989
 20
78.6738
 30
0.000000
  70
    32
  0
VERTEX
  8
0
  5
63A
 10
37.2609
 20
78.3374
 30
0.000000
  70
    32
  0
VERTEX
  8
0
  5
63B
 10
37.1475
 20
77.9968
 30
0.000000
  70
    32
  0
VERTEX
  8
0
  5
63C
 10
37.0591
 20
77.6528
 30
0.000000
  70
    32
  0
VERTEX
  8
0
  5
63D
 10
36.9958
 20
77.3064
 30
0.000000
  70
    32
  0
VERTEX
  8
0
  5
63E
 10
36.9577
 20
76.9583
 30
0.000000
  70
    32
  0
VERTEX
  8
0
  5
63F
 10
36.9450
 20
76.6093
 30
0.000000
  70
    32
  0
VERTEX
  8
0
  5
640
 10
36.9577
 20
76.2603
 30
0.000000
  70
    32
  0
VERTEX
  8
0
  5
641
 10
36.9958
 20
75.9122
 30
0.000000
  70
    32
  0
VERTEX
  8
0
  5
642
 10
37.0591
 20
75.5657
 30
0.000000
  70
    32
  0
VERTEX
  8
0
  5
643
 10
37.1475
 20
75.2218
 30
0.000000
  70
    32
  0
VERTEX
  8
0
  5
644
 10
37.2609
 20
74.8812
 30
0.000000
  70
    32
  0
VERTEX
  8
0
  5
645
 10
37.3989
 20
74.5448
 30
0.000000
  70
    32
  0
VERTEX
  8
0
  5
646
 10
37.5612
 20
74.2133
 30
0.000000
  70
    32
  0
VERTEX
  8
0
  5
647
 10
37.7474
 20
73.8876
 30
0.000000
  70
    32
  0
VERTEX
  8
0
  5
648
 10
37.9570
 20
73.5685
 30
0.000000
  70
    32
  0
VERTEX
  8
0
  5
649
 10
38.1897
 20
73.2567
 30
0.000000
  70
    32
  0
VERTEX
  8
0
  5
64A
 10
38.4447
 20
72.9530
 30
0.000000
  70
    32
  0
VERTEX
  8
0
  5
64B
 10
38.7215
 20
72.6581
 30
0.000000
  70
    32
  0
VERTEX
  8
0
  5
64C
 10
39.0194
 20
72.3727
 30
0.000000
  70
    32
  0
VERTEX
  8
0
  5
64D
 10
39.3377
 20
72.0975
 30
0.000000
  70
    32
  0
VERTEX
  8
0
  5
64E
 10
39.6756
 20
71.8332
 30
0.000000
  70
    32
  0
VERTEX
  8
0
  5
64F
 10
40.0324
 20
71.5803
 30
0.000000
  70
    32
  0
VERTEX
  8
0
  5
650
 10
40.4071
 20
71.3396
 30
0.000000
  70
    32
  0
VERTEX
  8
0
  5
651
 10
40.7989
 20
71.1116
 30
0.000000
  70
    32
  0
VERTEX
  8
0
  5
652
 10
41.2067
 20
70.8969
 30
0.000000
  70
    32
  0
VERTEX
  8
0
  5
653
 10
41.6297
 20
70.6959
 30
0.000000
  70
    32
  0
VERTEX
  8
0
  5
654
 10
42.0668
 20
70.5091
 30
0.000000
  70
    32
  0
VERTEX
  8
0
  5
655
 10
42.5170
 20
70.3371
 30
0.000000
  70
    32
  0
VERTEX
  8
0
  5
656
 10
42.9791
 20
70.1801
 30
0.000000
  70
    32
  0
VERTEX
  8
0
  5
657
 10
43.4521
 20
70.0387
 30
0.000000
  70
    32
  0
VERTEX
  8
0
  5
658
 10
43.9348
 20
69.9130
 30
0.000000
  70
    32
  0
VERTEX
  8
0
  5
659
 10
44.4261
 20
69.8035
 30
0.000000
  70
    32
  0
VERTEX
  8
0
  5
65A
 10
44.9247
 20
69.7104
 30
0.000000
  70
    32
  0
VERTEX
  8
0
  5
65B
 10
45.4296
 20
69.6339
 30
0.000000
  70
    32
  0
VERTEX
  8
0
  5
65C
 10
45.9393
 20
69.5743
 30
0.000000
  70
    32
  0
VERTEX
  8
0
  5
65D
 10
46.4528
 20
69.5315
 30
0.000000
  70
    32
  0
VERTEX
  8
0
  5
65E
 10
46.9688
 20
69.5059
 30
0.000000
  70
    32
  0
VERTEX
  8
0
  5
65F
 10
47.4860
 20
69.4973
 30
0.000000
  70
    32
  0
VERTEX
  8
0
  5
660
 10
48.0032
 20
69.5059
 30
0.000000
  70
    32
  0
VERTEX
  8
0
  5
661
 10
48.5192
 20
69.5315
 30
0.000000
  70
    32
  0
VERTEX
  8
0
  5
662
 10
49.0327
 20
69.5743
 30
0.000000
  70
    32
  0
VERTEX
  8
0
  5
663
 10
49.5424
 20
69.6339
 30
0.000000
  70
    32
  0
VERTEX
  8
0
  5
664
 10
50.0473
 20
69.7104
 30
0.000000
  70
    32
  0
VERTEX
  8
0
  5
665
 10
50.5459
 20
69.8035
 30
0.000000
  70
    32
  0
VERTEX
  8
0
  5
666
 10
51.0372
 20
69.9130
 30
0.000000
  70
    32
  0
VERTEX
  8
0
  5
667
 10
51.5199
 20
70.0387
 30
0.000000
  70
    32
  0
VERTEX
  8
0
  5
668
 10
51.9929
 20
70.1801
 30
0.000000
  70
    32
  0
VERTEX
  8
0
  5
669
 10
52.4550
 20
70.3371
 30
0.000000
  70
    32
  0
VERTEX
  8
0
  5
66A
 10
52.9052
 20
70.5091
 30
0.000000
  70
    32
  0
VERTEX
  8
0
  5
66B
 10
53.3423
 20
70.6959
 30
0.000000
  70
    32
  0
VERTEX
  8
0
  5
66C
 10
53.7653
 20
70.8969
 30
0.000000
  70
    32
  0
VERTEX
  8
0
  5
66D
 10
54.1731
 20
71.1116
 30
0.000000
  70
    32
  0
VERTEX
  8
0
  5
66E
 10
54.5649
 20
71.3396
 30
0.000000
  70
    32
  0
VERTEX
  8
0
  5
66F
 10
54.9396
 20
71.5803
 30
0.000000
  70
    32
  0
VERTEX
  8
0
  5
670
 10
55.2964
 20
71.8332
 30
0.000000
  70
    32
  0
VERTEX
  8
0
  5
671
 10
55.6343
 20
72.0975
 30
0.000000
  70
    32
  0
VERTEX
  8
0
  5
672
 10
55.9526
 20
72.3727
 30
0.000000
  70
    32
  0
VERTEX
  8
0
  5
673
 10
56.2505
 20
72.6581
 30
0.000000
  70
    32
  0
VERTEX
  8
0
  5
674
 10
56.5273
 20
72.9530
 30
0.000000
  70
    32
  0
VERTEX
  8
0
  5
675
 10
56.7823
 20
73.2567
 30
0.000000
  70
    32
  0
VERTEX
  8
0
  5
676
 10
57.0150
 20
73.5685
 30
0.000000
  70
    32
  0
VERTEX
  8
0
  5
677
 10
57.2246
 20
73.8876
 30
0.000000
  70
    32
  0
VERTEX
  8
0
  5
678
 10
57.4108
 20
74.2133
 30
0.000000
  70
    32
  0
VERTEX
  8
0
  5
679
 10
57.5731
 20
74.5448
 30
0.000000
  70
    32
  0
VERTEX
  8
0
  5
67A
 10
57.7111
 20
74.8812
 30
0.000000
  70
    32
  0
VERTEX
  8
0
  5
67B
 10
57.8245
 20
75.2218
 30
0.000000
  70
    32
  0
VERTEX
  8
0
  5
67C
 10
57.9129
 20
75.5657
 30
0.000000
  70
    32
  0
VERTEX
  8
0
  5
67D
 10
57.9762
 20
75.9122
 30
0.000000
  70
    32
  0
VERTEX
  8
0
  5
67E
 10
58.0143
 20
76.2603
 30
0.000000
  70
    32
  0
VERTEX
  8
0
  5
67F
 10
58.0270
 20
76.6093
 30
0.000000
  70
    32
  0
SEQEND
  8
0
  5
680
  0
ARC
  5
390
  8
0
 10
87.618428284984731
 20
106.8172692322281
 30
0.0
 40
19.23381239136117
 50
255.8589784799392
 51
284.14102151999248
  0
ARC
  5
391
  8
0
 10
87.618389030495308
 20
45.86724429293222
 30
0.0
 40
19.369536869210261
 50
82.085776239816767
 51
97.914223760062455
  0
ARC
  5
392
  8
2
 10
87.618428284973547
 20
98.15256181146853
 30
0.0
 40
15.17702667981264
 50
251.96410927520091
 51
288.035890724799
  0
ARC
  5
393
  8
2
 10
87.618389030515516
 20
54.243043354469201
 30
0.0
 40
15.48563856854086
 50
80.082842443481837
 51
99.917157556518063
  0
TEXT
  5
509
  8
0
 62
     3
 10
2.4999998535936778
 20
-0.0000000034623611
 30
0.0
 40
10.0
  1
TPGBR-1-55
  7
STANDARD1
  0
ENDSEC
  0
EOF
